  0
SECTION
  2
HEADER
  9
$ACADVER
  1
AC1009
  9
$INSBASE
 10
3271.1927416458079279
 20
156.5835947507486878
 30
0.0
  9
$EXTMIN
 10
3268.8599463702080357
 20
152.1305867507487051
 30
0.0
  9
$EXTMAX
 10
3271.2035280083428006
 20
157.7244608925487057
 30
0.0
  9
$LIMMIN
 10
0.0
 20
0.0
  9
$LIMMAX
 10
11.6929133858000007
 20
8.2677165353999982
  9
$ORTHOMODE
 70
     0
  9
$REGENMODE
 70
     1
  9
$FILLMODE
 70
     1
  9
$QTEXTMODE
 70
     0
  9
$MIRRTEXT
 70
     0
  9
$DRAGMODE
 70
     2
  9
$LTSCALE
 40
0.6431102362
  9
$OSMODE
 70
     7
  9
$ATTMODE
 70
     1
  9
$TEXTSIZE
 40
0.2
  9
$TRACEWID
 40
0.05
  9
$TEXTSTYLE
  7
STANDARD
  9
$CLAYER
  8
0
  9
$CELTYPE
  6
BYLAYER
  9
$CECOLOR
 62
   256
  9
$DIMSCALE
 40
1.0
  9
$DIMASZ
 40
0.1875
  9
$DIMEXO
 40
0.0625
  9
$DIMDLI
 40
0.4443307087
  9
$DIMRND
 40
0.0
  9
$DIMDLE
 40
0.0
  9
$DIMEXE
 40
0.125
  9
$DIMTP
 40
0.01
  9
$DIMTM
 40
0.01
  9
$DIMTXT
 40
2.0
  9
$DIMCEN
 40
0.1052362205
  9
$DIMTSZ
 40
0.0
  9
$DIMTOL
 70
     1
  9
$DIMLIM
 70
     0
  9
$DIMTIH
 70
     1
  9
$DIMTOH
 70
     1
  9
$DIMSE1
 70
     0
  9
$DIMSE2
 70
     0
  9
$DIMTAD
 70
     0
  9
$DIMZIN
 70
     0
  9
$DIMBLK
  1

  9
$DIMASO
 70
     1
  9
$DIMSHO
 70
     1
  9
$DIMPOST
  1
\X
  9
$DIMAPOST
  1

  9
$DIMALT
 70
     1
  9
$DIMALTD
 70
     2
  9
$DIMALTF
 40
25.3999999999999986
  9
$DIMLFAC
 40
1.0
  9
$DIMTOFL
 70
     0
  9
$DIMTVP
 40
0.0
  9
$DIMTIX
 70
     0
  9
$DIMSOXD
 70
     0
  9
$DIMSAH
 70
     0
  9
$DIMBLK1
  1

  9
$DIMBLK2
  1

  9
$DIMSTYLE
  2
STANDARD
  9
$DIMCLRD
 70
     0
  9
$DIMCLRE
 70
     0
  9
$DIMCLRT
 70
     0
  9
$DIMTFAC
 40
1.0
  9
$DIMGAP
 40
0.09
  9
$LUNITS
 70
     2
  9
$LUPREC
 70
     4
  9
$SKETCHINC
 40
0.1
  9
$FILLETRAD
 40
0.0
  9
$AUNITS
 70
     0
  9
$AUPREC
 70
     0
  9
$MENU
  1
.
  9
$ELEVATION
 40
0.0
  9
$PELEVATION
 40
0.0
  9
$THICKNESS
 40
0.0
  9
$LIMCHECK
 70
     0
  9
$BLIPMODE
 70
     0
  9
$CHAMFERA
 40
0.0
  9
$CHAMFERB
 40
0.0
  9
$SKPOLY
 70
     0
  9
$TDCREATE
 40
2458060.468368056230247
  9
$TDUPDATE
 40
2459609.3819675929844379
  9
$TDINDWG
 40
2.0609677083000002
  9
$TDUSRTIMER
 40
2.0609677083000002
  9
$USRTIMER
 70
     1
  9
$ANGBASE
 50
0.0
  9
$ANGDIR
 70
     0
  9
$PDMODE
 70
     0
  9
$PDSIZE
 40
0.3125
  9
$PLINEWID
 40
0.0
  9
$COORDS
 70
     1
  9
$SPLFRAME
 70
     0
  9
$SPLINETYPE
 70
     6
  9
$SPLINESEGS
 70
     8
  9
$ATTDIA
 70
     1
  9
$ATTREQ
 70
     1
  9
$HANDLING
 70
     1
  9
$HANDSEED
  5
2D16B
  9
$SURFTAB1
 70
     6
  9
$SURFTAB2
 70
     6
  9
$SURFTYPE
 70
     6
  9
$SURFU
 70
     6
  9
$SURFV
 70
     6
  9
$UCSNAME
  2

  9
$UCSORG
 10
0.0
 20
0.0
 30
0.0
  9
$UCSXDIR
 10
1.0
 20
0.0
 30
0.0
  9
$UCSYDIR
 10
0.0
 20
1.0
 30
0.0
  9
$PUCSNAME
  2

  9
$PUCSORG
 10
0.0
 20
0.0
 30
0.0
  9
$PUCSXDIR
 10
1.0
 20
0.0
 30
0.0
  9
$PUCSYDIR
 10
0.0
 20
1.0
 30
0.0
  9
$USERI1
 70
     0
  9
$USERI2
 70
     0
  9
$USERI3
 70
     0
  9
$USERI4
 70
     0
  9
$USERI5
 70
     0
  9
$USERR1
 40
0.0
  9
$USERR2
 40
0.0
  9
$USERR3
 40
0.0
  9
$USERR4
 40
0.0
  9
$USERR5
 40
0.0
  9
$WORLDVIEW
 70
     1
  9
$SHADEDGE
 70
     3
  9
$SHADEDIF
 70
    70
  9
$TILEMODE
 70
     1
  9
$MAXACTVP
 70
    64
  9
$PLIMCHECK
 70
     0
  9
$PEXTMIN
 10
1.0000000000000000E+20
 20
1.0000000000000000E+20
 30
1.0000000000000000E+20
  9
$PEXTMAX
 10
-1.0000000000000000E+20
 20
-1.0000000000000000E+20
 30
-1.0000000000000000E+20
  9
$PLIMMIN
 10
0.0
 20
0.0
  9
$PLIMMAX
 10
12.0
 20
9.0
  9
$UNITMODE
 70
     0
  9
$VISRETAIN
 70
     1
  9
$PLINEGEN
 70
     0
  9
$PSLTSCALE
 70
     1
  0
ENDSEC
  0
SECTION
  2
TABLES
  0
TABLE
  2
VPORT
 70
     1
  0
VPORT
  2
*ACTIVE
 70
     0
 10
0.0
 20
0.0
 11
1.0
 21
1.0
 12
6.6426991033381437
 22
3.2058212459650961
 13
0.0
 23
0.0
 14
1.0
 24
1.0
 15
0.0
 25
0.0
 16
0.0
 26
0.0
 36
92.3385285193394054
 17
3263.3890380859379547
 27
151.7217025756835938
 37
0.0
 40
5.6339257466339179
 41
2.2831541218637992
 42
50.0
 43
0.0
 44
0.0
 50
0.0
 51
0.0
 71
     0
 72
   100
 73
     1
 74
     1
 75
     0
 76
     0
 77
     0
 78
     0
  0
ENDTAB
  0
TABLE
  2
LTYPE
 70
     2
  0
LTYPE
  2
CONTINUOUS
 70
     0
  3
Solid line
 72
    65
 73
     0
 40
0.0
  0
LTYPE
  2
PHANTOM2
 70
     0
  3
___ _ _ ___ _ _ ___ _ _ ___ _ _
 72
    65
 73
     6
 40
1.25
 49
0.625
 49
-0.125
 49
0.125
 49
-0.125
 49
0.125
 49
-0.125
  0
ENDTAB
  0
TABLE
  2
LAYER
 70
     2
  0
LAYER
  2
0
 70
     0
 62
   255
  6
CONTINUOUS
  0
LAYER
  2
DEFPOINTS
 70
     0
 62
     7
  6
CONTINUOUS
  0
ENDTAB
  0
TABLE
  2
STYLE
 70
     1
  0
STYLE
  2
STANDARD
 70
     0
 40
0.0
 41
0.8
 50
0.0
 71
     0
 42
0.2
  3
txt
  4

  0
ENDTAB
  0
TABLE
  2
VIEW
 70
     0
  0
ENDTAB
  0
TABLE
  2
UCS
 70
     0
  0
ENDTAB
  0
TABLE
  2
APPID
 70
    10
  0
APPID
  2
ACAD
 70
     0
  0
APPID
  2
ACAD_MLEADERVER
 70
     0
  0
APPID
  2
ACAD_EXEMPT_FROM_CAD_STANDARDS
 70
     0
  0
APPID
  2
ACAD_NAV_VCDISPLAY
 70
     0
  0
APPID
  2
ACAECLAYERSTANDARD
 70
     0
  0
APPID
  2
ACCMTRANSPARENCY
 70
     0
  0
APPID
  2
ACAD_DSTYLE_DIMJAG
 70
     0
  0
APPID
  2
ACAD_DSTYLE_DIMTALN
 70
     0
  0
APPID
  2
ACDBATTR
 70
     0
  0
APPID
  2
ACADANNOTATIVE
 70
     0
  0
ENDTAB
  0
TABLE
  2
DIMSTYLE
 70
     1
  0
DIMSTYLE
  2
STANDARD
 70
     0
  3

  4

  5

  6

  7

 40
1.0
 41
0.1875
 42
0.0625
 43
0.38
 44
0.125
 45
0.0
 46
0.0
 47
0.01
 48
0.01
140
0.15625
141
0.09
142
0.0
143
25.3999999999999986
144
1.0
145
0.0
146
1.0
147
0.09
 71
     1
 72
     0
 73
     1
 74
     1
 75
     0
 76
     0
 77
     0
 78
     4
170
     0
171
     2
172
     0
173
     0
174
     0
175
     0
176
     0
177
     0
178
     0
  0
ENDTAB
  0
ENDSEC
  0
SECTION
  2
BLOCKS
  0
BLOCK
  8
0
  2
$MODEL_SPACE
 70
     0
 10
0.0
 20
0.0
 30
0.0
  3
$MODEL_SPACE
  1

  0
ENDBLK
  5
21
  8
0
  0
BLOCK
 67
     1
  8
0
  2
$PAPER_SPACE
 70
     0
 10
0.0
 20
0.0
 30
0.0
  3
$PAPER_SPACE
  1

  0
ENDBLK
  5
1D
 67
     1
  8
0
  0
ENDSEC
  0
SECTION
  2
ENTITIES
  0
ATTDEF
  5
2143C
  8
DEFPOINTS
 10
3271.1928613416739609
 20
156.587042948502301
 30
0.0
 40
0.001
  1
P25336-CPH
  3

  2
MODELNUMBER
 70
     0
1001
ACDBATTR
1070
     0
1070
     1
  0
ATTDEF
  5
2143D
  8
DEFPOINTS
 10
3271.1928613416739609
 20
156.5853762818356927
 30
0.0
 40
0.001
  1
PINNA PALETTA
  3

  2
TRADENAME
 70
     0
1001
ACDBATTR
1070
     0
1070
     1
  0
ATTDEF
  5
2143E
  8
DEFPOINTS
 10
3271.1928613416739609
 20
156.5837096151689991
 30
0.0
 40
0.001
  1
TOWEL RING
  3

  2
PRODUCT
 70
     0
1001
ACDBATTR
1070
     0
1070
     1
  0
LINE
  5
2CFE1
  8
0
 10
3271.1927416458079279
 20
157.6214293964474962
 30
0.0
 11
3271.1927416458079279
 21
155.5457601050487142
 31
0.0
  0
LINE
  5
2CFE2
  8
0
 10
3271.1667416458089974
 20
157.7044608925477007
 30
0.0
 11
3271.1667416458089974
 21
155.4627286089487086
 31
0.0
  0
LINE
  5
2CFE3
  8
0
 10
3270.8722154389088246
 20
157.7179143483485859
 30
0.0
 11
3270.8722154389088246
 21
155.4492751531487045
 31
0.0
  0
LINE
  5
2CFE4
  8
0
 10
3270.7797416458088264
 20
157.6084610383855136
 30
0.0
 11
3270.7797416458088264
 21
155.5587284631002944
 31
0.0
  0
LINE
  5
2CFE5
  8
0
 10
3270.6553877184092016
 20
157.4522368863486861
 30
0.0
 11
3270.6553877184092016
 21
155.7149526151486896
 31
0.0
  0
LINE
  5
2CFE6
  8
0
 10
3270.5825054253091366
 20
157.3710703220741891
 30
0.0
 11
3270.5825054253091366
 21
155.7961191794047977
 31
0.0
  0
LINE
  5
2CFE7
  8
0
 10
3271.1667416458089974
 20
157.6414293964487001
 30
0.0
 11
3271.172741645807946
 21
157.6414293964487001
 31
0.0
  0
ARC
  5
2CFE8
  8
0
 10
3271.172741645807946
 20
157.6214293964486046
 30
0.0
 40
0.0200000000000014
 50
359.9999999965997972
 51
90.0
  0
LINE
  5
2CFE9
  8
0
 10
3271.1467416458090156
 20
157.7244608925487057
 30
0.0
 11
3270.8870142401801786
 21
157.7244608925487057
 31
0.0
  0
ARC
  5
2CFEA
  8
0
 10
3271.1467416458090156
 20
157.7044608925486955
 30
0.0
 40
0.0200000000000014
 50
359.9999999970688123
 51
90.0
  0
LINE
  5
2CFEB
  8
0
 10
3270.8722154391671211
 20
157.7179143486322914
 30
0.0
 11
3270.7849428444201294
 21
157.6219144944707011
 31
0.0
  0
ARC
  5
2CFEC
  8
0
 10
3270.8870142401801786
 20
157.7044608931570906
 30
0.0
 40
0.0199999993915885
 50
89.999999631685057
 51
137.7263120743938885
  0
ARC
  5
2CFED
  8
0
 10
3270.7997416460862041
 20
157.6084610383969959
 30
0.0
 40
0.0200000002767515
 50
137.7263114370381061
 51
180.0000000329955014
  0
LINE
  5
2CFEE
  8
0
 10
3270.7597416458088446
 20
157.458094750748586
 30
0.0
 11
3270.669529853964832
 21
157.458094750748586
 31
0.0
  0
LINE
  5
2CFEF
  8
0
 10
3270.6553877184969679
 20
157.4522368864369923
 30
0.0
 11
3270.5883632896247946
 21
157.3852124575649043
 31
0.0
  0
ARC
  5
2CFF0
  8
0
 10
3270.669529853964832
 20
157.4380947509690998
 30
0.0
 40
0.0199999997795466
 50
89.9999998743883367
 51
135.0000003577590917
  0
ARC
  5
2CFF1
  8
0
 10
3270.7597416458088446
 20
157.4780947507487099
 30
0.0
 40
0.0200000000000049
 50
270.0
 51
0.0
  0
ARC
  5
2CFF2
  8
0
 10
3270.6025054250881112
 20
157.3710703220924927
 30
0.0
 40
0.0199999997795597
 50
134.9999996422880884
 51
180.0000000523284029
  0
LINE
  5
2CFF4
  8
0
 10
3268.9451595735758929
 20
157.331594750748593
 30
0.0
 11
3269.4837331668418301
 21
157.331594750748593
 31
0.0
  0
LINE
  5
2CFF5
  8
0
 10
3268.8643397684090814
 20
157.2569881490487091
 30
0.0
 11
3269.5645529720090963
 21
157.2569881490487091
 31
0.0
  0
LINE
  5
2CFF6
  8
0
 10
3268.8599463702080357
 20
156.3080947507486087
 30
0.0
 11
3268.8599463702080357
 21
157.2463815472891895
 31
0.0
  0
LINE
  5
2CFF7
  8
0
 10
3268.8643397684090814
 20
157.2569881490487091
 30
0.0
 11
3268.9345529719830665
 21
157.327201352522394
 31
0.0
  0
LINE
  5
2CFF8
  8
0
 10
3269.6620908906102159
 20
156.2290947507486862
 30
0.0
 11
3269.4014543702091942
 21
156.2290947507486862
 31
0.0
  0
LINE
  5
2CFF9
  8
0
 10
3269.0274383702089835
 20
156.2290947507486862
 30
0.0
 11
3268.9389463702141256
 21
156.2290947507486862
 31
0.0
  0
ARC
  5
2CFFA
  8
0
 10
3268.938976658134834
 20
156.3081250386750867
 30
0.0
 40
0.0790302937303214
 50
180.0219582936890959
 51
269.9780417063108189
  0
ARC
  5
2CFFB
  8
0
 10
3268.8749463705080416
 20
157.2463815472891895
 30
0.0
 40
0.0150000002991355
 50
135.0000009173307092
 51
179.999999772716393
  0
ARC
  5
2CFFC
  8
0
 10
3268.9451595735758929
 20
157.3165947509139926
 30
0.0
 40
0.0149999998346758
 50
89.9999998743883367
 51
135.0000003577210919
  0
LINE
  5
2CFFD
  8
0
 10
3269.5689463702078683
 20
157.0170947507556889
 30
0.0
 11
3269.5689463702078683
 21
157.2463815472891895
 31
0.0
  0
LINE
  5
2CFFE
  8
0
 10
3269.5645529720090963
 20
157.2569881490487091
 30
0.0
 11
3269.4943397684351112
 21
157.327201352522394
 31
0.0
  0
ARC
  5
2CFFF
  8
0
 10
3269.5539463699092266
 20
157.2463815472891895
 30
0.0
 40
0.0150000002991355
 50
0.0000002272835571
 51
44.9999990826692766
  0
ARC
  5
2D000
  8
0
 10
3269.4837331668418301
 20
157.3165947509139926
 30
0.0
 40
0.0149999998346758
 50
44.9999996422788868
 51
90.0000001256116349
  0
LINE
  5
2D001
  8
0
 10
3269.647946370218051
 20
156.9380947507486894
 30
0.0
 11
3269.6620908906102159
 21
156.9380947507486894
 31
0.0
  0
ARC
  5
2D002
  8
0
 10
3269.647976657864092
 20
157.0171250384042025
 30
0.0
 40
0.0790302934592539
 50
180.0219580973216011
 51
269.9780419026881759
  0
LINE
  5
2D003
  8
0
 10
3269.6717327047608705
 20
156.9416040841082918
 30
0.0
 11
3269.7217641092602207
 21
156.9835854172403913
 31
0.0
  0
ARC
  5
2D004
  8
0
 10
3269.6620908906102159
 20
156.9530947507429914
 30
0.0
 40
0.0149999999943802
 50
269.9999999961959816
 51
310.0000002858005814
  0
LINE
  5
2D005
  8
0
 10
3269.7899463702087814
 20
156.987094750748696
 30
0.0
 11
3269.731405923820148
 21
156.987094750748696
 31
0.0
  0
LINE
  5
2D006
  8
0
 10
3269.8049463702091089
 20
156.987094750748696
 30
0.0
 11
3270.4143532899138336
 21
156.987094750748696
 31
0.0
  0
LINE
  5
2D007
  8
0
 10
3270.557329517459948
 20
156.987094750748696
 30
0.0
 11
3270.5825054253091366
 21
156.987094750748696
 31
0.0
  0
LINE
  5
2D008
  8
0
 10
3269.8049463702091089
 20
156.987094750748696
 30
0.0
 11
3269.8049463702091089
 21
156.1800947507485944
 31
0.0
  0
ARC
  5
2D009
  8
0
 10
3269.7899463702087814
 20
156.9720947507487097
 30
0.0
 40
0.0150000000000006
 50
0.0
 51
90.0
  0
ARC
  5
2D00A
  8
0
 10
3269.731405923820148
 20
156.9720947501191972
 30
0.0
 40
0.0150000006294899
 50
90.0000004239686575
 51
129.999998808601589
  0
LINE
  5
2D00B
  8
0
 10
3269.7217641095089675
 20
156.983585417448694
 30
0.0
 11
3269.7217641095089675
 21
156.1836040840485964
 31
0.0
  0
LINE
  5
2D00C
  8
0
 10
3269.6620908906088516
 20
156.9380947507486894
 30
0.0
 11
3269.6620908906088516
 21
156.2290947507486862
 31
0.0
  0
LINE
  5
2D00D
  8
0
 10
3269.6717327047608705
 20
156.2255854173889986
 30
0.0
 11
3269.7217641092602207
 21
156.1836040842568991
 31
0.0
  0
ARC
  5
2D00E
  8
0
 10
3269.6620908906102159
 20
156.214094750754299
 30
0.0
 40
0.0149999999943802
 50
49.9999997141993902
 51
90.0000000038040326
  0
LINE
  5
2D00F
  8
0
 10
3269.7899463702087814
 20
156.1800947507485944
 30
0.0
 11
3269.731405923820148
 21
156.1800947507485944
 31
0.0
  0
LINE
  5
2D010
  8
0
 10
3269.8049463702091089
 20
156.1800947507485944
 30
0.0
 11
3270.4143532899138336
 21
156.1800947507485944
 31
0.0
  0
LINE
  5
2D011
  8
0
 10
3270.557329517459948
 20
156.1800947507485944
 30
0.0
 11
3270.5825054253091366
 21
156.1800947507485944
 31
0.0
  0
ARC
  5
2D012
  8
0
 10
3269.7899463702087814
 20
156.1950947507486944
 30
0.0
 40
0.0150000000000006
 50
270.0
 51
0.0
  0
ARC
  5
2D013
  8
0
 10
3269.731405923820148
 20
156.1950947513782069
 30
0.0
 40
0.0150000006294899
 50
230.0000011913982974
 51
269.9999995760314278
  0
LINE
  5
2D014
  8
0
 10
3269.0274383702089835
 20
156.977594750748608
 30
0.0
 11
3269.0274383702089835
 21
152.3175947507486114
 31
0.0
  0
LINE
  5
2D015
  8
0
 10
3269.4014543702091942
 20
156.977594750748608
 30
0.0
 11
3269.4014543702091942
 21
152.3175947507486114
 31
0.0
  0
ARC
  5
2D016
  8
0
 10
3269.2144463702088615
 20
156.977594750748608
 30
0.0
 40
0.1870080000000005
 50
0.0
 51
180.0
  0
LINE
  5
2D017
  8
0
 10
3271.1667416458089974
 20
155.525760105048704
 30
0.0
 11
3271.172741645807946
 21
155.525760105048704
 31
0.0
  0
ARC
  5
2D018
  8
0
 10
3271.172741645807946
 20
155.5457601050487142
 30
0.0
 40
0.0200000000000014
 50
270.0
 51
0.0000000034001911
  0
LINE
  5
2D019
  8
0
 10
3271.1467416458090156
 20
155.4427286089486984
 30
0.0
 11
3271.1278531723969536
 21
155.4427286089486984
 31
0.0
  0
LINE
  5
2D01A
  8
0
 10
3270.9213136560210842
 20
155.4427286089486984
 30
0.0
 11
3270.8870142401801786
 21
155.4427286089486984
 31
0.0
  0
ARC
  5
2D01B
  8
0
 10
3271.1467416458090156
 20
155.4627286089487086
 30
0.0
 40
0.0200000000000014
 50
270.0
 51
0.0000000029311992
  0
LINE
  5
2D01C
  8
0
 10
3270.8722154391671211
 20
155.449275152864999
 30
0.0
 11
3270.7849428444201294
 21
155.5452750070265893
 31
0.0
  0
ARC
  5
2D01D
  8
0
 10
3270.8870142401801786
 20
155.4627286083403135
 30
0.0
 40
0.0199999993915885
 50
222.2736879256061115
 51
270.0000003683148861
  0
ARC
  5
2D01E
  8
0
 10
3270.7997416460862041
 20
155.5587284631002944
 30
0.0
 40
0.0200000002767515
 50
179.9999999670027933
 51
222.2736885629618087
  0
LINE
  5
2D01F
  8
0
 10
3270.7597416458088446
 20
155.7090947507487044
 30
0.0
 11
3270.669529853964832
 21
155.7090947507487044
 31
0.0
  0
LINE
  5
2D020
  8
0
 10
3270.6553877184969679
 20
155.7149526150604117
 30
0.0
 11
3270.5883632896247946
 21
155.7819770439323861
 31
0.0
  0
ARC
  5
2D021
  8
0
 10
3270.669529853964832
 20
155.7290947505281906
 30
0.0
 40
0.0199999997795466
 50
224.9999996422409083
 51
270.0000001256116775
  0
ARC
  5
2D022
  8
0
 10
3270.7597416458088446
 20
155.6890947507486089
 30
0.0
 40
0.0200000000000049
 50
0.0
 51
90.0
  0
ARC
  5
2D023
  8
0
 10
3270.6025054250881112
 20
155.7961191794047977
 30
0.0
 40
0.0199999997795597
 50
179.9999999476715971
 51
225.0000003577119116
  0
ARC
  5
2D024
  8
0
 10
3271.0245834142087915
 20
154.3195903281863082
 30
0.0
 40
1.1278759863876151
 50
84.7465678539503955
 51
95.2534321460496187
  0
ARC
  5
2D025
  8
0
 10
3269.2144463702088615
 20
152.3175947507486114
 30
0.0
 40
0.1870079999999987
 50
180.0
 51
0.0
  0
ARC
  5
2D026
  8
0
 10
3270.3543065238441159
 20
162.9781794923011944
 30
0.0
 40
6.7983499297583281
 50
270.5060744209927179
 51
271.9235977298584999
  0
ARC
  5
2D027
  8
0
 10
3270.5925032693980938
 20
156.9763218032377097
 30
0.0
 40
0.7970035833926454
 50
265.2798489422622197
 51
267.4705730987016068
  0
ARC
  5
2D028
  8
0
 10
3270.2598809232908934
 20
162.5632473293321141
 30
0.0
 40
6.3789218942288644
 50
270.4073877856405943
 51
272.8990654688694804
  0
ARC
  5
2D029
  8
0
 10
3270.0885942549411993
 20
163.0582911891916922
 30
0.0
 40
6.8772176216113561
 50
270.9617792718066767
 51
274.1184401786459262
  0
ARC
  5
2D02A
  8
0
 10
3269.9262581112770931
 20
171.4453254285373021
 30
0.0
 40
15.2658103204269597
 50
270.4992973208974263
 51
271.0425983711818958
  0
ARC
  5
2D02B
  8
0
 10
3270.1565206100040086
 20
160.2066703212097138
 30
0.0
 40
4.0156745093512409
 50
274.5681629577854892
 51
276.0894231462498283
  0
ARC
  5
2D02C
  8
0
 10
3269.9978948251828115
 20
162.5594093749637068
 30
0.0
 40
6.3736405190481813
 50
270.7628934975343782
 51
274.3051104802601117
  0
ARC
  5
2D02D
  8
0
 10
3270.4949951571820748
 20
116.5784824695023048
 30
0.0
 40
39.6099965908753404
 50
90.5963118966637921
 51
90.9982046628297354
  0
ARC
  5
2D02E
  8
0
 10
3270.001418626512077
 20
160.6922289252862015
 30
0.0
 40
4.503768180800475
 50
273.0810696119676209
 51
277.413101895530076
  0
ARC
  5
2D02F
  8
0
 10
3269.8385275342398018
 20
163.7693414158540008
 30
0.0
 40
7.5851883637045558
 50
271.4488265127358204
 51
273.0604046020719124
  0
ARC
  5
2D030
  8
0
 10
3270.4756150622861242
 20
138.3253687715250919
 30
0.0
 40
17.8667593431639986
 50
91.4281615028464358
 51
91.6158118833526913
  0
ARC
  5
2D031
  8
0
 10
3269.8145635452260649
 20
161.3205590604291899
 30
0.0
 40
5.1316001997965071
 50
269.8926214357338154
 51
278.6066259915984915
  0
ARC
  5
2D032
  8
0
 10
3269.6585229050051566
 20
161.4049140982876906
 30
0.0
 40
5.2166329780087297
 50
271.6084222526779968
 51
280.2021932025086244
  0
ARC
  5
2D033
  8
0
 10
3269.6074418942212105
 20
161.1856560411283965
 30
0.0
 40
4.9917635623137109
 50
272.2675608287053137
 51
281.2642632923211181
  0
ARC
  5
2D034
  8
0
 10
3269.5721279421140935
 20
161.0122755885641936
 30
0.0
 40
4.806121239511234
 50
272.7766124350030736
 51
282.1356664823666165
  0
ARC
  5
2D035
  8
0
 10
3269.4617898735818926
 20
161.0728495882868003
 30
0.0
 40
4.8637548236306367
 50
274.0457975857218003
 51
283.32191731153722
  0
ARC
  5
2D036
  8
0
 10
3269.5560705927177878
 20
160.3401802039450104
 30
0.0
 40
4.1080029191633098
 50
273.4732859810704895
 51
284.4693897008285148
  0
ARC
  5
2D037
  8
0
 10
3269.3292271819118469
 20
161.1795072232152961
 30
0.0
 40
4.9501648106918816
 50
275.5147319593709767
 51
284.6657088284035808
  0
ARC
  5
2D038
  8
0
 10
3269.5486880255261894
 20
159.992651484741998
 30
0.0
 40
3.7265772236588091
 50
273.9430600269935212
 51
286.1061332572234051
  0
ARC
  5
2D039
  8
0
 10
3269.3661361180461427
 20
160.6581721889936887
 30
0.0
 40
4.3911846288338676
 50
275.7351287264016264
 51
286.0813864282717986
  0
ARC
  5
2D03A
  8
0
 10
3269.411232936576198
 20
160.3963167459965007
 30
0.0
 40
4.0981507938208841
 50
275.5129654030782831
 51
286.6069829498360946
  0
ARC
  5
2D03B
  8
0
 10
3269.1500669602178277
 20
161.3459816251908876
 30
0.0
 40
5.053031067978738
 50
277.4465537512526225
 51
286.4680715510218079
  0
ARC
  5
2D03C
  8
0
 10
3269.1810913274430277
 20
161.3382554474966923
 30
0.0
 40
5.0099323198887662
 50
277.1532478267398005
 51
286.243924354241301
  0
ARC
  5
2D03D
  8
0
 10
3269.4915222887348136
 20
159.1983990364637123
 30
0.0
 40
2.8216683552220712
 50
276.3774368263009933
 51
292.0758204367335793
  0
ARC
  5
2D03E
  8
0
 10
3269.4830764600369548
 20
159.4800809007770965
 30
0.0
 40
3.0662295077907271
 50
276.0255846725186188
 51
289.1538399319629207
  0
ARC
  5
2D03F
  8
0
 10
3269.4118496505720941
 20
159.5796048291348086
 30
0.0
 40
3.1464468534278431
 50
277.1769173740048018
 51
287.7889440301599961
  0
ARC
  5
2D040
  8
0
 10
3269.688201439572822
 20
158.5973903508073874
 30
0.0
 40
2.1051073050006202
 50
273.1791373781882726
 51
286.9373792425873262
  0
ARC
  5
2D041
  8
0
 10
3269.6629330019231929
 20
158.1688338519124102
 30
0.0
 40
1.651645963447582
 50
274.9325498691470102
 51
286.3024019761509749
  0
ARC
  5
2D042
  8
0
 10
3269.8212980160901679
 20
157.6055646613095007
 30
0.0
 40
1.0451557566311731
 50
269.1035608658214073
 51
282.0910704298892142
  0
LINE
  5
2D043
  8
0
 10
3270.557329517459948
 20
156.987094750748696
 30
0.0
 11
3270.5825054253091366
 21
156.987094750748696
 31
0.0
  0
ARC
  5
2D044
  8
0
 10
3270.3543065238441159
 20
150.189010009196096
 30
0.0
 40
6.7983499297583281
 50
88.0764022701414149
 51
89.4939255790073389
  0
ARC
  5
2D045
  8
0
 10
3270.5925032693980938
 20
156.1908676982596944
 30
0.0
 40
0.7970035833926454
 50
92.5294269012984643
 51
94.720151057737823
  0
ARC
  5
2D046
  8
0
 10
3270.2598809232908934
 20
150.6039421721652047
 30
0.0
 40
6.3789218942288644
 50
87.1009345311304912
 51
89.5926122143593346
  0
ARC
  5
2D047
  8
0
 10
3270.0885942549411993
 20
150.1088983123055982
 30
0.0
 40
6.8772176216113561
 50
85.8815598213540881
 51
89.0382207281933375
  0
ARC
  5
2D048
  8
0
 10
3269.9262581112770931
 20
141.7218640729599883
 30
0.0
 40
15.2658103204269597
 50
88.9574016288181184
 51
89.5007026791025453
  0
ARC
  5
2D049
  8
0
 10
3270.1565206100040086
 20
152.960519180287605
 30
0.0
 40
4.0156745093512409
 50
83.9105768537502144
 51
85.431837042214454
  0
ARC
  5
2D04A
  8
0
 10
3269.9978948251828115
 20
150.6077801265336973
 30
0.0
 40
6.3736405190481813
 50
85.6948895197398457
 51
89.2371065024655508
  0
ARC
  5
2D04B
  8
0
 10
3270.4949951571820748
 20
196.5887070319949999
 30
0.0
 40
39.6099965908753404
 50
269.0017953371702788
 51
269.4036881033362079
  0
ARC
  5
2D04C
  8
0
 10
3270.001418626512077
 20
152.4749605762110889
 30
0.0
 40
4.503768180800475
 50
82.5868981044699098
 51
86.918930388032436
  0
ARC
  5
2D04D
  8
0
 10
3269.8385275342398018
 20
149.3978480856432896
 30
0.0
 40
7.5851883637045558
 50
86.939595397928116
 51
88.5511734872641796
  0
ARC
  5
2D04E
  8
0
 10
3270.4756150622861242
 20
174.8418207299721132
 30
0.0
 40
17.8667593431639986
 50
268.3841881166472945
 51
268.5718384971535215
  0
ARC
  5
2D04F
  8
0
 10
3269.8145635452260649
 20
151.8466304410681005
 30
0.0
 40
5.1316001997965071
 50
81.3933740084014659
 51
90.1073785642661846
  0
ARC
  5
2D050
  8
0
 10
3269.6585229050051566
 20
151.7622754032095997
 30
0.0
 40
5.2166329780087297
 50
79.7978067974913472
 51
88.3915777473220032
  0
ARC
  5
2D051
  8
0
 10
3269.6074418942212105
 20
151.9815334603688939
 30
0.0
 40
4.9917635623137109
 50
78.7357367076789529
 51
87.7324391712946863
  0
ARC
  5
2D052
  8
0
 10
3269.5721279421140935
 20
152.1549139129330968
 30
0.0
 40
4.806121239511234
 50
77.8643335176333835
 51
87.2233875649969264
  0
ARC
  5
2D053
  8
0
 10
3269.4617898735818926
 20
152.0943399132104901
 30
0.0
 40
4.8637548236306367
 50
76.6780826884628084
 51
85.954202414278214
  0
ARC
  5
2D054
  8
0
 10
3269.5560705927177878
 20
152.8270092975523937
 30
0.0
 40
4.1080029191633098
 50
75.5306102991714567
 51
86.5267140189294253
  0
ARC
  5
2D055
  8
0
 10
3269.3292271819118469
 20
151.9876822782819943
 30
0.0
 40
4.9501648106918816
 50
75.334291171596405
 51
84.4852680406289949
  0
ARC
  5
2D056
  8
0
 10
3269.5486880255261894
 20
153.174538016755406
 30
0.0
 40
3.7265772236588091
 50
73.8938667427765097
 51
86.0569399730065356
  0
ARC
  5
2D057
  8
0
 10
3269.3661361180461427
 20
152.5090173125036017
 30
0.0
 40
4.3911846288338676
 50
73.9186135717282724
 51
84.2648712735983736
  0
ARC
  5
2D058
  8
0
 10
3269.411232936576198
 20
152.7708727555007897
 30
0.0
 40
4.0981507938208841
 50
73.393017050163877
 51
84.4870345969216743
  0
ARC
  5
2D059
  8
0
 10
3269.1500669602178277
 20
151.8212078763064028
 30
0.0
 40
5.053031067978738
 50
73.5319284489781637
 51
82.5534462487474059
  0
ARC
  5
2D05A
  8
0
 10
3269.1810913274430277
 20
151.8289340540007117
 30
0.0
 40
5.0099323198887662
 50
73.7560756457586706
 51
82.8467521732602137
  0
ARC
  5
2D05B
  8
0
 10
3269.4915222887348136
 20
153.9687904650336066
 30
0.0
 40
2.8216683552220712
 50
67.9241795632663639
 51
83.6225631736990351
  0
ARC
  5
2D05C
  8
0
 10
3269.4830764600369548
 20
153.6871086007201939
 30
0.0
 40
3.0662295077907271
 50
70.8461600680370651
 51
83.9744153274813385
  0
ARC
  5
2D05D
  8
0
 10
3269.4118496505720941
 20
153.5875846723625102
 30
0.0
 40
3.1464468534278431
 50
72.2110559698400039
 51
82.8230826259952551
  0
ARC
  5
2D05E
  8
0
 10
3269.688201439572822
 20
154.5697991506899029
 30
0.0
 40
2.1051073050006202
 50
73.0626207574127022
 51
86.8208626218116279
  0
ARC
  5
2D05F
  8
0
 10
3269.6629330019231929
 20
154.9983556495849086
 30
0.0
 40
1.651645963447582
 50
73.6975980238490251
 51
85.0674501308530324
  0
ARC
  5
2D060
  8
0
 10
3269.8212980160901679
 20
155.5616248401877897
 30
0.0
 40
1.0451557566311731
 50
77.9089295701361664
 51
90.8964391341785642
  0
ARC
  5
2D061
  8
0
 10
3269.2144463702088615
 20
156.9775947507486933
 30
0.0
 40
0.2264999999999997
 50
325.6536733532192898
 51
214.3463266467819892
  0
ENDSEC
  0
EOF
