  0
SECTION
  2
HEADER
  9
$ACADVER
  1
AC1009
  9
$INSBASE
 10
3282.0435474555988549
 20
164.5386606238334934
 30
0.0
  9
$EXTMIN
 10
3278.394071744107805
 20
160.0745523876614129
 30
-0.0000000000000058
  9
$EXTMAX
 10
3285.6640125462708966
 20
165.6869452811752126
 30
0.0000000000000104
  9
$LIMMIN
 10
0.0
 20
0.0
  9
$LIMMAX
 10
11.6929133858000007
 20
8.2677165353999982
  9
$ORTHOMODE
 70
     0
  9
$REGENMODE
 70
     1
  9
$FILLMODE
 70
     1
  9
$QTEXTMODE
 70
     0
  9
$MIRRTEXT
 70
     0
  9
$DRAGMODE
 70
     2
  9
$LTSCALE
 40
0.6431102362
  9
$OSMODE
 70
     7
  9
$ATTMODE
 70
     1
  9
$TEXTSIZE
 40
0.2
  9
$TRACEWID
 40
0.05
  9
$TEXTSTYLE
  7
STANDARD
  9
$CLAYER
  8
0
  9
$CELTYPE
  6
BYLAYER
  9
$CECOLOR
 62
   256
  9
$DIMSCALE
 40
1.0
  9
$DIMASZ
 40
0.1875
  9
$DIMEXO
 40
0.0625
  9
$DIMDLI
 40
0.4443307087
  9
$DIMRND
 40
0.0
  9
$DIMDLE
 40
0.0
  9
$DIMEXE
 40
0.125
  9
$DIMTP
 40
0.01
  9
$DIMTM
 40
0.01
  9
$DIMTXT
 40
2.0
  9
$DIMCEN
 40
0.1052362205
  9
$DIMTSZ
 40
0.0
  9
$DIMTOL
 70
     1
  9
$DIMLIM
 70
     0
  9
$DIMTIH
 70
     1
  9
$DIMTOH
 70
     1
  9
$DIMSE1
 70
     0
  9
$DIMSE2
 70
     0
  9
$DIMTAD
 70
     0
  9
$DIMZIN
 70
     0
  9
$DIMBLK
  1

  9
$DIMASO
 70
     1
  9
$DIMSHO
 70
     1
  9
$DIMPOST
  1
\X
  9
$DIMAPOST
  1

  9
$DIMALT
 70
     1
  9
$DIMALTD
 70
     2
  9
$DIMALTF
 40
25.3999999999999986
  9
$DIMLFAC
 40
1.0
  9
$DIMTOFL
 70
     0
  9
$DIMTVP
 40
0.0
  9
$DIMTIX
 70
     0
  9
$DIMSOXD
 70
     0
  9
$DIMSAH
 70
     0
  9
$DIMBLK1
  1

  9
$DIMBLK2
  1

  9
$DIMSTYLE
  2
STANDARD
  9
$DIMCLRD
 70
     0
  9
$DIMCLRE
 70
     0
  9
$DIMCLRT
 70
     0
  9
$DIMTFAC
 40
1.0
  9
$DIMGAP
 40
0.09
  9
$LUNITS
 70
     2
  9
$LUPREC
 70
     4
  9
$SKETCHINC
 40
0.1
  9
$FILLETRAD
 40
0.0
  9
$AUNITS
 70
     0
  9
$AUPREC
 70
     0
  9
$MENU
  1
.
  9
$ELEVATION
 40
0.0
  9
$PELEVATION
 40
0.0
  9
$THICKNESS
 40
0.0
  9
$LIMCHECK
 70
     0
  9
$BLIPMODE
 70
     0
  9
$CHAMFERA
 40
0.0
  9
$CHAMFERB
 40
0.0
  9
$SKPOLY
 70
     0
  9
$TDCREATE
 40
2458060.468368056230247
  9
$TDUPDATE
 40
2459609.3817708329297602
  9
$TDINDWG
 40
2.0463612269000002
  9
$TDUSRTIMER
 40
2.0463612269000002
  9
$USRTIMER
 70
     1
  9
$ANGBASE
 50
0.0
  9
$ANGDIR
 70
     0
  9
$PDMODE
 70
     0
  9
$PDSIZE
 40
0.3125
  9
$PLINEWID
 40
0.0
  9
$COORDS
 70
     1
  9
$SPLFRAME
 70
     0
  9
$SPLINETYPE
 70
     6
  9
$SPLINESEGS
 70
     8
  9
$ATTDIA
 70
     1
  9
$ATTREQ
 70
     1
  9
$HANDLING
 70
     1
  9
$HANDSEED
  5
2CDE4
  9
$SURFTAB1
 70
     6
  9
$SURFTAB2
 70
     6
  9
$SURFTYPE
 70
     6
  9
$SURFU
 70
     6
  9
$SURFV
 70
     6
  9
$UCSNAME
  2

  9
$UCSORG
 10
0.0
 20
0.0
 30
0.0
  9
$UCSXDIR
 10
1.0
 20
0.0
 30
0.0
  9
$UCSYDIR
 10
0.0
 20
1.0
 30
0.0
  9
$PUCSNAME
  2

  9
$PUCSORG
 10
0.0
 20
0.0
 30
0.0
  9
$PUCSXDIR
 10
1.0
 20
0.0
 30
0.0
  9
$PUCSYDIR
 10
0.0
 20
1.0
 30
0.0
  9
$USERI1
 70
     0
  9
$USERI2
 70
     0
  9
$USERI3
 70
     0
  9
$USERI4
 70
     0
  9
$USERI5
 70
     0
  9
$USERR1
 40
0.0
  9
$USERR2
 40
0.0
  9
$USERR3
 40
0.0
  9
$USERR4
 40
0.0
  9
$USERR5
 40
0.0
  9
$WORLDVIEW
 70
     1
  9
$SHADEDGE
 70
     3
  9
$SHADEDIF
 70
    70
  9
$TILEMODE
 70
     1
  9
$MAXACTVP
 70
    64
  9
$PLIMCHECK
 70
     0
  9
$PEXTMIN
 10
1.0000000000000000E+20
 20
1.0000000000000000E+20
 30
1.0000000000000000E+20
  9
$PEXTMAX
 10
-1.0000000000000000E+20
 20
-1.0000000000000000E+20
 30
-1.0000000000000000E+20
  9
$PLIMMIN
 10
0.0
 20
0.0
  9
$PLIMMAX
 10
12.0
 20
9.0
  9
$UNITMODE
 70
     0
  9
$VISRETAIN
 70
     1
  9
$PLINEGEN
 70
     0
  9
$PSLTSCALE
 70
     1
  0
ENDSEC
  0
SECTION
  2
TABLES
  0
TABLE
  2
VPORT
 70
     1
  0
VPORT
  2
*ACTIVE
 70
     0
 10
0.0
 20
0.0
 11
1.0
 21
1.0
 12
18.6400040592516199
 22
11.1590462587347208
 13
0.0
 23
0.0
 14
1.0
 24
1.0
 15
0.0
 25
0.0
 16
0.0
 26
0.0
 36
92.3385285193394054
 17
3263.3890380859379547
 27
151.7217025756835938
 37
0.0
 40
5.6525770908420609
 41
2.2831541218637992
 42
50.0
 43
0.0
 44
0.0
 50
0.0
 51
0.0
 71
     0
 72
   100
 73
     1
 74
     1
 75
     0
 76
     0
 77
     0
 78
     0
  0
ENDTAB
  0
TABLE
  2
LTYPE
 70
     2
  0
LTYPE
  2
CONTINUOUS
 70
     0
  3
Solid line
 72
    65
 73
     0
 40
0.0
  0
LTYPE
  2
PHANTOM2
 70
     0
  3
___ _ _ ___ _ _ ___ _ _ ___ _ _
 72
    65
 73
     6
 40
1.25
 49
0.625
 49
-0.125
 49
0.125
 49
-0.125
 49
0.125
 49
-0.125
  0
ENDTAB
  0
TABLE
  2
LAYER
 70
     2
  0
LAYER
  2
0
 70
     0
 62
   255
  6
CONTINUOUS
  0
LAYER
  2
DEFPOINTS
 70
     0
 62
     7
  6
CONTINUOUS
  0
ENDTAB
  0
TABLE
  2
STYLE
 70
     1
  0
STYLE
  2
STANDARD
 70
     0
 40
0.0
 41
0.8
 50
0.0
 71
     0
 42
0.2
  3
txt
  4

  0
ENDTAB
  0
TABLE
  2
VIEW
 70
     0
  0
ENDTAB
  0
TABLE
  2
UCS
 70
     0
  0
ENDTAB
  0
TABLE
  2
APPID
 70
    10
  0
APPID
  2
ACAD
 70
     0
  0
APPID
  2
ACAD_MLEADERVER
 70
     0
  0
APPID
  2
ACAD_EXEMPT_FROM_CAD_STANDARDS
 70
     0
  0
APPID
  2
ACAD_NAV_VCDISPLAY
 70
     0
  0
APPID
  2
ACAECLAYERSTANDARD
 70
     0
  0
APPID
  2
ACCMTRANSPARENCY
 70
     0
  0
APPID
  2
ACAD_DSTYLE_DIMJAG
 70
     0
  0
APPID
  2
ACAD_DSTYLE_DIMTALN
 70
     0
  0
APPID
  2
ACDBATTR
 70
     0
  0
APPID
  2
ACADANNOTATIVE
 70
     0
  0
ENDTAB
  0
TABLE
  2
DIMSTYLE
 70
     1
  0
DIMSTYLE
  2
STANDARD
 70
     0
  3

  4

  5

  6

  7

 40
1.0
 41
0.1875
 42
0.0625
 43
0.38
 44
0.125
 45
0.0
 46
0.0
 47
0.01
 48
0.01
140
0.15625
141
0.09
142
0.0
143
25.3999999999999986
144
1.0
145
0.0
146
1.0
147
0.09
 71
     1
 72
     0
 73
     1
 74
     1
 75
     0
 76
     0
 77
     0
 78
     4
170
     0
171
     2
172
     0
173
     0
174
     0
175
     0
176
     0
177
     0
178
     0
  0
ENDTAB
  0
ENDSEC
  0
SECTION
  2
BLOCKS
  0
BLOCK
  8
0
  2
$MODEL_SPACE
 70
     0
 10
0.0
 20
0.0
 30
0.0
  3
$MODEL_SPACE
  1

  0
ENDBLK
  5
21
  8
0
  0
BLOCK
 67
     1
  8
0
  2
$PAPER_SPACE
 70
     0
 10
0.0
 20
0.0
 30
0.0
  3
$PAPER_SPACE
  1

  0
ENDBLK
  5
1D
 67
     1
  8
0
  0
ENDSEC
  0
SECTION
  2
ENTITIES
  0
ATTDEF
  5
2143C
  8
DEFPOINTS
 10
3282.0436671514648879
 20
164.5421088215865097
 30
0.0
 40
0.001
  1
P25336-CPH
  3

  2
MODELNUMBER
 70
     0
1001
ACDBATTR
1070
     0
1070
     1
  0
ATTDEF
  5
2143D
  8
DEFPOINTS
 10
3282.0436671514648879
 20
164.5404421549199014
 30
0.0
 40
0.001
  1
PINNA PALETTA
  3

  2
TRADENAME
 70
     0
1001
ACDBATTR
1070
     0
1070
     1
  0
ATTDEF
  5
2143E
  8
DEFPOINTS
 10
3282.0436671514648879
 20
164.5387754882532079
 30
0.0
 40
0.001
  1
TOWEL RING
  3

  2
PRODUCT
 70
     0
1001
ACDBATTR
1070
     0
1070
     1
  0
ARC
  5
2CC9F
  8
0
 10
3282.0435474555988549
 20
164.5386606238334934
 30
0.0
 40
0.801617706816236
 50
165.0356581498778894
 51
14.9643418501221195
  0
ARC
  5
2CCA0
  8
0
 10
3282.0435474555988549
 20
164.5386606238334934
 30
0.0
 40
0.801617706816236
 50
46.4517444473417171
 51
133.5482555526581905
  0
ARC
  5
2CCA1
  8
0
 10
3282.0435474555988549
 20
164.5386606238334934
 30
0.0
 40
0.8744999999999993
 50
166.3082918183806953
 51
13.6917081816192692
  0
ARC
  5
2CCA2
  8
0
 10
3282.0435474555988549
 20
164.5386606238334934
 30
0.0
 40
0.8744999999999993
 50
41.6354523766851017
 51
138.3645476233147917
  0
ARC
  5
2CCA3
  8
0
 10
3282.0435474555988549
 20
164.5386606238334934
 30
0.0
 40
1.0383197437220311
 50
168.5008819849437884
 51
11.4991180150561707
  0
ARC
  5
2CCA4
  8
0
 10
3282.0435474555988549
 20
164.5386606238334934
 30
0.0
 40
1.0383197437220311
 50
34.0257607191118012
 51
145.974239280888213
  0
ARC
  5
2CCA5
  8
0
 10
3282.0435474555988549
 20
164.5386606238334934
 30
0.0
 40
1.1408661417999979
 50
169.546697883479311
 51
10.4533021165207298
  0
ARC
  5
2CCA6
  8
0
 10
3282.0435474555988549
 20
164.5386606238334934
 30
0.0
 40
1.1408661417999979
 50
30.6151645128829095
 51
149.3848354871171011
  0
LINE
  5
2CCA7
  8
0
 10
3279.2245474555988949
 20
165.1196686238334905
 30
0.0
 11
3281.7226482001178738
 21
165.1196686238334905
 31
0.0
  0
LINE
  5
2CCA8
  8
0
 10
3279.2245474555988949
 20
164.7456526238335073
 30
0.0
 11
3281.7226482001178738
 21
164.7456526238335073
 31
0.0
  0
LINE
  5
2CCA9
  8
0
 10
3278.4465394555991224
 20
164.3416606238334907
 30
0.0
 11
3278.4465394555991224
 21
160.8636606238335105
 31
0.0
  0
LINE
  5
2CCAA
  8
0
 10
3278.8205554555988783
 20
164.3416606238334907
 30
0.0
 11
3278.8205554555988783
 21
160.8636606238335105
 31
0.0
  0
ARC
  5
2CCAB
  8
0
 10
3279.2245474555988949
 20
164.3416606238334907
 30
0.0
 40
0.7780079999999998
 50
90.0
 51
180.0
  0
ARC
  5
2CCAC
  8
0
 10
3279.2245474555988949
 20
164.3416606238334907
 30
0.0
 40
0.4039920000000006
 50
90.0
 51
180.0
  0
LINE
  5
2CCAD
  8
0
 10
3279.2245474555988949
 20
160.0856526238335107
 30
0.0
 11
3284.8625474555988148
 21
160.0856526238335107
 31
0.0
  0
LINE
  5
2CCAE
  8
0
 10
3279.2245474555988949
 20
160.4596686238334939
 30
0.0
 11
3284.8625474555988148
 21
160.4596686238334939
 31
0.0
  0
ARC
  5
2CCAF
  8
0
 10
3279.2245474555988949
 20
160.8636606238335105
 30
0.0
 40
0.7780079999999998
 50
180.0
 51
270.0
  0
ARC
  5
2CCB0
  8
0
 10
3279.2245474555988949
 20
160.8636606238335105
 30
0.0
 40
0.4039920000000006
 50
180.0
 51
270.0
  0
LINE
  5
2CCB1
  8
0
 10
3281.7742606589658863
 20
165.2866606238335123
 30
0.0
 11
3282.3128342522318235
 21
165.2866606238335123
 31
0.0
  0
LINE
  5
2CCB2
  8
0
 10
3281.6934408537990748
 20
165.2120540221334863
 30
0.0
 11
3282.3936540573990897
 21
165.2120540221334863
 31
0.0
  0
LINE
  5
2CCB3
  8
0
 10
3281.6890474555989385
 20
164.5386606238334934
 30
0.0
 11
3281.6890474555989385
 21
164.6911606238346053
 31
0.0
  0
LINE
  5
2CCB4
  8
0
 10
3281.6890474555989385
 20
165.1741606238338989
 30
0.0
 11
3281.6890474555989385
 21
165.2014474203739951
 31
0.0
  0
LINE
  5
2CCB5
  8
0
 10
3281.6934408537990748
 20
165.2120540221334863
 30
0.0
 11
3281.7636540573730599
 21
165.2822672256073133
 31
0.0
  0
ARC
  5
2CCB6
  8
0
 10
3281.704047455898035
 20
165.2014474203739951
 30
0.0
 40
0.0150000002991355
 50
135.0000009173307092
 51
179.999999772716393
  0
ARC
  5
2CCB7
  8
0
 10
3281.7742606589658863
 20
165.2716606239987982
 30
0.0
 40
0.0149999998346758
 50
89.9999998743883367
 51
135.0000003577210919
  0
LINE
  5
2CCB8
  8
0
 10
3282.3980474556001354
 20
165.1741606238308862
 30
0.0
 11
3282.3980474556001354
 21
165.2014474203739951
 31
0.0
  0
LINE
  5
2CCB9
  8
0
 10
3282.3936540573990897
 20
165.2120540221334863
 30
0.0
 11
3282.3234408538260141
 21
165.2822672256073133
 31
0.0
  0
ARC
  5
2CCBA
  8
0
 10
3282.3830474553001295
 20
165.2014474203739951
 30
0.0
 40
0.0150000002991355
 50
0.0000002272835571
 51
44.9999990826692766
  0
ARC
  5
2CCBB
  8
0
 10
3282.3128342522318235
 20
165.2716606239987982
 30
0.0
 40
0.0149999998346758
 50
44.9999996422788868
 51
90.0000001256116349
  0
ARC
  5
2CCBC
  8
0
 10
3282.0435474555988549
 20
164.5386606238334934
 30
0.0
 40
0.3544999999999994
 50
180.0
 51
0.0
  0
ARC
  5
2CCBD
  8
0
 10
3281.7040464470987899
 20
165.1741672939774048
 30
0.0
 40
0.0149989929830263
 50
180.0254797843539905
 51
215.5323571372614992
  0
ARC
  5
2CCBE
  8
0
 10
3280.850508395075849
 20
164.5660401931567094
 30
0.0
 40
1.0330209478967789
 50
32.119951432664422
 51
35.4681174449372918
  0
ARC
  5
2CCBF
  8
0
 10
3281.2398921423900902
 20
164.8076323617540027
 30
0.0
 40
0.5747896116032831
 50
23.7297400322921384
 51
32.3611325177018472
  0
ARC
  5
2CCC0
  8
0
 10
3281.4814370195808806
 20
164.9152800434684991
 30
0.0
 40
0.3103494307627384
 50
12.3993548369156201
 51
23.4817493360316192
  0
ARC
  5
2CCC1
  8
0
 10
3281.7040464470987899
 20
164.691153953689593
 30
0.0
 40
0.0149989929830263
 50
144.4676428627371081
 51
179.9745202156458959
  0
ARC
  5
2CCC2
  8
0
 10
3280.850508395075849
 20
165.2992810545102031
 30
0.0
 40
1.0330209478967789
 50
324.5318825550626798
 51
327.8800485673356206
  0
ARC
  5
2CCC3
  8
0
 10
3281.2398921423900902
 20
165.0576888859129099
 30
0.0
 40
0.5747896116032831
 50
327.6388674822982239
 51
336.2702599677078865
  0
ARC
  5
2CCC4
  8
0
 10
3281.4814370195808806
 20
164.9500412041984134
 30
0.0
 40
0.3103494307627384
 50
336.5182506639683879
 51
347.6006451630843799
  0
ARC
  5
2CCC5
  8
0
 10
3281.5576366440100173
 20
164.9326606238334989
 30
0.0
 40
0.2321959621035845
 50
347.7519709547370894
 51
12.2480290452628502
  0
LINE
  5
2CCC6
  8
0
 10
3282.3980474556001354
 20
164.5386606238334934
 30
0.0
 11
3282.3980474556001354
 21
164.6911606238346053
 31
0.0
  0
ARC
  5
2CCC7
  8
0
 10
3282.3830484640998293
 20
165.1741672939774048
 30
0.0
 40
0.0149989929830263
 50
324.4676428627371934
 51
359.9745202156458959
  0
ARC
  5
2CCC8
  8
0
 10
3283.2365865161218608
 20
164.5660401931567094
 30
0.0
 40
1.0330209478967789
 50
144.5318825550627082
 51
147.8800485673355922
  0
ARC
  5
2CCC9
  8
0
 10
3282.8472027688080743
 20
164.8076323617540027
 30
0.0
 40
0.5747896116032831
 50
147.6388674822981102
 51
156.2702599677078013
  0
ARC
  5
2CCCA
  8
0
 10
3282.6056578916168291
 20
164.9152800434684991
 30
0.0
 40
0.3103494307627384
 50
156.5182506639683879
 51
167.6006451630844083
  0
ARC
  5
2CCCB
  8
0
 10
3282.3830484640998293
 20
164.691153953689593
 30
0.0
 40
0.0149989929830263
 50
0.0254797843540611
 51
35.5323571372615135
  0
ARC
  5
2CCCC
  8
0
 10
3283.2365865161218608
 20
165.2992810545102031
 30
0.0
 40
1.0330209478967789
 50
212.1199514326644078
 51
215.4681174449372918
  0
ARC
  5
2CCCD
  8
0
 10
3282.8472027688080743
 20
165.0576888859129099
 30
0.0
 40
0.5747896116032831
 50
203.7297400322921987
 51
212.3611325177018898
  0
ARC
  5
2CCCE
  8
0
 10
3282.6056578916168291
 20
164.9500412041984134
 30
0.0
 40
0.3103494307627384
 50
192.3993548369155917
 51
203.4817493360301057
  0
ARC
  5
2CCCF
  8
0
 10
3282.5294582671881471
 20
164.9326606238334989
 30
0.0
 40
0.2321959621035845
 50
167.7519709547370894
 51
192.2480290452627969
  0
ARC
  5
2CCD0
  8
0
 10
3282.0435474555988549
 20
164.5386606238334934
 30
0.0
 40
0.4034999999999993
 50
149.1367133179454072
 51
30.8632866820546212
  0
ARC
  5
2CCD1
  8
0
 10
3282.0435474555988549
 20
164.5386606238334934
 30
0.0
 40
0.3580093333596999
 50
171.9710608517459889
 51
8.0289391482540182
  0
LINE
  5
2CCD2
  8
0
 10
3284.8625474555988148
 20
165.1196686238334905
 30
0.0
 11
3282.3644467110798359
 21
165.1196686238334905
 31
0.0
  0
LINE
  5
2CCD3
  8
0
 10
3284.8625474555988148
 20
164.7456526238335073
 30
0.0
 11
3282.3644467110798359
 21
164.7456526238335073
 31
0.0
  0
LINE
  5
2CCD4
  8
0
 10
3285.640555455599042
 20
164.3416606238334907
 30
0.0
 11
3285.640555455599042
 21
160.8636606238335105
 31
0.0
  0
LINE
  5
2CCD5
  8
0
 10
3285.2665394555988314
 20
164.3416606238334907
 30
0.0
 11
3285.2665394555988314
 21
160.8636606238335105
 31
0.0
  0
ARC
  5
2CCD6
  8
0
 10
3284.8625474555988148
 20
164.3416606238334907
 30
0.0
 40
0.7780079999999998
 50
0.0
 51
90.0
  0
ARC
  5
2CCD7
  8
0
 10
3284.8625474555988148
 20
164.3416606238334907
 30
0.0
 40
0.4039920000000006
 50
0.0
 51
90.0
  0
ARC
  5
2CCD8
  8
0
 10
3284.8625474555988148
 20
160.8636606238335105
 30
0.0
 40
0.7780079999999998
 50
270.0
 51
0.0
  0
ARC
  5
2CCD9
  8
0
 10
3284.8625474555988148
 20
160.8636606238335105
 30
0.0
 40
0.4039920000000006
 50
270.0
 51
0.0
  0
ENDSEC
  0
EOF
