  0
SECTION
  2
HEADER
  9
$ACADVER
  1
AC1009
  9
$INSBASE
 10
4396.4677077191572607
 20
200.7657910910508008
 30
0.0
  9
$EXTMIN
 10
4392.3059615609399771
 20
191.2446607187337975
 30
-0.0000000000000058
  9
$EXTMAX
 10
4401.6800659251257457
 20
202.9415340939314945
 30
0.0000000000000104
  9
$LIMMIN
 10
0.0
 20
0.0
  9
$LIMMAX
 10
11.6929133858000007
 20
8.2677165353999982
  9
$ORTHOMODE
 70
     0
  9
$REGENMODE
 70
     1
  9
$FILLMODE
 70
     1
  9
$QTEXTMODE
 70
     0
  9
$MIRRTEXT
 70
     0
  9
$DRAGMODE
 70
     2
  9
$LTSCALE
 40
0.6431102362
  9
$OSMODE
 70
     7
  9
$ATTMODE
 70
     1
  9
$TEXTSIZE
 40
0.2
  9
$TRACEWID
 40
0.05
  9
$TEXTSTYLE
  7
STANDARD
  9
$CLAYER
  8
0
  9
$CELTYPE
  6
BYLAYER
  9
$CECOLOR
 62
   256
  9
$DIMSCALE
 40
1.0
  9
$DIMASZ
 40
0.1875
  9
$DIMEXO
 40
0.0625
  9
$DIMDLI
 40
0.4443307087
  9
$DIMRND
 40
0.0
  9
$DIMDLE
 40
0.0
  9
$DIMEXE
 40
0.125
  9
$DIMTP
 40
0.01
  9
$DIMTM
 40
0.01
  9
$DIMTXT
 40
2.0
  9
$DIMCEN
 40
0.1052362205
  9
$DIMTSZ
 40
0.0
  9
$DIMTOL
 70
     1
  9
$DIMLIM
 70
     0
  9
$DIMTIH
 70
     1
  9
$DIMTOH
 70
     1
  9
$DIMSE1
 70
     0
  9
$DIMSE2
 70
     0
  9
$DIMTAD
 70
     0
  9
$DIMZIN
 70
     0
  9
$DIMBLK
  1

  9
$DIMASO
 70
     1
  9
$DIMSHO
 70
     1
  9
$DIMPOST
  1
\X
  9
$DIMAPOST
  1

  9
$DIMALT
 70
     1
  9
$DIMALTD
 70
     2
  9
$DIMALTF
 40
25.3999999999999986
  9
$DIMLFAC
 40
1.0
  9
$DIMTOFL
 70
     0
  9
$DIMTVP
 40
0.0
  9
$DIMTIX
 70
     0
  9
$DIMSOXD
 70
     0
  9
$DIMSAH
 70
     0
  9
$DIMBLK1
  1

  9
$DIMBLK2
  1

  9
$DIMSTYLE
  2
STANDARD
  9
$DIMCLRD
 70
     0
  9
$DIMCLRE
 70
     0
  9
$DIMCLRT
 70
     0
  9
$DIMTFAC
 40
1.0
  9
$DIMGAP
 40
0.09
  9
$LUNITS
 70
     2
  9
$LUPREC
 70
     4
  9
$SKETCHINC
 40
0.1
  9
$FILLETRAD
 40
0.0
  9
$AUNITS
 70
     0
  9
$AUPREC
 70
     0
  9
$MENU
  1
.
  9
$ELEVATION
 40
0.0
  9
$PELEVATION
 40
0.0
  9
$THICKNESS
 40
0.0
  9
$LIMCHECK
 70
     0
  9
$BLIPMODE
 70
     0
  9
$CHAMFERA
 40
0.0
  9
$CHAMFERB
 40
0.0
  9
$SKPOLY
 70
     0
  9
$TDCREATE
 40
2458060.468368056230247
  9
$TDUPDATE
 40
2459580.6537268520332873
  9
$TDINDWG
 40
0.4739306713
  9
$TDUSRTIMER
 40
0.4739306713
  9
$USRTIMER
 70
     1
  9
$ANGBASE
 50
0.0
  9
$ANGDIR
 70
     0
  9
$PDMODE
 70
     0
  9
$PDSIZE
 40
0.3125
  9
$PLINEWID
 40
0.0
  9
$COORDS
 70
     1
  9
$SPLFRAME
 70
     0
  9
$SPLINETYPE
 70
     6
  9
$SPLINESEGS
 70
     8
  9
$ATTDIA
 70
     1
  9
$ATTREQ
 70
     1
  9
$HANDLING
 70
     1
  9
$HANDSEED
  5
FDCA
  9
$SURFTAB1
 70
     6
  9
$SURFTAB2
 70
     6
  9
$SURFTYPE
 70
     6
  9
$SURFU
 70
     6
  9
$SURFV
 70
     6
  9
$UCSNAME
  2

  9
$UCSORG
 10
0.0
 20
0.0
 30
0.0
  9
$UCSXDIR
 10
1.0
 20
0.0
 30
0.0
  9
$UCSYDIR
 10
0.0
 20
1.0
 30
0.0
  9
$PUCSNAME
  2

  9
$PUCSORG
 10
0.0
 20
0.0
 30
0.0
  9
$PUCSXDIR
 10
1.0
 20
0.0
 30
0.0
  9
$PUCSYDIR
 10
0.0
 20
1.0
 30
0.0
  9
$USERI1
 70
     0
  9
$USERI2
 70
     0
  9
$USERI3
 70
     0
  9
$USERI4
 70
     0
  9
$USERI5
 70
     0
  9
$USERR1
 40
0.0
  9
$USERR2
 40
0.0
  9
$USERR3
 40
0.0
  9
$USERR4
 40
0.0
  9
$USERR5
 40
0.0
  9
$WORLDVIEW
 70
     1
  9
$SHADEDGE
 70
     3
  9
$SHADEDIF
 70
    70
  9
$TILEMODE
 70
     1
  9
$MAXACTVP
 70
    64
  9
$PLIMCHECK
 70
     0
  9
$PEXTMIN
 10
1.0000000000000000E+20
 20
1.0000000000000000E+20
 30
1.0000000000000000E+20
  9
$PEXTMAX
 10
-1.0000000000000000E+20
 20
-1.0000000000000000E+20
 30
-1.0000000000000000E+20
  9
$PLIMMIN
 10
0.0
 20
0.0
  9
$PLIMMAX
 10
12.0
 20
9.0
  9
$UNITMODE
 70
     0
  9
$VISRETAIN
 70
     1
  9
$PLINEGEN
 70
     0
  9
$PSLTSCALE
 70
     1
  0
ENDSEC
  0
SECTION
  2
TABLES
  0
TABLE
  2
VPORT
 70
     1
  0
VPORT
  2
*ACTIVE
 70
     0
 10
0.0
 20
0.0
 11
1.0
 21
1.0
 12
593.4489463602202477
 22
71.0978352095827546
 13
0.0
 23
0.0
 14
1.0
 24
1.0
 15
0.0
 25
0.0
 16
0.0
 26
0.0
 36
17.1152628219792007
 17
3803.5440673828129547
 27
125.9952621967499056
 37
0.0
 40
11.7806218719175
 41
2.2831541218637992
 42
50.0
 43
0.0
 44
0.0
 50
0.0
 51
0.0
 71
     0
 72
   100
 73
     1
 74
     1
 75
     0
 76
     0
 77
     0
 78
     0
  0
ENDTAB
  0
TABLE
  2
LTYPE
 70
     2
  0
LTYPE
  2
CONTINUOUS
 70
     0
  3
Solid line
 72
    65
 73
     0
 40
0.0
  0
LTYPE
  2
PHANTOM2
 70
     0
  3
___ _ _ ___ _ _ ___ _ _ ___ _ _
 72
    65
 73
     6
 40
1.25
 49
0.625
 49
-0.125
 49
0.125
 49
-0.125
 49
0.125
 49
-0.125
  0
ENDTAB
  0
TABLE
  2
LAYER
 70
     2
  0
LAYER
  2
0
 70
     0
 62
   255
  6
CONTINUOUS
  0
LAYER
  2
DEFPOINTS
 70
     0
 62
     7
  6
CONTINUOUS
  0
ENDTAB
  0
TABLE
  2
STYLE
 70
     1
  0
STYLE
  2
STANDARD
 70
     0
 40
0.0
 41
0.8
 50
0.0
 71
     0
 42
0.2
  3
txt
  4

  0
ENDTAB
  0
TABLE
  2
VIEW
 70
     0
  0
ENDTAB
  0
TABLE
  2
UCS
 70
     0
  0
ENDTAB
  0
TABLE
  2
APPID
 70
     9
  0
APPID
  2
ACAD
 70
     0
  0
APPID
  2
ACAD_MLEADERVER
 70
     0
  0
APPID
  2
ACAD_EXEMPT_FROM_CAD_STANDARDS
 70
     0
  0
APPID
  2
ACAD_NAV_VCDISPLAY
 70
     0
  0
APPID
  2
ACAECLAYERSTANDARD
 70
     0
  0
APPID
  2
ACCMTRANSPARENCY
 70
     0
  0
APPID
  2
ACAD_DSTYLE_DIMJAG
 70
     0
  0
APPID
  2
ACAD_DSTYLE_DIMTALN
 70
     0
  0
APPID
  2
ACDBATTR
 70
     0
  0
ENDTAB
  0
TABLE
  2
DIMSTYLE
 70
     1
  0
DIMSTYLE
  2
STANDARD
 70
     0
  3

  4

  5

  6

  7

 40
1.0
 41
0.1875
 42
0.0625
 43
0.38
 44
0.125
 45
0.0
 46
0.0
 47
0.01
 48
0.01
140
0.15625
141
0.09
142
0.0
143
25.3999999999999986
144
1.0
145
0.0
146
1.0
147
0.09
 71
     1
 72
     0
 73
     1
 74
     1
 75
     0
 76
     0
 77
     0
 78
     4
170
     0
171
     2
172
     0
173
     0
174
     0
175
     0
176
     0
177
     0
178
     0
  0
ENDTAB
  0
ENDSEC
  0
SECTION
  2
BLOCKS
  0
BLOCK
  8
0
  2
$MODEL_SPACE
 70
     0
 10
0.0
 20
0.0
 30
0.0
  3
$MODEL_SPACE
  1

  0
ENDBLK
  5
21
  8
0
  0
BLOCK
 67
     1
  8
0
  2
$PAPER_SPACE
 70
     0
 10
0.0
 20
0.0
 30
0.0
  3
$PAPER_SPACE
  1

  0
ENDBLK
  5
1D
 67
     1
  8
0
  0
ENDSEC
  0
SECTION
  2
ENTITIES
  0
ATTDEF
  5
3930
  8
DEFPOINTS
 10
4396.4677326640712636
 20
200.7691581697426955
 30
0.0
 40
0.001
  1
P25088-00
  3

  2
MODELNUMBER
 70
     0
1001
ACDBATTR
1070
     0
1070
     1
  0
ATTDEF
  5
3931
  8
DEFPOINTS
 10
4396.4677326640712636
 20
200.7674915030760019
 30
0.0
 40
0.001
  1
SCRIPT
  3

  2
TRADENAME
 70
     0
1001
ACDBATTR
1070
     0
1070
     1
  0
ATTDEF
  5
3932
  8
DEFPOINTS
 10
4396.4677326640712636
 20
200.7658248364093936
 30
0.0
 40
0.001
  1
BATH FILLER
  3

  2
PRODUCT
 70
     0
1001
ACDBATTR
1070
     0
1070
     1
  0
LINE
  5
FCB3
  8
0
 10
4392.3527077191565695
 20
199.879967420017806
 30
0.0
 11
4392.3527077191565695
 21
200.431150506533811
 31
0.0
  0
LINE
  5
FCB4
  8
0
 10
4399.6257077191576172
 20
199.8802811515870985
 30
0.0
 11
4399.6257077191576172
 21
201.6513010305081934
 31
0.0
  0
LINE
  5
FCB5
  8
0
 10
4399.657203782157012
 20
199.8765382933279966
 30
0.0
 11
4399.657203782157012
 21
201.655043888773605
 31
0.0
  0
ARC
  5
FCB7
  8
0
 10
4396.4677077191572607
 20
200.7657910910508008
 30
0.0
 40
2.1620526840067869
 50
204.7605503600975965
 51
245.4737170146846097
  0
ARC
  5
FCB8
  8
0
 10
4396.4677077191572607
 20
200.7657910910508008
 30
0.0
 40
2.1620526840067869
 50
294.526282985315504
 51
335.2394496399023751
  0
ARC
  5
FCB9
  8
0
 10
4396.4677077191572607
 20
200.7657910910508008
 30
0.0
 40
2.1620526840067869
 50
24.7605503600976107
 51
155.2394496399022898
  0
ARC
  5
FCBA
  8
0
 10
4396.4677077191572607
 20
200.7657910910508008
 30
0.0
 40
2.0913726846390688
 50
205.6569308526403859
 51
244.6179156830075954
  0
ARC
  5
FCBB
  8
0
 10
4396.4677077191572607
 20
200.7657910910508008
 30
0.0
 40
2.0913726846390688
 50
295.382084316992291
 51
334.3430691473595857
  0
ARC
  5
FCBC
  8
0
 10
4396.4677077191572607
 20
200.7657910910508008
 30
0.0
 40
2.0913726846390688
 50
25.6569308526404107
 51
154.3430691473596141
  0
LINE
  5
FCBD
  8
0
 10
4392.3723927584551348
 20
199.8602651497677982
 30
0.0
 11
4395.5810549554516911
 21
199.8602651497677982
 31
0.0
  0
LINE
  5
FCBE
  8
0
 10
4397.3543604828628304
 20
199.8602651497677982
 30
0.0
 11
4399.6057077191662756
 21
199.8602651497677982
 31
0.0
  0
ARC
  5
FCBF
  8
0
 10
4392.3724222043856571
 20
199.8799796167793943
 30
0.0
 40
0.0197144890021482
 50
180.0354471784723955
 51
269.9144219209438234
  0
ARC
  5
FCC0
  8
0
 10
4396.4677077191572607
 20
200.7657910910508008
 30
0.0
 40
0.9251968503999998
 50
187.8186351868889119
 51
197.0646925397784912
  0
ARC
  5
FCC1
  8
0
 10
4396.4677077191572607
 20
200.7657910910508008
 30
0.0
 40
0.9251968503999998
 50
342.935307460219974
 51
352.1813648131110881
  0
ARC
  5
FCC2
  8
0
 10
4396.4677077191572607
 20
200.7657910910508008
 30
0.0
 40
0.9251968503999998
 50
7.8190930533921419
 51
172.1809069466077915
  0
ARC
  5
FCC3
  8
0
 10
4369.2770806771732168
 20
200.324397088603007
 30
0.0
 40
26.3067114893269682
 50
359.4983638487123017
 51
0.3700297367273781
  0
ARC
  5
FCC4
  8
0
 10
4155.3607627240680813
 20
201.7535143509797138
 30
0.0
 40
240.2277527519858893
 50
359.3225764154277044
 51
359.6042115386338196
  0
ARC
  5
FCC5
  8
0
 10
5044.4112484518800557
 20
190.3077814004082029
 30
0.0
 40
648.8965882248675143
 50
179.2401339436036096
 51
179.4915766760699114
  0
ARC
  5
FCC6
  8
0
 10
6026.7731032156698348
 20
156.7363844511802995
 30
0.0
 40
1631.7069472832179144
 50
178.618852826948995
 51
178.7141295172334026
  0
ARC
  5
FCC7
  8
0
 10
4458.4059994933686539
 20
191.5130002082217118
 30
0.0
 40
62.9558365554071173
 50
178.3250260955011868
 51
179.9669948218599984
  0
ARC
  5
FCC8
  8
0
 10
4395.5767542331959703
 20
191.5483821492782113
 30
0.0
 40
0.1265839345311706
 50
179.6000045069237956
 51
247.3291701038737926
  0
ARC
  5
FCC9
  8
0
 10
4395.6917199598583466
 20
200.7657941916178004
 30
0.0
 40
0.1887130281999944
 50
135.7578119009166073
 51
223.5454245166770022
  0
ARC
  5
FCCA
  8
0
 10
4395.946975016388933
 20
200.8382172704999959
 30
0.0
 40
0.397457137643302
 50
164.7203252798036885
 51
171.8932322594874051
  0
ARC
  5
FCCB
  8
0
 10
4396.5933446225490115
 20
200.7603118770610138
 30
0.0
 40
1.0458493473747379
 50
169.9422639380260023
 51
189.4482323137428068
  0
ARC
  5
FCCC
  8
0
 10
4396.1834665465448779
 20
200.7260414444785113
 30
0.0
 40
0.6367864989868172
 50
187.9392719089337902
 51
192.4619053799493997
  0
ARC
  5
FCCD
  8
0
 10
4423.6583347611422141
 20
200.324397088603007
 30
0.0
 40
26.3067114893269682
 50
179.629970263272611
 51
180.5016361512876983
  0
ARC
  5
FCCE
  8
0
 10
4637.5746527142473496
 20
201.7535143509797138
 30
0.0
 40
240.2277527519858893
 50
180.3957884613662088
 51
180.6774235845722956
  0
ARC
  5
FCCF
  8
0
 10
3748.52416698643583
 20
190.3077814004082029
 30
0.0
 40
648.8965882248675143
 50
0.5084233239301302
 51
0.7598660563964024
  0
ARC
  5
FCD0
  8
0
 10
2766.1623122226451414
 20
156.7363844511802995
 30
0.0
 40
1631.7069472832179144
 50
1.285870482766549
 51
1.3811471730493181
  0
ARC
  5
FCD1
  8
0
 10
4334.529415944944958
 20
191.5130002082217118
 30
0.0
 40
62.9558365554071173
 50
0.0330051781399505
 51
1.6749739044987451
  0
ARC
  5
FCD2
  8
0
 10
4397.3586612051176417
 20
191.5483821492782113
 30
0.0
 40
0.1265839345311706
 50
292.6708298961261789
 51
0.3999954930762005
  0
ARC
  5
FCD3
  8
0
 10
4397.2436954784579939
 20
200.7657941916178004
 30
0.0
 40
0.1887130281999944
 50
316.4545754833230262
 51
44.2421880990833287
  0
ARC
  5
FCD4
  8
0
 10
4396.988440421924679
 20
200.8382172704999959
 30
0.0
 40
0.397457137643302
 50
8.1067677405125984
 51
15.2796747201962901
  0
ARC
  5
FCD5
  8
0
 10
4396.3420708157664194
 20
200.7603118770610138
 30
0.0
 40
1.0458493473747379
 50
350.5517676862571079
 51
10.0577360619740297
  0
ARC
  5
FCD6
  8
0
 10
4396.751948891770553
 20
200.7260414444785113
 30
0.0
 40
0.6367864989868172
 50
347.5380946200505718
 51
352.0607280910660961
  0
ARC
  5
FCD7
  8
0
 10
4396.4677077191572607
 20
193.7555676806265978
 30
0.0
 40
2.5067992047293042
 50
247.9832357136635039
 51
292.0167642863365245
  0
LINE
  5
FCD8
  8
0
 10
4392.3723927584578632
 20
200.4508335617177863
 30
0.0
 11
4392.5731382441290407
 21
200.4508335617177863
 31
0.0
  0
ARC
  5
FCD9
  8
0
 10
4392.3723927584578632
 20
200.4311485223178124
 30
0.0
 40
0.0196850393999952
 50
89.9999999999478888
 51
179.994224690139788
  0
ARC
  5
FCDA
  8
0
 10
4392.4891611835291769
 20
200.4311286899537095
 30
0.0
 40
0.01970843085509
 50
43.2010670540876021
 51
88.9111007718841933
  0
ARC
  5
FCDB
  8
0
 10
4392.5731128650431856
 20
200.4310696104826093
 30
0.0
 40
0.019763967530022
 50
50.4902569249461592
 51
89.9264259707809259
  0
ARC
  5
FCDC
  8
0
 10
4392.8447628904841622
 20
200.758677922759091
 30
0.0
 40
0.4058191707157606
 50
230.3271936860429037
 51
310.6612483050037099
  0
ARC
  5
FCDD
  8
0
 10
4392.844822876312719
 20
200.7742053912697884
 30
0.0
 40
0.4744561984763278
 50
224.0000192663472944
 51
317.0340910322883019
  0
ARC
  5
FCDE
  8
0
 10
4399.6056888850262112
 20
201.6512982068630038
 30
0.0
 40
0.0200188343305926
 50
0.0080815372215326
 51
89.9460949431886974
  0
ARC
  5
FCDF
  8
0
 10
4399.6732770328226252
 20
201.655043888773605
 30
0.0
 40
0.0160732506651407
 50
88.8964857868099898
 51
180.0000005555924929
  0
ARC
  5
FCE0
  8
0
 10
4399.6526563072156932
 20
200.5845235079841871
 30
0.0
 40
1.0867922147310061
 50
63.0388253262326899
 51
88.8964857868099898
  0
ARC
  5
FCE1
  8
0
 10
4399.2918562269369431
 20
199.9377146986653884
 30
0.0
 40
1.827103537569341
 50
56.2247832959488889
 51
62.1503419805592827
  0
ARC
  5
FCE2
  8
0
 10
4401.4548719541890023
 20
203.280198070299889
 30
0.0
 40
2.154593524024186
 50
237.8273018625143891
 51
244.287893058697108
  0
LINE
  5
FCE3
  8
0
 10
4399.6257077191576172
 20
201.5354792318177886
 30
0.0
 11
4399.657203782157012
 21
201.5354792318177886
 31
0.0
  0
ARC
  5
FCE4
  8
0
 10
4401.3609279699476247
 20
203.1576784856735003
 30
0.0
 40
2.0036950401785529
 50
245.1883055491414041
 51
260.4213863637677946
  0
LINE
  5
FCE5
  8
0
 10
4401.3008673625954543
 20
201.2523394818647944
 30
0.0
 11
4401.1088945339206475
 21
201.2523394818647944
 31
0.0
  0
ARC
  5
FCE6
  8
0
 10
4401.1095959243830293
 20
201.1735042704179079
 30
0.0
 40
0.0788383314920636
 50
90.509742439307999
 51
156.1754887173426027
  0
ARC
  5
FCE7
  8
0
 10
4401.300165972132163
 20
201.1735042704179079
 30
0.0
 40
0.0788383314920636
 50
23.8245112826573511
 51
89.490257560692001
  0
LINE
  5
FCE8
  8
0
 10
4401.3008673625954543
 20
200.2792427002368072
 30
0.0
 11
4401.1088945339206475
 21
200.2792427002368072
 31
0.0
  0
ARC
  5
FCE9
  8
0
 10
4401.1095959243830293
 20
200.3580779116836936
 30
0.0
 40
0.0788383314920636
 50
203.824511282657312
 51
269.4902575606919868
  0
ARC
  5
FCEA
  8
0
 10
4401.300165972132163
 20
200.3580779116836936
 30
0.0
 40
0.0788383314920636
 50
270.5097424393080132
 51
336.1754887173427164
  0
ARC
  5
FCEB
  8
0
 10
4402.0386203023326743
 20
200.7657910910508008
 30
0.0
 40
1.093390425392333
 50
156.2958209486710928
 51
203.7041790513289072
  0
ARC
  5
FCEC
  8
0
 10
4400.3711415941834275
 20
200.7657910910508008
 30
0.0
 40
1.093390425392333
 50
336.2958209486710075
 51
23.7041790513289108
  0
LINE
  5
FCED
  8
0
 10
4392.3723927584551348
 20
201.6713170323338034
 30
0.0
 11
4395.9166844756573482
 21
201.6713170323338034
 31
0.0
  0
LINE
  5
FCEE
  8
0
 10
4397.0187309626580827
 20
201.6713170323338034
 30
0.0
 11
4399.6057077191626377
 21
201.6713170323338034
 31
0.0
  0
LINE
  5
FCEF
  8
0
 10
4392.3723927584578632
 20
201.0807486203837868
 30
0.0
 11
4392.5731382441290407
 21
201.0807486203837868
 31
0.0
  0
ARC
  5
FCF0
  8
0
 10
4392.3723927584578632
 20
201.1004336597837892
 30
0.0
 40
0.0196850393999952
 50
180.005775309860212
 51
270.0000000000521254
  0
ARC
  5
FCF1
  8
0
 10
4392.4891611835291769
 20
201.1004534921478921
 30
0.0
 40
0.01970843085509
 50
271.0888992281159062
 51
316.7989329459118153
  0
ARC
  5
FCF2
  8
0
 10
4392.5731128650431856
 20
201.100512571619106
 30
0.0
 40
0.019763967530022
 50
270.073574029219003
 51
309.509743075053791
  0
ARC
  5
FCF3
  8
0
 10
4392.8447628904841622
 20
200.7729042593425106
 30
0.0
 40
0.4058191707157606
 50
49.3387516949957785
 51
129.6728063139564995
  0
ARC
  5
FCF4
  8
0
 10
4392.844822876312719
 20
200.7573767908318132
 30
0.0
 40
0.4744561984763278
 50
42.9659089677116768
 51
135.9999807336525919
  0
LINE
  5
FCF5
  8
0
 10
4392.3527077191565695
 20
201.6516147620837955
 30
0.0
 11
4392.3527077191565695
 21
201.1004316755677905
 31
0.0
  0
ARC
  5
FCF6
  8
0
 10
4392.3724222043856571
 20
201.6516025653222073
 30
0.0
 40
0.0197144890021482
 50
90.0855780790562193
 51
179.9645528215258992
  0
ARC
  5
FCF7
  8
0
 10
4399.6056888850262112
 20
199.8802839752385978
 30
0.0
 40
0.0200188343305926
 50
270.0539050568112884
 51
359.9919184627784148
  0
ARC
  5
FCF8
  8
0
 10
4399.6732770328226252
 20
199.8765382933279966
 30
0.0
 40
0.0160732506651407
 50
179.9999994444075071
 51
271.1035142131900102
  0
ARC
  5
FCF9
  8
0
 10
4399.6526563072156932
 20
200.9470586741174998
 30
0.0
 40
1.0867922147310061
 50
271.1035142131900102
 51
296.9611746737668909
  0
ARC
  5
FCFA
  8
0
 10
4399.2918562269369431
 20
201.5938674834362132
 30
0.0
 40
1.827103537569341
 50
297.8496580194411081
 51
303.7752167040516156
  0
ARC
  5
FCFB
  8
0
 10
4401.4548719541890023
 20
198.2513841118017126
 30
0.0
 40
2.154593524024186
 50
115.7121069413024941
 51
122.1726981374850993
  0
LINE
  5
FCFC
  8
0
 10
4399.6257077191576172
 20
199.996102950283813
 30
0.0
 11
4399.657203782157012
 21
199.996102950283813
 31
0.0
  0
ARC
  5
FCFD
  8
0
 10
4401.3609279699476247
 20
198.3739036964281013
 30
0.0
 40
2.0036950401785529
 50
99.5786136362833929
 51
114.8116944508588944
  0
ARC
  5
FCFE
  8
0
 10
4395.8584152697849277
 20
212.9124395240384047
 30
0.0
 40
11.2412735121008005
 50
270.296994332451618
 51
271.5484135841855959
  0
ARC
  5
FCFF
  8
0
 10
4395.7965284479460024
 20
210.416340151439698
 30
0.0
 40
8.7487136001458339
 50
272.3953212327097049
 51
273.9185985868842863
  0
ARC
  5
FD00
  8
0
 10
4396.4677077191572607
 20
200.7657910910508008
 30
0.0
 40
0.9685039369999994
 50
69.7636560898262985
 51
110.2363439101737015
  0
ARC
  5
FD01
  8
0
 10
4397.0770001685295938
 20
212.9124395240384047
 30
0.0
 40
11.2412735121008005
 50
268.4515864158142904
 51
269.7030056675484957
  0
ARC
  5
FD02
  8
0
 10
4397.138886990370338
 20
210.416340151439698
 30
0.0
 40
8.7487136001458339
 50
266.0814014131157137
 51
267.6046787672902951
  0
ARC
  5
FD03
  8
0
 10
4392.8388487627353243
 20
200.7657910910508008
 30
0.0
 40
0.4150686302473056
 50
310.640745797508373
 51
49.3592542024915986
  0
ARC
  5
FD04
  8
0
 10
4392.8531806482606044
 20
200.7657910910508008
 30
0.0
 40
0.4626056738036727
 50
317.0911748399302041
 51
42.9088251600703714
  0
ENDSEC
  0
EOF
