  0
SECTION
  2
HEADER
  9
$ACADVER
  1
AC1009
  9
$INSBASE
 10
4532.1995728438887454
 20
457.4953412122146119
 30
0.0
  9
$EXTMIN
 10
4525.6647955055632337
 20
457.4953412122146119
 30
0.0
  9
$EXTMAX
 10
4533.3430690987215712
 20
466.6899720024684939
 30
0.0
  9
$LIMMIN
 10
0.0
 20
0.0
  9
$LIMMAX
 10
11.6929133858000007
 20
8.2677165353999982
  9
$ORTHOMODE
 70
     0
  9
$REGENMODE
 70
     1
  9
$FILLMODE
 70
     1
  9
$QTEXTMODE
 70
     0
  9
$MIRRTEXT
 70
     0
  9
$DRAGMODE
 70
     2
  9
$LTSCALE
 40
0.6431102362
  9
$OSMODE
 70
  4095
  9
$ATTMODE
 70
     1
  9
$TEXTSIZE
 40
0.2
  9
$TRACEWID
 40
0.05
  9
$TEXTSTYLE
  7
STANDARD
  9
$CLAYER
  8
0
  9
$CELTYPE
  6
BYLAYER
  9
$CECOLOR
 62
   256
  9
$DIMSCALE
 40
1.0
  9
$DIMASZ
 40
0.1875
  9
$DIMEXO
 40
0.0625
  9
$DIMDLI
 40
0.4443307087
  9
$DIMRND
 40
0.0
  9
$DIMDLE
 40
0.0
  9
$DIMEXE
 40
0.125
  9
$DIMTP
 40
0.01
  9
$DIMTM
 40
0.01
  9
$DIMTXT
 40
2.0
  9
$DIMCEN
 40
0.1052362205
  9
$DIMTSZ
 40
0.0
  9
$DIMTOL
 70
     1
  9
$DIMLIM
 70
     0
  9
$DIMTIH
 70
     1
  9
$DIMTOH
 70
     1
  9
$DIMSE1
 70
     0
  9
$DIMSE2
 70
     0
  9
$DIMTAD
 70
     0
  9
$DIMZIN
 70
     0
  9
$DIMBLK
  1

  9
$DIMASO
 70
     1
  9
$DIMSHO
 70
     1
  9
$DIMPOST
  1
\X
  9
$DIMAPOST
  1

  9
$DIMALT
 70
     1
  9
$DIMALTD
 70
     2
  9
$DIMALTF
 40
25.3999999999999986
  9
$DIMLFAC
 40
1.0
  9
$DIMTOFL
 70
     0
  9
$DIMTVP
 40
0.0
  9
$DIMTIX
 70
     0
  9
$DIMSOXD
 70
     0
  9
$DIMSAH
 70
     0
  9
$DIMBLK1
  1

  9
$DIMBLK2
  1

  9
$DIMSTYLE
  2
STANDARD
  9
$DIMCLRD
 70
     0
  9
$DIMCLRE
 70
     0
  9
$DIMCLRT
 70
     0
  9
$DIMTFAC
 40
1.0
  9
$DIMGAP
 40
0.09
  9
$LUNITS
 70
     2
  9
$LUPREC
 70
     4
  9
$SKETCHINC
 40
0.1
  9
$FILLETRAD
 40
0.0
  9
$AUNITS
 70
     0
  9
$AUPREC
 70
     0
  9
$MENU
  1
.
  9
$ELEVATION
 40
0.0
  9
$PELEVATION
 40
0.0
  9
$THICKNESS
 40
0.0
  9
$LIMCHECK
 70
     0
  9
$BLIPMODE
 70
     0
  9
$CHAMFERA
 40
0.0
  9
$CHAMFERB
 40
0.0
  9
$SKPOLY
 70
     0
  9
$TDCREATE
 40
2458060.468368056230247
  9
$TDUPDATE
 40
2459713.6701041669584811
  9
$TDINDWG
 40
1.5156856481000001
  9
$TDUSRTIMER
 40
1.5156856481000001
  9
$USRTIMER
 70
     1
  9
$ANGBASE
 50
0.0
  9
$ANGDIR
 70
     0
  9
$PDMODE
 70
     0
  9
$PDSIZE
 40
0.3125
  9
$PLINEWID
 40
0.0
  9
$COORDS
 70
     1
  9
$SPLFRAME
 70
     0
  9
$SPLINETYPE
 70
     6
  9
$SPLINESEGS
 70
     8
  9
$ATTDIA
 70
     1
  9
$ATTREQ
 70
     1
  9
$HANDLING
 70
     1
  9
$HANDSEED
  5
1C062
  9
$SURFTAB1
 70
     6
  9
$SURFTAB2
 70
     6
  9
$SURFTYPE
 70
     6
  9
$SURFU
 70
     6
  9
$SURFV
 70
     6
  9
$UCSNAME
  2

  9
$UCSORG
 10
0.0
 20
0.0
 30
0.0
  9
$UCSXDIR
 10
1.0
 20
0.0
 30
0.0
  9
$UCSYDIR
 10
0.0
 20
1.0
 30
0.0
  9
$PUCSNAME
  2

  9
$PUCSORG
 10
0.0
 20
0.0
 30
0.0
  9
$PUCSXDIR
 10
1.0
 20
0.0
 30
0.0
  9
$PUCSYDIR
 10
0.0
 20
1.0
 30
0.0
  9
$USERI1
 70
     0
  9
$USERI2
 70
     0
  9
$USERI3
 70
     0
  9
$USERI4
 70
     0
  9
$USERI5
 70
     0
  9
$USERR1
 40
0.0
  9
$USERR2
 40
0.0
  9
$USERR3
 40
0.0
  9
$USERR4
 40
0.0
  9
$USERR5
 40
0.0
  9
$WORLDVIEW
 70
     1
  9
$SHADEDGE
 70
     3
  9
$SHADEDIF
 70
    70
  9
$TILEMODE
 70
     1
  9
$MAXACTVP
 70
    64
  9
$PLIMCHECK
 70
     0
  9
$PEXTMIN
 10
1.0000000000000000E+20
 20
1.0000000000000000E+20
 30
1.0000000000000000E+20
  9
$PEXTMAX
 10
-1.0000000000000000E+20
 20
-1.0000000000000000E+20
 30
-1.0000000000000000E+20
  9
$PLIMMIN
 10
0.0
 20
0.0
  9
$PLIMMAX
 10
12.0
 20
9.0
  9
$UNITMODE
 70
     0
  9
$VISRETAIN
 70
     1
  9
$PLINEGEN
 70
     0
  9
$PSLTSCALE
 70
     1
  0
ENDSEC
  0
SECTION
  2
TABLES
  0
TABLE
  2
VPORT
 70
     1
  0
VPORT
  2
*ACTIVE
 70
     0
 10
0.0
 20
0.0
 11
1.0
 21
1.0
 12
618.156237759168107
 22
329.5128338409543858
 13
0.0
 23
0.0
 14
1.0
 24
1.0
 15
0.0
 25
0.0
 16
0.0
 26
0.0
 36
60.4960186965801583
 17
3911.3653564453120453
 27
132.5796051025390057
 37
0.0
 40
9.297667327853901
 41
2.4830729166666661
 42
50.0
 43
0.0
 44
0.0
 50
0.0
 51
0.0
 71
     0
 72
   100
 73
     1
 74
     1
 75
     0
 76
     0
 77
     0
 78
     0
  0
ENDTAB
  0
TABLE
  2
LTYPE
 70
     2
  0
LTYPE
  2
CONTINUOUS
 70
     0
  3
Solid line
 72
    65
 73
     0
 40
0.0
  0
LTYPE
  2
PHANTOM2
 70
     0
  3
___ _ _ ___ _ _ ___ _ _ ___ _ _
 72
    65
 73
     6
 40
1.25
 49
0.625
 49
-0.125
 49
0.125
 49
-0.125
 49
0.125
 49
-0.125
  0
ENDTAB
  0
TABLE
  2
LAYER
 70
     2
  0
LAYER
  2
0
 70
     0
 62
   255
  6
CONTINUOUS
  0
LAYER
  2
DEFPOINTS
 70
     0
 62
     7
  6
CONTINUOUS
  0
ENDTAB
  0
TABLE
  2
STYLE
 70
     1
  0
STYLE
  2
STANDARD
 70
     0
 40
0.0
 41
0.8
 50
0.0
 71
     0
 42
0.2
  3
txt
  4

  0
ENDTAB
  0
TABLE
  2
VIEW
 70
     0
  0
ENDTAB
  0
TABLE
  2
UCS
 70
     0
  0
ENDTAB
  0
TABLE
  2
APPID
 70
    11
  0
APPID
  2
ACAD
 70
     0
  0
APPID
  2
ACAD_MLEADERVER
 70
     0
  0
APPID
  2
ACAD_EXEMPT_FROM_CAD_STANDARDS
 70
     0
  0
APPID
  2
ACAD_NAV_VCDISPLAY
 70
     0
  0
APPID
  2
ACAECLAYERSTANDARD
 70
     0
  0
APPID
  2
ACCMTRANSPARENCY
 70
     0
  0
APPID
  2
ACAD_DSTYLE_DIMJAG
 70
     0
  0
APPID
  2
ACAD_DSTYLE_DIMTALN
 70
     0
  0
APPID
  2
ACDBATTR
 70
     0
  0
APPID
  2
ACADANNOTATIVE
 70
     0
  0
APPID
  2
DCO15
 70
     0
  0
ENDTAB
  0
TABLE
  2
DIMSTYLE
 70
     1
  0
DIMSTYLE
  2
STANDARD
 70
     0
  3

  4

  5

  6

  7

 40
1.0
 41
0.1875
 42
0.0625
 43
0.38
 44
0.125
 45
0.0
 46
0.0
 47
0.01
 48
0.01
140
0.15625
141
0.09
142
0.0
143
25.3999999999999986
144
1.0
145
0.0
146
1.0
147
0.09
 71
     1
 72
     0
 73
     1
 74
     1
 75
     0
 76
     0
 77
     0
 78
     4
170
     0
171
     2
172
     0
173
     0
174
     0
175
     0
176
     0
177
     0
178
     0
  0
ENDTAB
  0
ENDSEC
  0
SECTION
  2
BLOCKS
  0
BLOCK
  8
0
  2
$MODEL_SPACE
 70
     0
 10
0.0
 20
0.0
 30
0.0
  3
$MODEL_SPACE
  1

  0
ENDBLK
  5
21
  8
0
  0
BLOCK
 67
     1
  8
0
  2
$PAPER_SPACE
 70
     0
 10
0.0
 20
0.0
 30
0.0
  3
$PAPER_SPACE
  1

  0
ENDBLK
  5
1D
 67
     1
  8
0
  0
BLOCK
  8
0
  2
_FILLED
 70
     0
 10
0.0
 20
0.0
 30
0.0
  3
_FILLED
  1

  0
SOLID
  5
1B77F
  8
0
  6
BYBLOCK
 62
     0
 10
0.0
 20
0.0
 30
0.0
 11
-1.0
 21
0.1666666667
 31
0.0
 12
-1.0
 22
-0.1666666667
 32
0.0
 13
-1.0
 23
-0.1666666667
 33
0.0
  0
ENDBLK
  5
1B780
  8
0
  6
BYBLOCK
 62
     0
  0
ENDSEC
  0
SECTION
  2
ENTITIES
  0
ATTDEF
  5
159BF
  8
DEFPOINTS
 10
4532.2015177189132373
 20
457.4990684971128871
 30
0.0
 40
0.001
  1
P25055-FRW
  3

  2
MODELNUMBER
 70
     0
1001
ACDBATTR
1070
     0
1070
     1
  0
ATTDEF
  5
159C0
  8
DEFPOINTS
 10
4532.2015177189132373
 20
457.4974016567335866
 30
0.0
 40
0.001
  1
SCRIPT
  3

  2
TRADENAME
 70
     0
1001
ACDBATTR
1070
     0
1070
     1
  0
ATTDEF
  5
159C1
  8
DEFPOINTS
 10
4532.2015177189132373
 20
457.4957351637793863
 30
0.0
 40
0.001
  1
BATHROOM SINK FAUCET
  3

  2
PRODUCT
 70
     0
1001
ACDBATTR
1070
     0
1070
     1
  0
ARC
  5
1BEAE
  8
0
 10
4529.0238921139361992
 20
462.1201250727954175
 30
0.0
 40
4.5696417961579838
 50
89.9926875130143173
 51
111.9257873106162009
  0
ARC
  5
1BEAF
  8
0
 10
4529.0732087033857169
 20
462.1797308009203107
 30
0.0
 40
4.3776100951278423
 50
90.6378470648074028
 51
112.772369943449803
  0
ARC
  5
1BEB0
  8
0
 10
4529.0412591879530737
 20
462.2283079077607795
 30
0.0
 40
4.0305759882885086
 50
90.2385871920249656
 51
112.2305118232825976
  0
ARC
  5
1BEB1
  8
0
 10
4529.0344802112731486
 20
462.2794927821610145
 30
0.0
 40
3.8402870896254591
 50
90.1492688905536852
 51
112.6163168999982958
  0
ARC
  5
1BEB2
  8
0
 10
4528.2296280404370918
 20
463.970089001038275
 30
0.0
 40
1.9723695509771619
 50
109.9187705631846939
 51
160.3466391650248113
  0
ARC
  5
1BEB3
  8
0
 10
4528.2833654181777092
 20
463.7722103631763275
 30
0.0
 40
2.7614270719240159
 50
110.4718659919265065
 51
161.3941527116137138
  0
ARC
  5
1BEB4
  8
0
 10
4528.1310818758711321
 20
463.8516005401392022
 30
0.0
 40
2.4439714284195939
 50
127.0180797912212967
 51
160.8220668639542055
  0
ARC
  5
1BEB5
  8
0
 10
4528.6911448499231483
 20
463.0992569481983878
 30
0.0
 40
3.3818772125583481
 50
112.834037970574002
 51
126.9201303241518985
  0
ARC
  5
1BEB6
  8
0
 10
4528.3680334154787488
 20
463.683167881123893
 30
0.0
 40
2.4302422940317721
 50
110.514813898279499
 51
134.2031849755107089
  0
ARC
  5
1BEB7
  8
0
 10
4527.9697319152301134
 20
464.1564385813177864
 30
0.0
 40
1.8138144529458859
 50
135.6069800405618082
 51
164.681419571063401
  0
ARC
  5
1BEB8
  8
0
 10
4526.1884532712256259
 20
464.6403166459401746
 30
0.0
 40
0.0322492018290264
 50
272.7794955279809983
 51
351.6306676760997902
  0
ARC
  5
1BEB9
  8
0
 10
4526.3385167515079957
 20
464.643105334333427
 30
0.0
 40
0.0349999517320509
 50
269.9869116317548219
 51
343.9925271139809979
  0
ARC
  5
1BEBA
  8
0
 10
4525.8553269272351827
 20
464.6426137590917733
 30
0.0
 40
0.0346672738912056
 50
160.0323839007548088
 51
264.5121345890378279
  0
ARC
  5
1BEBB
  8
0
 10
4525.6999090800272825
 20
464.6432186438290159
 30
0.0
 40
0.0351135744636987
 50
163.3827292989035129
 51
269.7576358176673921
  0
LINE
  5
1BEBC
  8
0
 10
4525.6997605481901701
 20
464.6081053835144985
 30
0.0
 11
4526.338508756290139
 21
464.6081053835144985
 31
0.0
  0
ARC
  5
1BEBD
  8
0
 10
4529.0627181342297263
 20
463.1257339263864878
 30
0.0
 40
3.564238076081935
 50
68.0116975506501831
 51
90.6147719793081308
  0
ARC
  5
1BEBE
  8
0
 10
4529.0950055691291709
 20
463.2666264650983976
 30
0.0
 40
3.291198973977183
 50
66.8114915648943537
 51
91.2279311839370735
  0
ARC
  5
1BEBF
  8
0
 10
4529.0042856130266955
 20
463.200101727970889
 30
0.0
 40
3.058813855304253
 50
64.714148330849909
 51
89.6218151142424659
  0
ARC
  5
1BEC0
  8
0
 10
4529.0395134162636168
 20
463.3465348670600861
 30
0.0
 40
2.7732727443476262
 50
63.8066138727914094
 51
90.3106872096561943
  0
ARC
  5
1BEC1
  8
0
 10
4529.1558977116992537
 20
463.4793542358614786
 30
0.0
 40
3.201782407087137
 50
27.674380671450951
 51
67.1885038773475713
  0
ARC
  5
1BEC2
  8
0
 10
4529.137766991870194
 20
463.4705696910767188
 30
0.0
 40
3.0871660364548661
 50
28.0052456053337089
 51
66.0505866596124207
  0
ARC
  5
1BEC3
  8
0
 10
4528.9950621708876497
 20
463.3546020023940741
 30
0.0
 40
2.7859937093108482
 50
20.2090739849857712
 51
62.913054141609507
  0
ARC
  5
1BEC4
  8
0
 10
4529.0403978804270082
 20
463.4030274591949023
 30
0.0
 40
2.8604162555952999
 50
30.0034195845607599
 51
63.631945834769482
  0
ARC
  5
1BEC5
  8
0
 10
4527.0424814655561931
 20
462.5745535304441205
 30
0.0
 40
4.8881739170027556
 50
4.3417252847468228
 51
20.8832354707613597
  0
ARC
  5
1BEC6
  8
0
 10
4527.8585458895349802
 20
462.7565649825845071
 30
0.0
 40
4.2072748265336788
 50
2.9962074956205811
 51
29.5791598559004107
  0
ARC
  5
1BEC7
  8
0
 10
4527.776422758033732
 20
462.7994342557947789
 30
0.0
 40
4.6044729498539461
 50
2.9479129907234718
 51
27.4244490197438004
  0
ARC
  5
1BEC8
  8
0
 10
4527.6982539963473755
 20
462.7492401513213167
 30
0.0
 40
4.831868021181287
 50
3.7229382987655519
 51
27.3138165286468997
  0
ARC
  5
1BEC9
  8
0
 10
4522.1318086957908235
 20
462.2388618816148096
 30
0.0
 40
10.4207553273658995
 50
0.1331833222604894
 51
4.5359448127686166
  0
ARC
  5
1BECA
  8
0
 10
4526.2440623906377368
 20
462.5376628087053064
 30
0.0
 40
5.6871437637610027
 50
357.2318625789500857
 51
4.1033654556854851
  0
ARC
  5
1BECB
  8
0
 10
4525.5725046179086348
 20
462.5201399248202279
 30
0.0
 40
6.5035883919254607
 50
357.7351806937887204
 51
4.0235878192412917
  0
ARC
  5
1BECC
  8
0
 10
4521.5619817938477354
 20
462.2121334842394162
 30
0.0
 40
10.8441797682000498
 50
0.2692123782031218
 51
4.3583766725095821
  0
LINE
  5
1BECD
  8
0
 10
4531.9245701027803079
 20
462.2630060720147185
 30
0.0
 11
4531.8461531993425524
 21
460.0174397665048787
 31
0.0
  0
LINE
  5
1BECE
  8
0
 10
4532.5525358702370795
 20
462.263084775114578
 30
0.0
 11
4532.5821014721332176
 21
460.0073923645169884
 31
0.0
  0
LINE
  5
1BECF
  8
0
 10
4532.0710127215897955
 20
462.2631294231144921
 30
0.0
 11
4531.9924567872885746
 21
460.0550625796146278
 31
0.0
  0
LINE
  5
1BED0
  8
0
 10
4532.4060418600902267
 20
462.2630859027145789
 30
0.0
 11
4532.4235652439510886
 21
460.0517753425796741
 31
0.0
  0
LINE
  5
1BED1
  8
0
 10
4531.7494051160902018
 20
459.9737167056144926
 30
0.0
 11
4531.749405025590022
 21
459.9595900757529989
 31
0.0
  0
LINE
  5
1BED2
  8
0
 10
4531.6641439124896351
 20
459.893060752114593
 30
0.0
 11
4531.6640946445886584
 21
459.7655937365145178
 31
0.0
  0
ARC
  5
1BED3
  8
0
 10
4526.3110161443000834
 20
459.0552122210588095
 30
0.0
 40
5.490504119177138
 50
354.7761436720787742
 51
358.2916274292750245
  0
ARC
  5
1BED4
  8
0
 10
4530.5834768310533036
 20
458.6600917227448804
 30
0.0
 40
1.1998225261740161
 50
340.5449505576797264
 51
354.9902559570567178
  0
ARC
  5
1BED5
  8
0
 10
4531.0198539730808989
 20
458.5397415950679942
 30
0.0
 40
0.7489546362734203
 50
302.9099921777425948
 51
338.106554873075595
  0
ARC
  5
1BED6
  8
0
 10
4530.5357037048497659
 20
458.7994068462696191
 30
0.0
 40
1.2583010406376851
 50
315.0850488278118178
 51
355.3093082867513886
  0
ARC
  5
1BED7
  8
0
 10
4526.2099963963473783
 20
459.4429472001332897
 30
0.0
 40
5.6081804885488697
 50
357.9457793973037951
 51
2.3376666129158301
  0
LINE
  5
1BED8
  8
0
 10
4531.799079813188655
 20
458.8915276191145836
 30
0.0
 11
4531.8145728054059873
 21
459.2419206666392029
 31
0.0
  0
ARC
  5
1BED9
  8
0
 10
4532.1995728519950717
 20
460.6953141819194002
 30
0.0
 40
1.094000049003607
 50
257.3261557728865796
 51
270.0018957342416002
  0
ARC
  5
1BEDA
  8
0
 10
4532.1995728438887454
 20
460.6953141335147279
 30
0.0
 40
1.0940000000001611
 50
249.3357363244371072
 51
257.3261556308124796
  0
ARC
  5
1BEDB
  8
0
 10
4532.2490335326456261
 20
460.7947933117625894
 30
0.0
 40
1.2045851857969829
 50
242.1269231456741977
 51
248.8042753824294095
  0
ARC
  5
1BEDC
  8
0
 10
4531.7044627340210354
 20
459.7657908771798247
 30
0.0
 40
0.0403685708043835
 50
180.2798061153652043
 51
242.5798317842734946
  0
ARC
  5
1BEDD
  8
0
 10
4532.1995180386647917
 20
458.9394326967645839
 30
0.0
 40
1.1155026808917869
 50
89.9953254206529607
 51
102.4004974874148957
  0
ARC
  5
1BEDE
  8
0
 10
4532.2000245576164161
 20
458.9436653590981905
 30
0.0
 40
1.111478422927032
 50
102.4728539752598948
 51
110.3275022848354041
  0
ARC
  5
1BEDF
  8
0
 10
4532.1989260040836598
 20
458.9505961517907053
 30
0.0
 40
1.1045985011302171
 50
110.3989546280004959
 51
117.6207619991255058
  0
ARC
  5
1BEE0
  8
0
 10
4531.7047543775051963
 20
459.8928758717423193
 30
0.0
 40
0.0406108858499009
 50
116.2145000308275939
 51
179.7391610300360867
  0
ARC
  5
1BEE1
  8
0
 10
4532.1996048789169436
 20
458.9451621927029237
 30
0.0
 40
1.129069102118436
 50
89.9997883868552577
 51
102.2511803739287046
  0
ARC
  5
1BEE2
  8
0
 10
4532.2004727666999315
 20
458.9435764172433778
 30
0.0
 40
1.1308030439162879
 50
102.2771035076079045
 51
112.4639400988577052
  0
ARC
  5
1BEE3
  8
0
 10
4531.7594260221212608
 20
459.9737138516159121
 30
0.0
 40
0.0100209064375778
 50
129.1897873991028973
 51
179.9836819071356899
  0
ARC
  5
1BEE4
  8
0
 10
4531.9005763125587691
 20
459.6654325691645795
 30
0.0
 40
0.3491312759525402
 50
112.2388033316372997
 51
114.4422099344631931
  0
ARC
  5
1BEE5
  8
0
 10
4531.7643790983083818
 20
459.9659172670039879
 30
0.0
 40
0.0192243040365166
 50
115.4616369571348997
 51
125.9463651758905058
  0
ARC
  5
1BEE6
  8
0
 10
4533.3180728438901497
 20
457.4973157604146081
 30
0.0
 40
0.06
 50
106.6979362899179051
 51
180.0
  0
ARC
  5
1BEE7
  8
0
 10
4533.2696207377111932
 20
457.5910894955064236
 30
0.0
 40
0.0757006374970263
 50
19.8318301061454108
 51
56.5193014541601286
  0
ARC
  5
1BEE8
  8
0
 10
4533.2852803116866198
 20
457.6161669442666948
 30
0.0
 40
0.0633209937328344
 50
284.2185407129674104
 51
321.0032323080567949
  0
ARC
  5
1BEE9
  8
0
 10
4533.2980441277795762
 20
457.6027550697672837
 30
0.0
 40
0.0450249709424342
 50
324.0479161097470069
 51
18.1381186952786315
  0
LINE
  5
1BEEA
  8
0
 10
4533.2580728438897495
 20
457.4973157604146081
 30
0.0
 11
4533.2580728438897495
 21
457.4953412122146119
 31
0.0
  0
LINE
  5
1BEEB
  8
0
 10
4533.2580728438897495
 20
457.4953412122146119
 30
0.0
 11
4531.1410728438886508
 21
457.4953412122146119
 31
0.0
  0
LINE
  5
1BEEC
  8
0
 10
4533.1225744499888606
 20
457.7866842122145954
 30
0.0
 11
4531.2765712377886302
 21
457.7866842122145954
 31
0.0
  0
ARC
  5
1BEED
  8
0
 10
4533.1226174693765643
 20
457.7668166123626179
 30
0.0
 40
0.0198676464269329
 50
53.8759372861080124
 51
90.1240625693452984
  0
LINE
  5
1BEEE
  8
0
 10
4533.3113814515900231
 20
457.6542292555146219
 30
0.0
 11
4533.1343301550359683
 21
457.7828645521018984
 31
0.0
  0
ARC
  5
1BEEF
  8
0
 10
4531.0810728438900696
 20
457.4973157604146081
 30
0.0
 40
0.06
 50
0.0
 51
73.3020637100820665
  0
ARC
  5
1BEF0
  8
0
 10
4531.1295249500672071
 20
457.5910894955064236
 30
0.0
 40
0.0757006374970263
 50
123.4806985458398003
 51
160.1681698938546106
  0
ARC
  5
1BEF1
  8
0
 10
4531.1138653760917805
 20
457.6161669442666948
 30
0.0
 40
0.0633209937328344
 50
218.9967676919432904
 51
255.7814592870325896
  0
ARC
  5
1BEF2
  8
0
 10
4531.1011015599997336
 20
457.6027550697672837
 30
0.0
 40
0.0450249709424342
 50
161.8618813047214076
 51
215.9520838902529931
  0
LINE
  5
1BEF3
  8
0
 10
4531.1410728438886508
 20
457.4973157604146081
 30
0.0
 11
4531.1410728438886508
 21
457.4953412122146119
 31
0.0
  0
ARC
  5
1BEF4
  8
0
 10
4531.2765282184027456
 20
457.7668166123626179
 30
0.0
 40
0.0198676464269329
 50
89.8759374306547159
 51
126.1240627138920019
  0
LINE
  5
1BEF5
  8
0
 10
4531.0877642361901962
 20
457.6542292555146219
 30
0.0
 11
4531.264815532744251
 21
457.7828645521018984
 31
0.0
  0
LINE
  5
1BEF6
  8
0
 10
4533.3008332810341017
 20
457.5547857305949719
 30
0.0
 11
4531.0983124067452081
 21
457.5547857305949719
 31
0.0
  0
ARC
  5
1BEF7
  8
0
 10
4531.3208980164890818
 20
457.8186990391370728
 30
0.0
 40
0.0200148325297099
 50
121.5381534812073028
 51
269.9569325473548815
  0
ARC
  5
1BEF8
  8
0
 10
4531.3313364813357111
 20
457.8069112853459046
 30
0.0
 40
0.0202277675639294
 50
197.8000074825511092
 51
269.5252336261273172
  0
ARC
  5
1BEF9
  8
0
 10
4530.2228356884979803
 20
459.6456507112928875
 30
0.0
 40
2.1115331929226762
 50
301.0023189828032173
 51
304.7623483423159882
  0
LINE
  5
1BEFA
  8
0
 10
4531.3208829719642381
 20
457.798684212261719
 30
0.0
 11
4533.0782989208846629
 21
457.7986842122145958
 31
0.0
  0
LINE
  5
1BEFB
  8
0
 10
4532.6497767767596088
 20
459.9737167056144926
 30
0.0
 11
4532.6497768672588791
 21
459.9595900757529989
 31
0.0
  0
LINE
  5
1BEFC
  8
0
 10
4532.7350379803592659
 20
459.893060752114593
 30
0.0
 11
4532.7350872482593331
 21
459.7655937365145178
 31
0.0
  0
ARC
  5
1BEFD
  8
0
 10
4538.0881657485497271
 20
459.0552122210588095
 30
0.0
 40
5.490504119177138
 50
181.7083725707248902
 51
185.2238563279211121
  0
ARC
  5
1BEFE
  8
0
 10
4533.8157050617955974
 20
458.6600917227448804
 30
0.0
 40
1.1998225261740161
 50
185.0097440429433107
 51
199.4550494423201883
  0
ARC
  5
1BEFF
  8
0
 10
4533.3793279197689117
 20
458.5397415950679942
 30
0.0
 40
0.7489546362734203
 50
201.8934451269242913
 51
237.0900078222574052
  0
ARC
  5
1BF00
  8
0
 10
4533.8634781879982256
 20
458.7994068462696191
 30
0.0
 40
1.2583010406376851
 50
184.6906917132486114
 51
224.9149511721882106
  0
ARC
  5
1BF01
  8
0
 10
4538.1891854965006132
 20
459.4429472001332897
 30
0.0
 40
5.6081804885488697
 50
177.6623333870840895
 51
182.0542206026962049
  0
LINE
  5
1BF02
  8
0
 10
4532.6001020796593366
 20
458.8915276191145836
 30
0.0
 11
4532.5846090874438232
 21
459.2419206666392029
 31
0.0
  0
ARC
  5
1BF03
  8
0
 10
4532.1996090489601556
 20
460.6953141335146142
 30
0.0
 40
1.0939999999999901
 50
270.0000000000521254
 51
282.6738443691875204
  0
ARC
  5
1BF04
  8
0
 10
4532.1996090489592461
 20
460.6953141335147279
 30
0.0
 40
1.0940000000001611
 50
282.6738443691875204
 51
290.6642636755628928
  0
ARC
  5
1BF05
  8
0
 10
4532.1501483602032749
 20
460.7947933117625894
 30
0.0
 40
1.2045851857969829
 50
291.1957246175705905
 51
297.8730768543258023
  0
ARC
  5
1BF06
  8
0
 10
4532.6947191588278656
 20
459.7657908771798247
 30
0.0
 40
0.0403685708043835
 50
297.4201682157263917
 51
359.7201938846347957
  0
ARC
  5
1BF07
  8
0
 10
4532.1996638869031813
 20
458.9394328965743739
 30
0.0
 40
1.11550247871732
 50
77.5995019500631003
 51
90.0028166524125339
  0
ARC
  5
1BF08
  8
0
 10
4532.1991573352333944
 20
458.9436653590981905
 30
0.0
 40
1.111478422927032
 50
69.6724977151645533
 51
77.5271460247400341
  0
ARC
  5
1BF09
  8
0
 10
4532.2002558887652413
 20
458.9505961517907053
 30
0.0
 40
1.1045985011302171
 50
62.3792380008745084
 51
69.6010453719994615
  0
ARC
  5
1BF0A
  8
0
 10
4532.6944275153437047
 20
459.8928758717423193
 30
0.0
 40
0.0406108858499009
 50
0.260838969963842
 51
63.7854999691723634
  0
ARC
  5
1BF0B
  8
0
 10
4532.1995770076737244
 20
458.9451621540156907
 30
0.0
 40
1.1290691412525551
 50
77.7488197322946775
 51
89.9983740319151764
  0
ARC
  5
1BF0C
  8
0
 10
4532.1987091261489695
 20
458.9435764172433778
 30
0.0
 40
1.1308030439162879
 50
67.5360599011422664
 51
77.7228964923921097
  0
ARC
  5
1BF0D
  8
0
 10
4532.6397558707276403
 20
459.9737138516159121
 30
0.0
 40
0.0100209064375778
 50
0.0163180928642573
 51
50.81021260089706
  0
ARC
  5
1BF0E
  8
0
 10
4532.4986055802901319
 20
459.6654325691645795
 30
0.0
 40
0.3491312759525402
 50
65.5577900655368211
 51
67.7611966683626434
  0
ARC
  5
1BF0F
  8
0
 10
4532.6348027945423382
 20
459.9659172670039879
 30
0.0
 40
0.0192243040365166
 50
54.05363482410948
 51
64.5383630428651145
  0
ARC
  5
1BF10
  8
0
 10
4533.0782838763589098
 20
457.8186990391370728
 30
0.0
 40
0.0200148325297099
 50
270.0430674526451185
 51
58.4618465187926688
  0
ARC
  5
1BF11
  8
0
 10
4533.0678454115122804
 20
457.8069112853459046
 30
0.0
 40
0.0202277675639294
 50
270.4747663738726828
 51
342.1999925174488908
  0
ARC
  5
1BF12
  8
0
 10
4534.1763462043509207
 20
459.6456507112928875
 30
0.0
 40
2.1115331929226762
 50
235.2376516576840118
 51
238.9976810171968111
  0
ENDSEC
  0
EOF
