  0
SECTION
  2
HEADER
  9
$ACADVER
  1
AC1009
  9
$INSBASE
 10
4687.4296939577689045
 20
321.939761928973212
 30
0.0
  9
$EXTMIN
 10
4676.063103425936788
 20
316.3541527414719781
 30
-0.0000000349181948
  9
$EXTMAX
 10
4687.4745662639943475
 20
323.0660162772496165
 30
0.0000000814935746
  9
$LIMMIN
 10
0.0
 20
0.0
  9
$LIMMAX
 10
11.6929133858000007
 20
8.2677165353999982
  9
$ORTHOMODE
 70
     0
  9
$REGENMODE
 70
     1
  9
$FILLMODE
 70
     1
  9
$QTEXTMODE
 70
     0
  9
$MIRRTEXT
 70
     0
  9
$DRAGMODE
 70
     2
  9
$LTSCALE
 40
0.6431102362
  9
$OSMODE
 70
  4095
  9
$ATTMODE
 70
     1
  9
$TEXTSIZE
 40
0.2
  9
$TRACEWID
 40
0.05
  9
$TEXTSTYLE
  7
STANDARD
  9
$CLAYER
  8
0
  9
$CELTYPE
  6
BYLAYER
  9
$CECOLOR
 62
   256
  9
$DIMSCALE
 40
1.0
  9
$DIMASZ
 40
0.1875
  9
$DIMEXO
 40
0.0625
  9
$DIMDLI
 40
0.4443307087
  9
$DIMRND
 40
0.0
  9
$DIMDLE
 40
0.0
  9
$DIMEXE
 40
0.125
  9
$DIMTP
 40
0.01
  9
$DIMTM
 40
0.01
  9
$DIMTXT
 40
2.0
  9
$DIMCEN
 40
0.1052362205
  9
$DIMTSZ
 40
0.0
  9
$DIMTOL
 70
     1
  9
$DIMLIM
 70
     0
  9
$DIMTIH
 70
     1
  9
$DIMTOH
 70
     1
  9
$DIMSE1
 70
     0
  9
$DIMSE2
 70
     0
  9
$DIMTAD
 70
     0
  9
$DIMZIN
 70
     0
  9
$DIMBLK
  1

  9
$DIMASO
 70
     1
  9
$DIMSHO
 70
     1
  9
$DIMPOST
  1
\X
  9
$DIMAPOST
  1

  9
$DIMALT
 70
     1
  9
$DIMALTD
 70
     2
  9
$DIMALTF
 40
25.3999999999999986
  9
$DIMLFAC
 40
1.0
  9
$DIMTOFL
 70
     0
  9
$DIMTVP
 40
0.0
  9
$DIMTIX
 70
     0
  9
$DIMSOXD
 70
     0
  9
$DIMSAH
 70
     0
  9
$DIMBLK1
  1

  9
$DIMBLK2
  1

  9
$DIMSTYLE
  2
STANDARD
  9
$DIMCLRD
 70
     0
  9
$DIMCLRE
 70
     0
  9
$DIMCLRT
 70
     0
  9
$DIMTFAC
 40
1.0
  9
$DIMGAP
 40
0.09
  9
$LUNITS
 70
     2
  9
$LUPREC
 70
     4
  9
$SKETCHINC
 40
0.1
  9
$FILLETRAD
 40
0.0
  9
$AUNITS
 70
     0
  9
$AUPREC
 70
     0
  9
$MENU
  1
.
  9
$ELEVATION
 40
0.0
  9
$PELEVATION
 40
0.0
  9
$THICKNESS
 40
0.0
  9
$LIMCHECK
 70
     0
  9
$BLIPMODE
 70
     0
  9
$CHAMFERA
 40
0.0
  9
$CHAMFERB
 40
0.0
  9
$SKPOLY
 70
     0
  9
$TDCREATE
 40
2458060.468368056230247
  9
$TDUPDATE
 40
2459578.4742824081331491
  9
$TDINDWG
 40
0.6562107639
  9
$TDUSRTIMER
 40
0.6562107639
  9
$USRTIMER
 70
     1
  9
$ANGBASE
 50
0.0
  9
$ANGDIR
 70
     0
  9
$PDMODE
 70
     0
  9
$PDSIZE
 40
0.3125
  9
$PLINEWID
 40
0.0
  9
$COORDS
 70
     1
  9
$SPLFRAME
 70
     0
  9
$SPLINETYPE
 70
     6
  9
$SPLINESEGS
 70
     8
  9
$ATTDIA
 70
     1
  9
$ATTREQ
 70
     1
  9
$HANDLING
 70
     1
  9
$HANDSEED
  5
22F67
  9
$SURFTAB1
 70
     6
  9
$SURFTAB2
 70
     6
  9
$SURFTYPE
 70
     6
  9
$SURFU
 70
     6
  9
$SURFV
 70
     6
  9
$UCSNAME
  2

  9
$UCSORG
 10
0.0
 20
0.0
 30
0.0
  9
$UCSXDIR
 10
1.0
 20
0.0
 30
0.0
  9
$UCSYDIR
 10
0.0
 20
1.0
 30
0.0
  9
$PUCSNAME
  2

  9
$PUCSORG
 10
0.0
 20
0.0
 30
0.0
  9
$PUCSXDIR
 10
1.0
 20
0.0
 30
0.0
  9
$PUCSYDIR
 10
0.0
 20
1.0
 30
0.0
  9
$USERI1
 70
     0
  9
$USERI2
 70
     0
  9
$USERI3
 70
     0
  9
$USERI4
 70
     0
  9
$USERI5
 70
     0
  9
$USERR1
 40
0.0
  9
$USERR2
 40
0.0
  9
$USERR3
 40
0.0
  9
$USERR4
 40
0.0
  9
$USERR5
 40
0.0
  9
$WORLDVIEW
 70
     1
  9
$SHADEDGE
 70
     3
  9
$SHADEDIF
 70
    70
  9
$TILEMODE
 70
     1
  9
$MAXACTVP
 70
    64
  9
$PLIMCHECK
 70
     0
  9
$PEXTMIN
 10
1.0000000000000000E+20
 20
1.0000000000000000E+20
 30
1.0000000000000000E+20
  9
$PEXTMAX
 10
-1.0000000000000000E+20
 20
-1.0000000000000000E+20
 30
-1.0000000000000000E+20
  9
$PLIMMIN
 10
0.0
 20
0.0
  9
$PLIMMAX
 10
12.0
 20
9.0
  9
$UNITMODE
 70
     0
  9
$VISRETAIN
 70
     1
  9
$PLINEGEN
 70
     0
  9
$PSLTSCALE
 70
     1
  0
ENDSEC
  0
SECTION
  2
TABLES
  0
TABLE
  2
VPORT
 70
     1
  0
VPORT
  2
*ACTIVE
 70
     0
 10
0.0
 20
0.0
 11
1.0
 21
1.0
 12
770.4034783996529541
 22
187.1304794068217063
 13
0.0
 23
0.0
 14
1.0
 24
1.0
 15
0.0
 25
0.0
 16
0.0
 26
0.0
 36
60.4960186965801583
 17
3911.3653564453120453
 27
132.5796051025390057
 37
0.0
 40
6.7650619257572648
 41
2.0410052910052912
 42
50.0
 43
0.0
 44
0.0
 50
0.0
 51
0.0
 71
     0
 72
   100
 73
     1
 74
     1
 75
     0
 76
     0
 77
     0
 78
     0
  0
ENDTAB
  0
TABLE
  2
LTYPE
 70
     2
  0
LTYPE
  2
CONTINUOUS
 70
     0
  3
Solid line
 72
    65
 73
     0
 40
0.0
  0
LTYPE
  2
PHANTOM2
 70
     0
  3
___ _ _ ___ _ _ ___ _ _ ___ _ _
 72
    65
 73
     6
 40
1.25
 49
0.625
 49
-0.125
 49
0.125
 49
-0.125
 49
0.125
 49
-0.125
  0
ENDTAB
  0
TABLE
  2
LAYER
 70
     2
  0
LAYER
  2
0
 70
     0
 62
   255
  6
CONTINUOUS
  0
LAYER
  2
DEFPOINTS
 70
     0
 62
     7
  6
CONTINUOUS
  0
ENDTAB
  0
TABLE
  2
STYLE
 70
     1
  0
STYLE
  2
STANDARD
 70
     0
 40
0.0
 41
0.8
 50
0.0
 71
     0
 42
0.2
  3
txt
  4

  0
ENDTAB
  0
TABLE
  2
VIEW
 70
     0
  0
ENDTAB
  0
TABLE
  2
UCS
 70
     0
  0
ENDTAB
  0
TABLE
  2
APPID
 70
    11
  0
APPID
  2
ACAD
 70
     0
  0
APPID
  2
ACAD_MLEADERVER
 70
     0
  0
APPID
  2
ACAD_EXEMPT_FROM_CAD_STANDARDS
 70
     0
  0
APPID
  2
ACAD_NAV_VCDISPLAY
 70
     0
  0
APPID
  2
ACAECLAYERSTANDARD
 70
     0
  0
APPID
  2
ACCMTRANSPARENCY
 70
     0
  0
APPID
  2
ACAD_DSTYLE_DIMJAG
 70
     0
  0
APPID
  2
ACAD_DSTYLE_DIMTALN
 70
     0
  0
APPID
  2
ACDBATTR
 70
     0
  0
APPID
  2
ACADANNOTATIVE
 70
     0
  0
APPID
  2
DCO15
 70
     0
  0
ENDTAB
  0
TABLE
  2
DIMSTYLE
 70
     1
  0
DIMSTYLE
  2
STANDARD
 70
     0
  3

  4

  5

  6

  7

 40
1.0
 41
0.1875
 42
0.0625
 43
0.38
 44
0.125
 45
0.0
 46
0.0
 47
0.01
 48
0.01
140
0.15625
141
0.09
142
0.0
143
25.3999999999999986
144
1.0
145
0.0
146
1.0
147
0.09
 71
     1
 72
     0
 73
     1
 74
     1
 75
     0
 76
     0
 77
     0
 78
     4
170
     0
171
     2
172
     0
173
     0
174
     0
175
     0
176
     0
177
     0
178
     0
  0
ENDTAB
  0
ENDSEC
  0
SECTION
  2
BLOCKS
  0
BLOCK
  8
0
  2
$MODEL_SPACE
 70
     0
 10
0.0
 20
0.0
 30
0.0
  3
$MODEL_SPACE
  1

  0
ENDBLK
  5
21
  8
0
  0
BLOCK
 67
     1
  8
0
  2
$PAPER_SPACE
 70
     0
 10
0.0
 20
0.0
 30
0.0
  3
$PAPER_SPACE
  1

  0
ENDBLK
  5
1D
 67
     1
  8
0
  0
ENDSEC
  0
SECTION
  2
ENTITIES
  0
ATTDEF
  5
211C4
  8
DEFPOINTS
 10
4687.4311560506312162
 20
321.939747798874123
 30
0.0
 40
0.001
  1
P25040-00
  3

  2
MODELNUMBER
 70
     0
1001
ACDBATTR
1070
     0
1070
     1
  0
ATTDEF
  5
211C5
  8
DEFPOINTS
 10
4687.4311560506312162
 20
321.938080958494993
 30
0.0
 40
0.001
  1
SCRIPT
  3

  2
TRADENAME
 70
     0
1001
ACDBATTR
1070
     0
1070
     1
  0
ATTDEF
  5
211C6
  8
DEFPOINTS
 10
4687.4311560506312162
 20
321.9364144655407927
 30
0.0
 40
0.001
  1
SHOWERHEAD
  3

  2
PRODUCT
 70
     0
1001
ACDBATTR
1070
     0
1070
     1
  0
LINE
  5
22DD7
  8
0
 10
4687.4296939577689045
 20
323.0147619289732006
 30
0.0
 11
4687.4296939577689045
 21
320.8647619289732233
 31
0.0
  0
LINE
  5
22DD8
  8
0
 10
4686.7396939577693047
 20
322.4897619289732233
 30
0.0
 11
4686.7396939577693047
 21
321.3897619289732006
 31
0.0
  0
LINE
  5
22DD9
  8
0
 10
4682.6058124246246734
 20
322.3447619289732984
 30
0.0
 11
4686.7396939577693047
 21
322.3447619289732984
 31
0.0
  0
LINE
  5
22DDA
  8
0
 10
4682.6058124246692387
 20
321.5347619289731824
 30
0.0
 11
4686.7396939577693047
 21
321.5347619289731824
 31
0.0
  0
LINE
  5
22DDB
  8
0
 10
4680.5921378411530895
 20
320.1480644371890207
 30
0.0
 11
4681.5331314376089722
 21
321.0904429160332256
 31
0.0
  0
LINE
  5
22DDC
  8
0
 10
4679.4238870927420066
 20
320.2539907767010163
 30
0.0
 11
4679.9409071324880642
 21
320.7710108171730781
 31
0.0
  0
ARC
  5
22DDD
  8
0
 10
4679.9550492681019023
 20
320.7568686815399133
 30
0.0
 40
0.02
 50
44.8844522874509408
 51
134.9999999617477044
  0
ARC
  5
22DDE
  8
0
 10
4679.5865738675211105
 20
320.0913458116223183
 30
0.0
 40
0.2300442812884347
 50
135.0073633128089909
 51
202.4523260670912066
  0
ARC
  5
22DDF
  8
0
 10
4679.3095376470446354
 20
319.9765531069945723
 30
0.0
 40
0.069833533474275
 50
264.225389011445202
 51
22.6877801933603109
  0
ARC
  5
22DE0
  8
0
 10
4679.251333857913778
 20
319.4010109119624872
 30
0.0
 40
0.508644209685759
 50
84.2253890114451451
 51
96.6234647199592587
  0
LINE
  5
22DE1
  8
0
 10
4678.9424735205484467
 20
320.1557624598739267
 30
0.0
 11
4680.0257437319405653
 21
319.0724813481576803
 31
0.0
  0
LINE
  5
22DE2
  8
0
 10
4678.3883621747709185
 20
319.5932321566712062
 30
0.0
 11
4679.4631655148041318
 21
318.5184288167380942
 31
0.0
  0
LINE
  5
22DE3
  8
0
 10
4678.4142756414275937
 20
319.4565113604140265
 30
0.0
 11
4678.4602375821787064
 21
319.5024733011638887
 31
0.0
  0
LINE
  5
22DE4
  8
0
 10
4678.3884184285379888
 20
319.6145013170939819
 30
0.0
 11
4678.9300447850546334
 21
320.1561176650794778
 31
0.0
  0
ARC
  5
22DE5
  8
0
 10
4678.9360274232585652
 20
320.147831777075794
 30
0.0
 40
0.0102199755332037
 50
50.8956222822957969
 51
125.8303164266854992
  0
ARC
  5
22DE6
  8
0
 10
4678.3989687764878909
 20
319.603838758389486
 30
0.0
 40
0.015
 50
134.6969230677102871
 51
225.0000000026552982
  0
LINE
  5
22DE7
  8
0
 10
4680.9603749448688177
 20
321.6631994087732096
 30
0.0
 11
4680.0197532346810476
 21
320.7204489330158026
 31
0.0
  0
LINE
  5
22DE8
  8
0
 10
4679.9692198952234321
 20
320.7709822681492255
 30
0.0
 11
4680.6409142970278481
 21
320.0992878663022907
 31
0.0
  0
LINE
  5
22DE9
  8
0
 10
4680.1239228059057496
 20
319.5539550635369892
 30
0.0
 11
4680.6409428747419952
 21
320.0709751322571037
 31
0.0
  0
ARC
  5
22DEA
  8
0
 10
4680.6268007104190474
 20
320.0851172391814998
 30
0.0
 40
0.0200000000000846
 50
315.0001162738258245
 51
45.1155477088711692
  0
ARC
  5
22DEB
  8
0
 10
4679.9612778406781217
 20
319.7166418394281777
 30
0.0
 40
0.2300442820913727
 50
247.5476739585022017
 51
314.9926365177801131
  0
ARC
  5
22DEC
  8
0
 10
4679.8464851358339729
 20
319.4396056181722088
 30
0.0
 40
0.069833533474275
 50
67.3122198030907128
 51
185.7746109849919947
  0
ARC
  5
22DED
  8
0
 10
4679.270942940797795
 20
319.3814018290772765
 30
0.0
 40
0.5086442096857591
 50
353.376535276504228
 51
5.7746109849920328
  0
LINE
  5
22DEE
  8
0
 10
4679.4844333458759138
 20
318.5184863996885838
 30
0.0
 11
4680.0257773061002808
 21
319.0597871783231199
 31
0.0
  0
ARC
  5
22DEF
  8
0
 10
4680.0193797708780039
 20
319.0661173870935841
 30
0.0
 40
0.009
 50
315.3030769287501016
 51
44.9999999964442168
  0
ARC
  5
22DF0
  8
0
 10
4679.4737707871709063
 20
318.5290367476396227
 30
0.0
 40
0.015
 50
224.9999999937911923
 51
315.3030769287478279
  0
LINE
  5
22DF1
  8
0
 10
4679.8734205775263035
 20
319.5040354589164053
 30
0.0
 11
4679.3739674878115693
 21
320.0034885486301164
 31
0.0
  0
LINE
  5
22DF2
  8
0
 10
4687.260347115668992
 20
320.8523582412753967
 30
0.0
 11
4687.260347115668992
 21
323.0271656166710841
 31
0.0
  0
LINE
  5
22DF3
  8
0
 10
4687.3036038900891072
 20
323.0597619289732165
 30
0.0
 11
4687.3846939577697412
 21
323.0597619289732165
 31
0.0
  0
LINE
  5
22DF4
  8
0
 10
4686.7996939577697049
 20
322.5497561476731789
 30
0.0
 11
4686.8201939107693761
 21
322.5497561476731789
 31
0.0
  0
ARC
  5
22DF5
  8
0
 10
4686.9296939579689933
 20
323.2573013278163216
 30
0.0
 40
0.7159681852432148
 50
261.2026677876316967
 51
278.7973322123681896
  0
LINE
  5
22DF6
  8
0
 10
4687.0391940051686106
 20
322.5497561476731789
 30
0.0
 11
4687.0556339465692872
 21
322.5497561476731789
 31
0.0
  0
ARC
  5
22DF7
  8
0
 10
4687.0556214697126052
 20
322.6397705040811275
 30
0.0
 40
0.0900143572726138
 50
270.0079417461516869
 51
343.9969315691254792
  0
LINE
  5
22DF8
  8
0
 10
4687.1421474946046146
 20
322.6149545509139784
 30
0.0
 11
4687.2603471156653541
 21
323.0271656166573848
 31
0.0
  0
ARC
  5
22DF9
  8
0
 10
4687.3036038901063876
 20
323.0147619289240879
 30
0.0
 40
0.0450000000491553
 50
90.0000000209483062
 51
163.9999910967046048
  0
ARC
  5
22DFA
  8
0
 10
4687.3846939577697412
 20
323.0147619289732006
 30
0.0
 40
0.045
 50
359.9999999999935199
 51
90.0
  0
ARC
  5
22DFB
  8
0
 10
4686.7996840896203139
 20
322.4897660164941726
 30
0.0
 40
0.0599901319906534
 50
89.9905750620883254
 51
180.0039039370871876
  0
ARC
  5
22DFC
  8
0
 10
4682.6058124246246734
 20
320.0177619291836209
 30
0.0
 40
2.326999999789618
 50
89.9999999989056647
 51
135.000000002880995
  0
ARC
  5
22DFD
  8
0
 10
4682.6058124246692387
 20
320.0177619289731865
 30
0.0
 40
1.5170000000000079
 50
90.0
 51
135.0000000000046043
  0
LINE
  5
22DFE
  8
0
 10
4676.5895505903763478
 20
319.4950090433021046
 30
0.0
 11
4679.3678922914668874
 21
316.7166673295679971
 31
0.0
  0
LINE
  5
22DFF
  8
0
 10
4676.3233037706277173
 20
318.9512883865148183
 30
0.0
 11
4678.8241617354697155
 21
316.4504304216720243
 31
0.0
  0
LINE
  5
22E00
  8
0
 10
4678.33579448551518
 20
319.5349925163271791
 30
0.0
 11
4679.404902605465395
 21
318.4658843963770209
 31
0.0
  0
LINE
  5
22E01
  8
0
 10
4678.444515852665063
 20
319.5181950306775889
 30
0.0
 11
4679.3898805807693861
 21
318.5728303026731965
 31
0.0
  0
ARC
  5
22E02
  8
0
 10
4677.8111168183659174
 20
320.1683156803018733
 30
0.0
 40
0.8045349253573498
 50
279.8176985703631203
 51
308.2562781113529127
  0
ARC
  5
22E03
  8
0
 10
4677.6179362819675589
 20
321.5922996048929008
 30
0.0
 40
2.2412189490403391
 50
262.2890165341127044
 51
278.4765214169420915
  0
ARC
  5
22E04
  8
0
 10
4677.9963154058468717
 20
325.0620690795752239
 30
0.0
 40
5.7310986882772088
 50
258.6542713109578813
 51
263.1948407291044987
  0
ARC
  5
22E05
  8
0
 10
4547.4522790723331127
 20
-346.0291492608010913
 30
0.0
 40
677.9393672904037658
 50
78.99486559484005
 51
79.0153481227672074
  0
ARC
  5
22E06
  8
0
 10
4676.6264754390231246
 20
319.469694126594618
 30
0.0
 40
0.02
 50
77.1089410582222143
 51
134.0000000834079117
  0
ARC
  5
22E07
  8
0
 10
4515.0626093567052521
 20
-511.1811826872884126
 30
0.0
 40
846.2376897634364923
 50
78.996576405587561
 51
79.0006898699108717
  0
ARC
  5
22E08
  8
0
 10
4676.4122483611763528
 20
318.9441138191086225
 30
0.0
 40
0.5771704610945699
 50
79.0006898699108717
 51
93.2216309382013293
  0
ARC
  5
22E09
  8
0
 10
4676.3900888512926031
 20
319.3377989116805225
 30
0.0
 40
0.1828622111281605
 50
93.2216309382013293
 51
126.7215870669521962
  0
ARC
  5
22E0A
  8
0
 10
4676.3550510487712017
 20
319.393722145162485
 30
0.0
 40
0.1172091867292734
 50
129.3394466561638012
 51
188.4927056271478989
  0
ARC
  5
22E0B
  8
0
 10
4676.518705882715949
 20
319.4313169991668246
 30
0.0
 40
0.2849189782414201
 50
191.1105652163290927
 51
213.5219168105518861
  0
ARC
  5
22E0C
  8
0
 10
4675.894122085392155
 20
319.0175703314670272
 30
0.0
 40
0.4642747383050457
 50
15.6912962028748098
 51
33.5219168105492216
  0
ARC
  5
22E0D
  8
0
 10
4676.107540430483823
 20
319.0871954857170749
 30
0.0
 40
0.2401600164192122
 50
332.0929611602442151
 51
13.4694939556007096
  0
ARC
  5
22E0E
  8
0
 10
4676.3374459062506503
 20
318.9654305221386039
 30
0.0
 40
0.02
 50
152.0929386335560025
 51
224.9999999999216982
  0
ARC
  5
22E0F
  8
0
 10
4676.5789439886357286
 20
319.4844024416116781
 30
0.0
 40
0.015
 50
44.9999998666052079
 51
78.9965903244042664
  0
LINE
  5
22E10
  8
0
 10
4676.6064248570974087
 20
319.4781347765037935
 30
0.0
 11
4676.6125822715930553
 21
319.4840809225810858
 31
0.0
  0
ARC
  5
22E11
  8
0
 10
4678.3216523498913375
 20
319.5208503807033935
 30
0.0
 40
0.02
 50
45.0000000000552802
 51
128.2562781112347068
  0
LINE
  5
22E12
  8
0
 10
4678.4418192991251999
 20
319.5397750323227228
 30
0.0
 11
4678.4372507807702277
 21
319.5352059064732089
 31
0.0
  0
LINE
  5
22E13
  8
0
 10
4678.4372507807702277
 20
319.5352059064732089
 30
0.0
 11
4678.4392993841702264
 21
319.5273127811065024
 31
0.0
  0
ARC
  5
22E14
  8
0
 10
4678.4586579882889055
 20
319.5323371663013177
 30
0.0
 40
0.02
 50
194.5496734220523081
 51
224.9999999999930935
  0
LINE
  5
22E15
  8
0
 10
4678.4372507807702277
 20
319.5352059064732089
 30
0.0
 11
4678.5629174839314146
 21
319.4186768475270242
 31
0.0
  0
LINE
  5
22E16
  8
0
 10
4679.2819283371691199
 20
319.8022298595731741
 30
0.0
 11
4679.1108307671693183
 21
319.6311322895732019
 31
0.0
  0
LINE
  5
22E17
  8
0
 10
4679.1108307671693183
 20
319.6311322895732019
 30
0.0
 11
4679.5010643184687069
 21
319.240898738273188
 31
0.0
  0
LINE
  5
22E18
  8
0
 10
4679.5010643184687069
 20
319.240898738273188
 30
0.0
 11
4679.6721618884930649
 21
319.4119963082490017
 31
0.0
  0
ARC
  5
22E19
  8
0
 10
4679.2852128116510357
 20
319.7778716816017095
 30
0.0
 40
0.024578620927865
 50
46.5008235407554196
 51
97.6794853779261132
  0
ARC
  5
22E1A
  8
0
 10
4679.6443853467044391
 20
319.4142351445146915
 30
0.0
 40
0.0278666227164971
 50
355.3918252043587245
 51
45.4685940240101587
  0
LINE
  5
22E1B
  8
0
 10
4676.341094623772733
 20
319.1431353845684953
 30
0.0
 11
4679.0160087335243588
 21
316.4682212748184043
 31
0.0
  0
ARC
  5
22E1C
  8
0
 10
4679.7096309564776675
 20
319.9705955839489206
 30
0.0
 40
0.1043050869994509
 50
134.0874733161271877
 51
180.5942171582545086
  0
ARC
  5
22E1D
  8
0
 10
4679.8382777747328873
 20
319.9822169612875769
 30
0.0
 40
0.2332924040207287
 50
183.1213823082539989
 51
227.4096254759037095
  0
LINE
  5
22E1E
  8
0
 10
4680.041759840355553
 20
320.45021390077261
 30
0.0
 11
4679.6370600898726479
 21
320.0455156780089965
 31
0.0
  0
ARC
  5
22E1F
  8
0
 10
4679.8595468418752716
 20
319.9897358889966767
 30
0.0
 40
0.5041173963539436
 50
44.9902694517858706
 51
66.2063946514187904
  0
ARC
  5
22E20
  8
0
 10
4680.0476445246204094
 20
320.4163393703270231
 30
0.0
 40
0.0378864787420357
 50
66.2063946514187904
 51
84.075902300577809
  0
ARC
  5
22E21
  8
0
 10
4680.0503649678666989
 20
320.442585926326899
 30
0.0
 40
0.0114993136164973
 50
84.0608772747108759
 51
138.444768088309587
  0
LINE
  5
22E22
  8
0
 10
4680.041759840355553
 20
320.4502139007732922
 30
0.0
 11
4680.3211238813182717
 21
320.1728042272217749
 31
0.0
  0
ARC
  5
22E23
  8
0
 10
4679.8405276117591711
 20
319.8396989281545757
 30
0.0
 40
0.1043050869994509
 50
269.4057826171093097
 51
315.9125264592311737
  0
ARC
  5
22E24
  8
0
 10
4679.8521489896029379
 20
319.9683457463631271
 30
0.0
 40
0.2332924040207287
 50
222.5903742994873085
 51
266.8786174671470235
  0
LINE
  5
22E25
  8
0
 10
4680.3201459298852569
 20
320.1718278101511146
 30
0.0
 11
4679.9154477055353709
 21
319.7671280612547093
 31
0.0
  0
ARC
  5
22E26
  8
0
 10
4679.8596679173951998
 20
319.9896148134761802
 30
0.0
 40
0.5041173963539436
 50
23.7936051239645003
 51
45.0097303236033994
  0
ARC
  5
22E27
  8
0
 10
4680.2862713994618389
 20
320.1777124945492119
 30
0.0
 40
0.0378864787420357
 50
5.9240974747969357
 51
23.7936051239615196
  0
ARC
  5
22E28
  8
0
 10
4680.3125179554726856
 20
320.1804329376935812
 30
0.0
 40
0.0114993136164973
 50
311.5552316870803793
 51
5.9391225006682031
  0
LINE
  5
22E29
  8
0
 10
4679.3264433892190937
 20
318.5443436126232086
 30
0.0
 11
4679.3724053299692969
 21
318.5903055533731845
 31
0.0
  0
ARC
  5
22E2A
  8
0
 10
4680.1120437253330238
 20
317.916679225865721
 30
0.0
 40
0.8780768263109665
 50
143.4312014612812902
 51
169.5841480898349971
  0
ARC
  5
22E2B
  8
0
 10
4679.3907604698415525
 20
318.4517422607532922
 30
0.0
 40
0.02
 50
323.4312014612813186
 51
44.9999999999930935
  0
ARC
  5
22E2C
  8
0
 10
4681.4651729538481959
 20
317.7450629330126048
 30
0.0
 40
2.2412189490403391
 50
171.5234785830641897
 51
187.7109834659084129
  0
ARC
  5
22E2D
  8
0
 10
4684.9349424285310306
 20
318.1234420568912924
 30
0.0
 40
5.7310986882772088
 50
186.8051592708752082
 51
191.3457286890651119
  0
ARC
  5
22E2E
  8
0
 10
4013.8437240881557955
 20
187.5794057233742933
 30
0.0
 40
677.9393672904037658
 50
10.9846518772327002
 51
11.0051344051600299
  0
ARC
  5
22E2F
  8
0
 10
4679.3425674755499131
 20
316.7536020900673179
 30
0.0
 40
0.02
 50
315.9999999166101929
 51
12.8910589417826902
  0
ARC
  5
22E30
  8
0
 10
3848.6916906616688721
 20
155.1897360077439032
 30
0.0
 40
846.2376897634364923
 50
10.9993101300801506
 51
11.0034235943906005
  0
ARC
  5
22E31
  8
0
 10
4678.8169871680638607
 20
316.5393750122206029
 30
0.0
 40
0.5771704610945699
 50
356.7783690618218202
 51
10.9993101300801506
  0
ARC
  5
22E32
  8
0
 10
4679.2106722606358744
 20
316.5172155023378195
 30
0.0
 40
0.1828622111281605
 50
323.278412933027596
 51
356.7783690618218202
  0
ARC
  5
22E33
  8
0
 10
4679.2665954941194286
 20
316.4821776998156224
 30
0.0
 40
0.1172091867292734
 50
261.5072943728599739
 51
320.6605533438420821
  0
ARC
  5
22E34
  8
0
 10
4679.304190348121665
 20
316.6458325337604833
 30
0.0
 40
0.2849189782414201
 50
236.4780831894391042
 51
258.8894347836575207
  0
ARC
  5
22E35
  8
0
 10
4678.8904436804223224
 20
316.0212487364361778
 30
0.0
 40
0.4642747383050457
 50
56.4780831894391113
 51
74.3087037971400832
  0
ARC
  5
22E36
  8
0
 10
4678.9600688346727111
 20
316.2346670815280731
 30
0.0
 40
0.2401600164192122
 50
76.5305060443757412
 51
117.9070388397378935
  0
ARC
  5
22E37
  8
0
 10
4678.838303871095377
 20
316.4645725572959236
 30
0.0
 40
0.02
 50
225.0000000000690932
 51
297.9070613664463281
  0
ARC
  5
22E38
  8
0
 10
4679.3572617384861587
 20
316.706060241364014
 30
0.0
 40
0.0150172892642453
 50
11.8161576549783796
 51
44.9901428635145635
  0
LINE
  5
22E39
  8
0
 10
4679.3510081254598845
 20
316.7335515081417725
 30
0.0
 11
4679.3569542715358693
 21
316.7397089226370781
 31
0.0
  0
LINE
  5
22E3A
  8
0
 10
4679.3898810064702047
 20
318.5728298769731737
 30
0.0
 11
4679.3840157735694447
 21
318.5942857689731795
 31
0.0
  0
LINE
  5
22E3B
  8
0
 10
4679.3840157735694447
 20
318.5942857689731795
 30
0.0
 11
4679.3856621680661192
 21
318.5959321634696266
 31
0.0
  0
LINE
  5
22E3C
  8
0
 10
4679.3840157735694447
 20
318.5942857689731795
 30
0.0
 11
4679.1309619562243824
 21
318.8317489271909153
 31
0.0
  0
ARC
  5
22E3D
  8
0
 10
4684.4931882259998019
 20
324.6232561971046948
 30
0.0
 40
9.854834645744722
 50
224.5035435072175005
 51
225.5206242293185994
  0
ARC
  5
22E3E
  8
0
 10
4684.493188225911581
 20
324.6232561970189749
 30
0.0
 40
9.8548346456212155
 50
223.2123878650432118
 51
223.8970781982127107
  0
ARC
  5
22E3F
  8
0
 10
4682.6781298822215831
 20
323.0021391292802946
 30
0.0
 40
7.4213600816096337
 50
221.0652567576073864
 51
222.8717038823619134
  0
LINE
  5
22E40
  8
0
 10
4676.6220146219247908
 20
318.6525775352171763
 30
0.0
 11
4676.6885757953659777
 21
318.573308805847887
 31
0.0
  0
LINE
  5
22E41
  8
0
 10
4676.753696242289152
 20
318.5208959148530994
 30
0.0
 11
4677.0149482523802362
 21
318.2050249148967964
 31
0.0
  0
LINE
  5
22E42
  8
0
 10
4676.8983962250231343
 20
318.3214686583963271
 30
0.0
 11
4676.9085909169562001
 21
318.3336179844064873
 31
0.0
  0
LINE
  5
22E43
  8
0
 10
4676.9681563315061794
 20
318.2445309087095779
 30
0.0
 11
4676.9764897401573762
 21
318.2515238057901001
 31
0.0
  0
LINE
  5
22E44
  8
0
 10
4676.8985799278898412
 20
318.3060667844461022
 30
0.0
 11
4676.9517009606770443
 21
318.2457703263045232
 31
0.0
  0
LINE
  5
22E45
  8
0
 10
4677.0145154888696197
 20
318.2046533605732179
 30
0.0
 11
4677.0250410604703575
 21
318.2171972482731803
 31
0.0
  0
LINE
  5
22E46
  8
0
 10
4677.0827404769688656
 20
318.1269311422731789
 30
0.0
 11
4677.0948670136604051
 21
318.1366947114677828
 31
0.0
  0
LINE
  5
22E47
  8
0
 10
4677.1732823700476729
 20
318.0061100206056039
 30
0.0
 11
4677.1814542039419393
 21
318.0158437159767004
 31
0.0
  0
LINE
  5
22E48
  8
0
 10
4677.2331440982816275
 20
317.9457655130319722
 30
0.0
 11
4677.2421747434427743
 21
317.9565298102565976
 31
0.0
  0
LINE
  5
22E49
  8
0
 10
4677.3044630548693021
 20
317.8703355189732065
 30
0.0
 11
4677.314504083967222
 21
317.8787087089961005
 31
0.0
  0
LINE
  5
22E4A
  8
0
 10
4677.3185536619148479
 20
317.8988585715678141
 30
0.0
 11
4677.3293293280476064
 21
317.9117097932924025
 31
0.0
  0
LINE
  5
22E4B
  8
0
 10
4677.3907660178692822
 20
317.8243813151731842
 30
0.0
 11
4677.402617446903605
 21
317.8343258248160055
 31
0.0
  0
LINE
  5
22E4C
  8
0
 10
4677.3898489918692576
 20
317.7877804727731927
 30
0.0
 11
4677.3991873150343963
 21
317.7989102000664161
 31
0.0
  0
LINE
  5
22E4D
  8
0
 10
4677.4624403434690976
 20
317.7136227235732235
 30
0.0
 11
4677.473276541031737
 21
317.722714916592281
 31
0.0
  0
LINE
  5
22E4E
  8
0
 10
4677.1736112970665999
 20
317.9905492370680236
 30
0.0
 11
4677.2278140987691586
 21
317.9312728187732091
 31
0.0
  0
ARC
  5
22E4F
  8
0
 10
4676.9074473208702329
 20
318.3138745810732075
 30
0.0
 40
0.0118149204999999
 50
140.0025775175217859
 51
221.3641261857897007
  0
ARC
  5
22E50
  8
0
 10
4676.9605638845659996
 20
318.2535844857674192
 30
0.0
 40
0.0118157736945031
 50
221.4016039960706053
 51
309.9836709980791056
  0
ARC
  5
22E51
  8
0
 10
4677.024210395225964
 20
318.1968192086824274
 30
0.0
 40
0.0124645555521824
 50
141.0594019996177053
 51
220.3211137346796136
  0
ARC
  5
22E52
  8
0
 10
4677.5457645575561401
 20
318.6148847007045788
 30
0.0
 40
0.6808888757905031
 50
218.7442397837380952
 51
225.5259768325547896
  0
ARC
  5
22E53
  8
0
 10
4677.0771034639319623
 20
318.1370828968975957
 30
0.0
 40
0.011611805972389
 50
223.9491028816428013
 51
299.0423083437643754
  0
ARC
  5
22E54
  8
0
 10
4676.0162708279922299
 20
317.2716917029835031
 30
0.0
 40
1.382605554055935
 50
38.7292574784668417
 51
43.1458429913326569
  0
ARC
  5
22E55
  8
0
 10
4677.0419264114480029
 20
318.0904794776432141
 30
0.0
 40
0.0702748546778073
 50
25.7672038014831486
 51
41.1326024477373693
  0
ARC
  5
22E56
  8
0
 10
4677.1502242675187517
 20
318.1861211435244172
 30
0.0
 40
0.0791386915466281
 50
221.5784545464655935
 51
235.3364919839272886
  0
ARC
  5
22E57
  8
0
 10
4676.9805709086476782
 20
318.1799791146169127
 30
0.0
 40
0.0579895152233319
 50
39.9267685435494286
 51
57.5892044393773901
  0
ARC
  5
22E58
  8
0
 10
4677.0816001685789161
 20
318.2639631060370107
 30
0.0
 40
0.0782279900771125
 50
206.6003192734276865
 51
219.9706261984177047
  0
ARC
  5
22E59
  8
0
 10
4676.8554003053695851
 20
317.9896261782719193
 30
0.0
 40
0.2527259185594219
 50
37.7296337359140566
 51
46.5675304844367517
  0
ARC
  5
22E5A
  8
0
 10
4677.2430151877997559
 20
318.3404605462000063
 30
0.0
 40
0.2715342136325017
 50
218.0362643524836983
 51
226.2608977765414977
  0
ARC
  5
22E5B
  8
0
 10
4676.8707791761444241
 20
318.4088368447498283
 30
0.0
 40
0.0121344649185808
 50
240.4140930563467862
 51
297.9771186395656741
  0
ARC
  5
22E5C
  8
0
 10
4676.9290928023419838
 20
318.4825425920241742
 30
0.0
 40
0.1059930400641977
 50
220.4569839797418922
 51
232.6495618498850888
  0
ARC
  5
22E5D
  8
0
 10
4677.3404014794386967
 20
318.868356666580496
 30
0.0
 40
0.6698322823763995
 50
218.1330439635480047
 51
222.7392685961802101
  0
ARC
  5
22E5E
  8
0
 10
4676.8658864259468828
 20
318.4963551728201878
 30
0.0
 40
0.0668828246460174
 50
209.9372361568582903
 51
218.4753198357923054
  0
ARC
  5
22E5F
  8
0
 10
4676.8199407035681361
 20
318.469372547789078
 30
0.0
 40
0.0136093599137647
 50
184.8953911523551028
 51
208.0291359061687047
  0
ARC
  5
22E60
  8
0
 10
4676.6928016035080873
 20
318.3057512248693115
 30
0.0
 40
0.1910531239175132
 50
35.1001071183744315
 51
46.8162643883257203
  0
ARC
  5
22E61
  8
0
 10
4676.9777425269139712
 20
318.5530743705223244
 30
0.0
 40
0.188262945573332
 50
215.0112918614941862
 51
226.9016938343235097
  0
ARC
  5
22E62
  8
0
 10
4676.697621489813173
 20
318.5809096830511749
 30
0.0
 40
0.0118151564649483
 50
220.0395194206984115
 51
301.346499765720182
  0
ARC
  5
22E63
  8
0
 10
4677.4546634717025881
 20
317.7231095321009207
 30
0.0
 40
0.0122669992462176
 50
231.5095192037090897
 51
309.3434051205562128
  0
ARC
  5
22E64
  8
0
 10
4677.83593966522767
 20
318.1506210623313109
 30
0.0
 40
0.585080827671169
 50
220.4013305839710881
 51
228.3396686685260875
  0
ARC
  5
22E65
  8
0
 10
4677.3997520849106877
 20
317.7799109195215124
 30
0.0
 40
0.012649154919155
 50
141.5273760805667962
 51
222.2369099070415075
  0
ARC
  5
22E66
  8
0
 10
4677.3282285334271364
 20
317.8908762515824264
 30
0.0
 40
0.0125427497423885
 50
140.4754272291243069
 51
217.5081660091427125
  0
ARC
  5
22E67
  8
0
 10
4677.6143820748056896
 20
318.1105143903990893
 30
0.0
 40
0.3732708485459757
 50
217.5081660091427125
 51
229.7183412569928009
  0
ARC
  5
22E68
  8
0
 10
4677.385399405426142
 20
317.8403320087485895
 30
0.0
 40
0.0191076344332416
 50
229.7183412569906977
 51
255.7384230561210927
  0
ARC
  5
22E69
  8
0
 10
4677.3832600089708649
 20
317.8327829415267161
 30
0.0
 40
0.0112662103199822
 50
256.8255753413018283
 51
311.7775862035380214
  0
ARC
  5
22E6A
  8
0
 10
4677.2308981666574255
 20
317.7422159042495196
 30
0.0
 40
0.1623222761524876
 50
36.98124686148725
 51
50.7798547481809734
  0
ARC
  5
22E6B
  8
0
 10
4677.4639970429898312
 20
317.9663796032161827
 30
0.0
 40
0.163415809921846
 50
217.0276347377835862
 51
230.7334643105778866
  0
ARC
  5
22E6C
  8
0
 10
4677.2031603558807547
 20
317.8971198839572025
 30
0.0
 40
0.1193191861874635
 50
33.9704188748714131
 51
52.7780169136312409
  0
ARC
  5
22E6D
  8
0
 10
4677.3730792652077071
 20
318.0576594342451244
 30
0.0
 40
0.1176740449517442
 50
213.8377301977052127
 51
232.9107055907986137
  0
ARC
  5
22E6E
  8
0
 10
4677.272460672622401
 20
318.0153483530967264
 30
0.0
 40
0.0148933384415105
 50
173.8667446988206962
 51
213.9863599506111029
  0
ARC
  5
22E6F
  8
0
 10
4677.4203481979202479
 20
318.1150485323212251
 30
0.0
 40
0.1932492911763444
 50
213.9863599506111029
 51
225.6570908361638033
  0
ARC
  5
22E70
  8
0
 10
4678.1182946037761212
 20
318.8291900351608206
 30
0.0
 40
1.1918118938839299
 50
225.6570908361638033
 51
227.5991855748542889
  0
ARC
  5
22E71
  8
0
 10
4677.3241475336590156
 20
317.9595128465828111
 30
0.0
 40
0.014098863767029
 50
227.5991855748542889
 51
287.9477563060107741
  0
ARC
  5
22E72
  8
0
 10
4677.2422307952174378
 20
317.9381256968994762
 30
0.0
 40
0.0118604901510005
 50
139.86340286277769
 51
200.9584452745068006
  0
ARC
  5
22E73
  8
0
 10
4677.2475509589248759
 20
317.9401634905397032
 30
0.0
 40
0.0175575722824874
 50
200.9584452745068006
 51
226.2350833975918079
  0
ARC
  5
22E74
  8
0
 10
4677.9078293807742739
 20
318.5072428856753959
 30
0.0
 40
0.8878476386142693
 50
220.7677197361614958
 51
225.7434200660908061
  0
ARC
  5
22E75
  8
0
 10
4677.296874262455276
 20
317.8793553742149243
 30
0.0
 40
0.0117876019142667
 50
222.7956397292288102
 51
310.0753457798891191
  0
ARC
  5
22E76
  8
0
 10
4677.1823295665935802
 20
317.9985173938609933
 30
0.0
 40
0.0118110010672692
 50
139.9958102210179902
 51
222.4260888688071134
  0
ARC
  5
22E77
  8
0
 10
4677.2365326371473202
 20
317.9392412776368246
 30
0.0
 40
0.0118114033079876
 50
222.4262906428780866
 51
264.5282774545584061
  0
ARC
  5
22E78
  8
0
 10
4676.9899165527331206
 20
317.6479324850449188
 30
0.0
 40
0.371088134899746
 50
39.9158102137699728
 51
45.9401114386956806
  0
ARC
  5
22E79
  8
0
 10
4677.5293154949713426
 20
318.1496636467663848
 30
0.0
 40
0.3666153354438539
 50
219.8790237052110115
 51
225.9768938527105888
  0
ARC
  5
22E7A
  8
0
 10
4675.6472832594699867
 20
316.4016650807528208
 30
0.0
 40
2.2273938072788879
 50
41.5397610559800228
 51
44.27192794388057
  0
ARC
  5
22E7B
  8
0
 10
4677.161251531407288
 20
317.742985220218884
 30
0.0
 40
0.2047125063895911
 50
36.4061015234330299
 51
41.5397610559800228
  0
ARC
  5
22E7C
  8
0
 10
4677.4138015347898545
 20
317.9715976184901933
 30
0.0
 40
0.1384948156789691
 50
223.0306023390394898
 51
230.6619536353572073
  0
ARC
  5
22E7D
  8
0
 10
4677.1733351104594476
 20
317.8960608034078064
 30
0.0
 40
0.0916263984597831
 50
41.2961321980632619
 51
52.5217032610053565
  0
ARC
  5
22E7E
  8
0
 10
4677.338497631941209
 20
318.0456275791339067
 30
0.0
 40
0.1337061369468855
 50
215.0852374423635922
 51
222.9042464605369958
  0
ARC
  5
22E7F
  8
0
 10
4677.2544125356216682
 20
317.5834220701999016
 30
0.0
 40
0.2297740594088471
 50
39.3318750689119412
 51
49.0679814765378381
  0
ARC
  5
22E80
  8
0
 10
4677.5826344235283614
 20
317.9026031098655949
 30
0.0
 40
0.2297114993600098
 50
219.3305460936869906
 51
229.0693104517521874
  0
ARC
  5
22E81
  8
0
 10
4676.4597078881697598
 20
316.8112798654670996
 30
0.0
 40
1.363097673126995
 50
41.9629461834578379
 51
46.4312963600053621
  0
ARC
  5
22E82
  8
0
 10
4677.3814612523192409
 20
317.6401515610534716
 30
0.0
 40
0.1234777507053416
 50
33.5600906674158423
 51
41.9629461834578379
  0
ARC
  5
22E83
  8
0
 10
4677.5242203523912394
 20
317.7715542002084135
 30
0.0
 40
0.0746523663990323
 50
223.6033774434527004
 51
237.7364405874506872
  0
ARC
  5
22E84
  8
0
 10
4677.3384180343318803
 20
317.7388136291917817
 30
0.0
 40
0.0854663870060847
 50
44.6810700368104676
 51
56.7121045678105133
  0
ARC
  5
22E85
  8
0
 10
4677.4693460167582089
 20
317.8638326180856097
 30
0.0
 40
0.0996479951890261
 50
212.523736966104309
 51
223.0757739618786957
  0
ARC
  5
22E86
  8
0
 10
4677.3524199003641115
 20
317.7933215001544909
 30
0.0
 40
0.0648162657661158
 50
22.8993218026923095
 51
39.2439830381218613
  0
ARC
  5
22E87
  8
0
 10
4677.4280345681809195
 20
317.8576799516155234
 30
0.0
 40
0.0422465441697339
 50
222.1059949557337916
 51
247.8818535683197126
  0
ARC
  5
22E88
  8
0
 10
4676.8572876782827734
 20
317.3912562842266993
 30
0.0
 40
0.7026344527640469
 50
39.0931693638907731
 51
47.7925561551586071
  0
ARC
  5
22E89
  8
0
 10
4677.2874516332358326
 20
317.8655375147357063
 30
0.0
 40
0.0623347465695688
 50
47.7923537929121309
 51
64.3715869448555935
  0
ARC
  5
22E8A
  8
0
 10
4677.3601636699240771
 20
317.9384534477130728
 30
0.0
 40
0.048707619798233
 50
200.0686247714666877
 51
222.4084263289589956
  0
ARC
  5
22E8B
  8
0
 10
4684.4961295459752364
 20
324.6203148769561153
 30
0.0
 40
9.8548346456212155
 50
226.1029218017943094
 51
226.7876121349459879
  0
ARC
  5
22E8C
  8
0
 10
4682.875012478237295
 20
322.805256533265208
 30
0.0
 40
7.4213600816096337
 50
227.1282961176252115
 51
228.9347432423853093
  0
LINE
  5
22E8D
  8
0
 10
4678.5254508841717325
 20
316.7491412729696094
 30
0.0
 11
4678.4461821548038643
 21
316.8157024464102847
 31
0.0
  0
LINE
  5
22E8E
  8
0
 10
4678.3937692638082808
 20
316.8808228933336864
 30
0.0
 11
4678.0778982638521484
 21
317.1420749034248274
 31
0.0
  0
LINE
  5
22E8F
  8
0
 10
4678.1943420073521338
 20
317.0255228760665887
 30
0.0
 11
4678.206491333361555
 21
317.0357175680003934
 31
0.0
  0
LINE
  5
22E90
  8
0
 10
4678.1174042576640204
 20
317.0952829825499748
 30
0.0
 11
4678.1243971547446563
 21
317.103616391201399
 31
0.0
  0
LINE
  5
22E91
  8
0
 10
4678.1789401334017384
 20
317.0257065789343187
 30
0.0
 11
4678.11864367526141
 21
317.0788276117208966
 31
0.0
  0
LINE
  5
22E92
  8
0
 10
4678.0775267095277741
 20
317.1416421399136993
 30
0.0
 11
4678.090070597228987
 21
317.1521677115136981
 31
0.0
  0
LINE
  5
22E93
  8
0
 10
4677.999804491228133
 20
317.2098671280136273
 30
0.0
 11
4678.00956806042268
 21
317.2219936647035183
 31
0.0
  0
LINE
  5
22E94
  8
0
 10
4677.8789833695609559
 20
317.3004090210931736
 30
0.0
 11
4677.8887170649331892
 21
317.308580854987099
 31
0.0
  0
LINE
  5
22E95
  8
0
 10
4677.8186388619878926
 20
317.3602707493265029
 30
0.0
 11
4677.8294031592122337
 21
317.3693013944874224
 31
0.0
  0
LINE
  5
22E96
  8
0
 10
4677.7432088679288427
 20
317.4315897059137228
 30
0.0
 11
4677.7515820579519641
 21
317.4416307350118132
 31
0.0
  0
LINE
  5
22E97
  8
0
 10
4677.7717319205230524
 20
317.4456803129601781
 30
0.0
 11
4677.7845831422482661
 21
317.4564559790924818
 31
0.0
  0
LINE
  5
22E98
  8
0
 10
4677.6972546641291046
 20
317.5178926689135892
 30
0.0
 11
4677.7071991737720964
 21
317.5297440979476846
 31
0.0
  0
LINE
  5
22E99
  8
0
 10
4677.6606538217292837
 20
317.5169756429136783
 30
0.0
 11
4677.6717835490217112
 21
317.5263139660776801
 31
0.0
  0
LINE
  5
22E9A
  8
0
 10
4677.5864960725275523
 20
317.5895669945135751
 30
0.0
 11
4677.5955882655480309
 21
317.6004031920764987
 31
0.0
  0
LINE
  5
22E9B
  8
0
 10
4677.8634225860232618
 20
317.3007379481122143
 30
0.0
 11
4677.8041461677275947
 21
317.3549407498135793
 31
0.0
  0
ARC
  5
22E9C
  8
0
 10
4678.1867479300290142
 20
317.0345739719135736
 30
0.0
 40
0.0118149204999999
 50
228.6358738141896936
 51
309.9974224824410953
  0
ARC
  5
22E9D
  8
0
 10
4678.1264578347218048
 20
317.0876905356113866
 30
0.0
 40
0.0118157736945031
 50
140.0163290019249871
 51
228.5983960039245062
  0
ARC
  5
22E9E
  8
0
 10
4678.0696925576376088
 20
317.1513370462703278
 30
0.0
 40
0.0124645555521824
 50
229.6788862653170042
 51
308.9405980004091816
  0
ARC
  5
22E9F
  8
0
 10
4678.4877580496604423
 20
317.6728912085998786
 30
0.0
 40
0.6808888757905031
 50
224.4740231674379913
 51
231.2557602162547994
  0
ARC
  5
22EA0
  8
0
 10
4678.0099562458535729
 20
317.2042301149759851
 30
0.0
 40
0.011611805972389
 50
150.9576916562313897
 51
226.0508971183666915
  0
ARC
  5
22EA1
  8
0
 10
4677.1445650519381161
 20
316.1433974790361958
 30
0.0
 40
1.382605554055935
 50
46.8541570086712014
 51
51.2707425215300887
  0
ARC
  5
22EA2
  8
0
 10
4677.963352826598566
 20
317.1690530624920257
 30
0.0
 40
0.0702748546778073
 50
48.8673975522454924
 51
64.2327961985172635
  0
ARC
  5
22EA3
  8
0
 10
4678.0589944924804513
 20
317.2773509185627177
 30
0.0
 40
0.0791386915466281
 50
214.6635080160467908
 51
228.4215454535093102
  0
ARC
  5
22EA4
  8
0
 10
4678.0528524635719805
 20
317.1076975596927241
 30
0.0
 40
0.0579895152233319
 50
32.4107955606178422
 51
50.0732314564239118
  0
ARC
  5
22EA5
  8
0
 10
4678.1368364549916805
 20
317.2087268196227114
 30
0.0
 40
0.0782279900771125
 50
230.0293738015764973
 51
243.3996807265548057
  0
ARC
  5
22EA6
  8
0
 10
4677.862499527226646
 20
316.9825269564146879
 30
0.0
 40
0.2527259185594219
 50
43.432469515579669
 51
52.2703662640545303
  0
ARC
  5
22EA7
  8
0
 10
4678.2133338951553014
 20
317.3701418388442903
 30
0.0
 40
0.2715342136325017
 50
223.739102223467313
 51
231.963735647483702
  0
ARC
  5
22EA8
  8
0
 10
4678.2817101937052939
 20
316.9979058271878216
 30
0.0
 40
0.0121344649185808
 50
152.0228813604508105
 51
209.5859069436322102
  0
ARC
  5
22EA9
  8
0
 10
4678.355415940979583
 20
317.056219453386575
 30
0.0
 40
0.1059930400641977
 50
217.3504381500964087
 51
229.5430160202272987
  0
ARC
  5
22EAA
  8
0
 10
4678.7412300155356206
 20
317.4675281304827763
 30
0.0
 40
0.6698322823763995
 50
227.2607314038232005
 51
231.8669560364184861
  0
ARC
  5
22EAB
  8
0
 10
4678.3692285217757671
 20
316.9930130769913035
 30
0.0
 40
0.0668828246460174
 50
231.5246801642250034
 51
240.0627638431531068
  0
ARC
  5
22EAC
  8
0
 10
4678.3422458967443163
 20
316.9470673546124999
 30
0.0
 40
0.0136093599137647
 50
241.9708640938391113
 51
265.1046088476364844
  0
ARC
  5
22EAD
  8
0
 10
4678.1786245738248908
 20
316.8199282545518827
 30
0.0
 40
0.1910531239175132
 50
43.1837356116465116
 51
54.8998928816346492
  0
ARC
  5
22EAE
  8
0
 10
4678.4259477194773353
 20
317.1048691779593014
 30
0.0
 40
0.188262945573332
 50
223.0983061656997961
 51
234.9887081384908072
  0
ARC
  5
22EAF
  8
0
 10
4678.4537830320068679
 20
316.8247481408574231
 30
0.0
 40
0.0118151564649483
 50
148.6535002342793064
 51
229.9604805792949094
  0
ARC
  5
22EB0
  8
0
 10
4677.5959828810564431
 20
317.5817901227475204
 30
0.0
 40
0.0122669992462176
 50
140.6565948794444125
 51
218.4904807963152109
  0
ARC
  5
22EB1
  8
0
 10
4678.0234944112871744
 20
317.9630663162731139
 30
0.0
 40
0.585080827671169
 50
221.6603313314589911
 51
229.5986694160341131
  0
ARC
  5
22EB2
  8
0
 10
4677.6527842684763527
 20
317.5268787359549947
 30
0.0
 40
0.012649154919155
 50
227.7630900929619884
 51
308.4726239194300774
  0
ARC
  5
22EB3
  8
0
 10
4677.7637496005381763
 20
317.4553551844709887
 30
0.0
 40
0.0125427497423885
 50
232.4918339908658993
 51
309.5245727708615959
  0
ARC
  5
22EB4
  8
0
 10
4677.9833877393548391
 20
317.7415087258498829
 30
0.0
 40
0.3732708485459757
 50
220.2816587429940114
 51
232.4918339908658993
  0
ARC
  5
22EB5
  8
0
 10
4677.713205357703373
 20
317.5125260564699943
 30
0.0
 40
0.0191076344332416
 50
194.2615769438662028
 51
220.2816587429965125
  0
ARC
  5
22EB6
  8
0
 10
4677.7056562904817838
 20
317.5103866600147171
 30
0.0
 40
0.0112662103199822
 50
138.2224137964533099
 51
193.1744246586806071
  0
ARC
  5
22EB7
  8
0
 10
4677.615089253205042
 20
317.3580248177011072
 30
0.0
 40
0.1623222761524876
 50
39.2201452518071321
 51
53.0187531385172903
  0
ARC
  5
22EB8
  8
0
 10
4677.839252952170682
 20
317.5911236940352183
 30
0.0
 40
0.163415809921846
 50
219.2665356894300999
 51
232.972365262217096
  0
ARC
  5
22EB9
  8
0
 10
4677.7699932329132935
 20
317.3302870069246069
 30
0.0
 40
0.1193191861874635
 50
37.2219830863531982
 51
56.0295811251160814
  0
ARC
  5
22EBA
  8
0
 10
4677.9305327831998511
 20
317.5002059162525256
 30
0.0
 40
0.1176740449517442
 50
217.0892944091714014
 51
236.162269802315592
  0
ARC
  5
22EBB
  8
0
 10
4677.8882217020527605
 20
317.3995873236668785
 30
0.0
 40
0.0148933384415105
 50
236.0136400493591111
 51
276.1332553011963
  0
ARC
  5
22EBC
  8
0
 10
4677.9879218812757244
 20
317.5474748489642138
 30
0.0
 40
0.1932492911763444
 50
224.3429091638107877
 51
236.0136400493591111
  0
ARC
  5
22EBD
  8
0
 10
4678.7020633841157178
 20
318.2454212548207124
 30
0.0
 40
1.1918118938839299
 50
222.4008144251413057
 51
224.3429091638107877
  0
ARC
  5
22EBE
  8
0
 10
4677.8323861955386747
 20
317.4512741847045731
 30
0.0
 40
0.014098863767029
 50
162.0522436939698139
 51
222.4008144251413057
  0
ARC
  5
22EBF
  8
0
 10
4677.8109990458551692
 20
317.3693574462607785
 30
0.0
 40
0.0118604901510005
 50
249.0415547255099966
 51
310.1365971372367767
  0
ARC
  5
22EC0
  8
0
 10
4677.8130368394940888
 20
317.3746776099700924
 30
0.0
 40
0.0175575722824874
 50
223.7649166024245062
 51
249.0415547255099966
  0
ARC
  5
22EC1
  8
0
 10
4678.3801162346298952
 20
318.0349560318190925
 30
0.0
 40
0.8878476386142693
 50
224.2565799338840975
 51
229.2322802638296082
  0
ARC
  5
22EC2
  8
0
 10
4677.7522287231704468
 20
317.4240009134992988
 30
0.0
 40
0.0117876019142667
 50
139.9246542200826013
 51
227.2043602707543073
  0
ARC
  5
22EC3
  8
0
 10
4677.8713907428164021
 20
317.3094562176385125
 30
0.0
 40
0.0118110010672692
 50
227.5739111311804947
 51
310.0041897789890868
  0
ARC
  5
22EC4
  8
0
 10
4677.8121146265921197
 20
317.3636592881912861
 30
0.0
 40
0.0118114033079876
 50
185.4717225454432992
 51
227.5737093571399896
  0
ARC
  5
22EC5
  8
0
 10
4677.5208058340003845
 20
317.1170432037782803
 30
0.0
 40
0.371088134899746
 50
44.0598885612928513
 51
50.0841897862200298
  0
ARC
  5
22EC6
  8
0
 10
4678.0225369957215662
 20
317.6564421460146264
 30
0.0
 40
0.3666153354438539
 50
224.0231061473216982
 51
230.120976294797714
  0
ARC
  5
22EC7
  8
0
 10
4676.274538429707718
 20
315.774409910514521
 30
0.0
 40
2.2273938072788879
 50
45.7280720561102214
 51
48.4602389440053614
  0
ARC
  5
22EC8
  8
0
 10
4677.6158585691746339
 20
317.2883781824506855
 30
0.0
 40
0.2047125063895911
 50
48.4602389440053614
 51
53.5938984765305406
  0
ARC
  5
22EC9
  8
0
 10
4677.8444709674449768
 20
317.5409281858343888
 30
0.0
 40
0.1384948156789691
 50
219.3380463646543888
 51
226.9693976609399044
  0
ARC
  5
22ECA
  8
0
 10
4677.7689341523628173
 20
317.3004617615036977
 30
0.0
 40
0.0916263984597831
 50
37.4782967389888668
 51
48.703867801926279
  0
ARC
  5
22ECB
  8
0
 10
4677.9185009280899976
 20
317.4656242829859139
 30
0.0
 40
0.1337061369468855
 50
227.0957535394501861
 51
234.9147625576378005
  0
ARC
  5
22ECC
  8
0
 10
4677.4562954191551398
 20
317.381539186665691
 30
0.0
 40
0.2297740594088471
 50
40.9320185234649472
 51
50.6681249310942405
  0
ARC
  5
22ECD
  8
0
 10
4677.7754764588216858
 20
317.7097610745718725
 30
0.0
 40
0.2297114993600098
 50
220.9306895482577033
 51
230.6694539062982869
  0
ARC
  5
22ECE
  8
0
 10
4676.6841532144226221
 20
316.5868345392146921
 30
0.0
 40
1.363097673126995
 50
43.5687036399876604
 51
48.0370538165419134
  0
ARC
  5
22ECF
  8
0
 10
4677.5130249100093351
 20
317.5085879033637184
 30
0.0
 40
0.1234777507053416
 50
48.0370538165419134
 51
56.4399093325723911
  0
ARC
  5
22ED0
  8
0
 10
4677.6444275491630833
 20
317.6513470034357738
 30
0.0
 40
0.0746523663990323
 50
212.26355941256449
 51
226.3966225565264097
  0
ARC
  5
22ED1
  8
0
 10
4677.6116869781471905
 20
317.4655446853760168
 30
0.0
 40
0.0854663870060847
 50
33.2878954321534124
 51
45.3189299632057114
  0
ARC
  5
22ED2
  8
0
 10
4677.7367059670414164
 20
317.5964726678025727
 30
0.0
 40
0.0996479951890261
 50
226.9242260381030007
 51
237.4762630339145915
  0
ARC
  5
22ED3
  8
0
 10
4677.6661948491100702
 20
317.4795465514088733
 30
0.0
 40
0.0648162657661158
 50
50.7560169618699035
 51
67.1006781972896817
  0
ARC
  5
22ED4
  8
0
 10
4677.7305533005710458
 20
317.5551612192248854
 30
0.0
 40
0.0422465441697339
 50
202.1181464316838117
 51
227.8940050442716938
  0
ARC
  5
22ED5
  8
0
 10
4677.264129633182165
 20
316.9844143293282173
 30
0.0
 40
0.7026344527640469
 50
42.2074438448370088
 51
50.9068306361321277
  0
ARC
  5
22ED6
  8
0
 10
4677.7384108636915698
 20
317.4145782842804238
 30
0.0
 40
0.0623347465695688
 50
25.6284130551606317
 51
42.207646207090292
  0
ARC
  5
22ED7
  8
0
 10
4677.8113267966691637
 20
317.4872903209687252
 30
0.0
 40
0.048707619798233
 50
227.5915736710472004
 51
249.9313752285295891
  0
LINE
  5
22ED8
  8
0
 10
4687.3036038900891072
 20
320.8197619289732074
 30
0.0
 11
4687.3846939577697412
 21
320.8197619289732074
 31
0.0
  0
LINE
  5
22ED9
  8
0
 10
4686.7996939577697049
 20
321.3297619289731983
 30
0.0
 11
4686.8201939107693761
 21
321.3297619289731983
 31
0.0
  0
ARC
  5
22EDA
  8
0
 10
4686.9296939579689933
 20
320.6227078334936778
 30
0.0
 40
0.715482881885492
 50
81.1966532764287479
 51
98.8033467235712521
  0
LINE
  5
22EDB
  8
0
 10
4687.0391940051686106
 20
321.3297619289731983
 30
0.0
 11
4687.0556339465692872
 21
321.3297734915732917
 31
0.0
  0
ARC
  5
22EDC
  8
0
 10
4687.0556339465692872
 20
321.2397619289732233
 30
0.0
 40
0.0899999999999963
 50
16.00001070385294
 51
90.0
  0
LINE
  5
22EDD
  8
0
 10
4687.1421474946046146
 20
321.2645693070323887
 30
0.0
 11
4687.2603471156653541
 21
320.8523582412889823
 31
0.0
  0
ARC
  5
22EDE
  8
0
 10
4687.3036038901063876
 20
320.8647619290223929
 30
0.0
 40
0.0450000000491553
 50
196.0000089032953099
 51
269.9999999790517222
  0
ARC
  5
22EDF
  8
0
 10
4687.3846939577697412
 20
320.8647619289732233
 30
0.0
 40
0.045
 50
270.0
 51
0.0000000000065138
  0
ARC
  5
22EE0
  8
0
 10
4686.7996939577697049
 20
321.3897619289732006
 30
0.0
 40
0.06
 50
180.0000000000032117
 51
270.0
  0
LINE
  5
22EE1
  8
0
 10
4687.1421474946046146
 20
322.6149545509139784
 30
0.0
 11
4687.1421474946046146
 21
321.2645693070323887
 31
0.0
  0
ENDSEC
  0
EOF
