  0
SECTION
  2
HEADER
  9
$ACADVER
  1
AC1009
  9
$INSBASE
 10
4688.4598288674496871
 20
322.822170308068678
 30
0.0
  9
$EXTMIN
 10
4686.2859192898731635
 20
311.6305885755687086
 30
0.0
  9
$EXTMAX
 10
4690.6337384450253012
 20
322.8272544995490989
 30
0.0
  9
$LIMMIN
 10
0.0
 20
0.0
  9
$LIMMAX
 10
11.6929133858000007
 20
8.2677165353999982
  9
$ORTHOMODE
 70
     0
  9
$REGENMODE
 70
     1
  9
$FILLMODE
 70
     1
  9
$QTEXTMODE
 70
     0
  9
$MIRRTEXT
 70
     0
  9
$DRAGMODE
 70
     2
  9
$LTSCALE
 40
0.6431102362
  9
$OSMODE
 70
  4095
  9
$ATTMODE
 70
     1
  9
$TEXTSIZE
 40
0.2
  9
$TRACEWID
 40
0.05
  9
$TEXTSTYLE
  7
STANDARD
  9
$CLAYER
  8
0
  9
$CELTYPE
  6
BYLAYER
  9
$CECOLOR
 62
   256
  9
$DIMSCALE
 40
1.0
  9
$DIMASZ
 40
0.1875
  9
$DIMEXO
 40
0.0625
  9
$DIMDLI
 40
0.4443307087
  9
$DIMRND
 40
0.0
  9
$DIMDLE
 40
0.0
  9
$DIMEXE
 40
0.125
  9
$DIMTP
 40
0.01
  9
$DIMTM
 40
0.01
  9
$DIMTXT
 40
2.0
  9
$DIMCEN
 40
0.1052362205
  9
$DIMTSZ
 40
0.0
  9
$DIMTOL
 70
     1
  9
$DIMLIM
 70
     0
  9
$DIMTIH
 70
     1
  9
$DIMTOH
 70
     1
  9
$DIMSE1
 70
     0
  9
$DIMSE2
 70
     0
  9
$DIMTAD
 70
     0
  9
$DIMZIN
 70
     0
  9
$DIMBLK
  1

  9
$DIMASO
 70
     1
  9
$DIMSHO
 70
     1
  9
$DIMPOST
  1
\X
  9
$DIMAPOST
  1

  9
$DIMALT
 70
     1
  9
$DIMALTD
 70
     2
  9
$DIMALTF
 40
25.3999999999999986
  9
$DIMLFAC
 40
1.0
  9
$DIMTOFL
 70
     0
  9
$DIMTVP
 40
0.0
  9
$DIMTIX
 70
     0
  9
$DIMSOXD
 70
     0
  9
$DIMSAH
 70
     0
  9
$DIMBLK1
  1

  9
$DIMBLK2
  1

  9
$DIMSTYLE
  2
STANDARD
  9
$DIMCLRD
 70
     0
  9
$DIMCLRE
 70
     0
  9
$DIMCLRT
 70
     0
  9
$DIMTFAC
 40
1.0
  9
$DIMGAP
 40
0.09
  9
$LUNITS
 70
     2
  9
$LUPREC
 70
     4
  9
$SKETCHINC
 40
0.1
  9
$FILLETRAD
 40
0.0
  9
$AUNITS
 70
     0
  9
$AUPREC
 70
     0
  9
$MENU
  1
.
  9
$ELEVATION
 40
0.0
  9
$PELEVATION
 40
0.0
  9
$THICKNESS
 40
0.0
  9
$LIMCHECK
 70
     0
  9
$BLIPMODE
 70
     0
  9
$CHAMFERA
 40
0.0
  9
$CHAMFERB
 40
0.0
  9
$SKPOLY
 70
     0
  9
$TDCREATE
 40
2458060.468368056230247
  9
$TDUPDATE
 40
2459578.4738541669212282
  9
$TDINDWG
 40
0.6571019675999999
  9
$TDUSRTIMER
 40
0.6571019675999999
  9
$USRTIMER
 70
     1
  9
$ANGBASE
 50
0.0
  9
$ANGDIR
 70
     0
  9
$PDMODE
 70
     0
  9
$PDSIZE
 40
0.3125
  9
$PLINEWID
 40
0.0
  9
$COORDS
 70
     1
  9
$SPLFRAME
 70
     0
  9
$SPLINETYPE
 70
     6
  9
$SPLINESEGS
 70
     8
  9
$ATTDIA
 70
     1
  9
$ATTREQ
 70
     1
  9
$HANDLING
 70
     1
  9
$HANDSEED
  5
22FD5
  9
$SURFTAB1
 70
     6
  9
$SURFTAB2
 70
     6
  9
$SURFTYPE
 70
     6
  9
$SURFU
 70
     6
  9
$SURFV
 70
     6
  9
$UCSNAME
  2

  9
$UCSORG
 10
0.0
 20
0.0
 30
0.0
  9
$UCSXDIR
 10
1.0
 20
0.0
 30
0.0
  9
$UCSYDIR
 10
0.0
 20
1.0
 30
0.0
  9
$PUCSNAME
  2

  9
$PUCSORG
 10
0.0
 20
0.0
 30
0.0
  9
$PUCSXDIR
 10
1.0
 20
0.0
 30
0.0
  9
$PUCSYDIR
 10
0.0
 20
1.0
 30
0.0
  9
$USERI1
 70
     0
  9
$USERI2
 70
     0
  9
$USERI3
 70
     0
  9
$USERI4
 70
     0
  9
$USERI5
 70
     0
  9
$USERR1
 40
0.0
  9
$USERR2
 40
0.0
  9
$USERR3
 40
0.0
  9
$USERR4
 40
0.0
  9
$USERR5
 40
0.0
  9
$WORLDVIEW
 70
     1
  9
$SHADEDGE
 70
     3
  9
$SHADEDIF
 70
    70
  9
$TILEMODE
 70
     1
  9
$MAXACTVP
 70
    64
  9
$PLIMCHECK
 70
     0
  9
$PEXTMIN
 10
1.0000000000000000E+20
 20
1.0000000000000000E+20
 30
1.0000000000000000E+20
  9
$PEXTMAX
 10
-1.0000000000000000E+20
 20
-1.0000000000000000E+20
 30
-1.0000000000000000E+20
  9
$PLIMMIN
 10
0.0
 20
0.0
  9
$PLIMMAX
 10
12.0
 20
9.0
  9
$UNITMODE
 70
     0
  9
$VISRETAIN
 70
     1
  9
$PLINEGEN
 70
     0
  9
$PSLTSCALE
 70
     1
  0
ENDSEC
  0
SECTION
  2
TABLES
  0
TABLE
  2
VPORT
 70
     1
  0
VPORT
  2
*ACTIVE
 70
     0
 10
0.0
 20
0.0
 11
1.0
 21
1.0
 12
777.0944724221367323
 22
184.6493164350198128
 13
0.0
 23
0.0
 14
1.0
 24
1.0
 15
0.0
 25
0.0
 16
0.0
 26
0.0
 36
60.4960186965801583
 17
3911.3653564453120453
 27
132.5796051025390057
 37
0.0
 40
11.2854109643290599
 41
2.0410052910052912
 42
50.0
 43
0.0
 44
0.0
 50
0.0
 51
0.0
 71
     0
 72
   100
 73
     1
 74
     1
 75
     0
 76
     0
 77
     0
 78
     0
  0
ENDTAB
  0
TABLE
  2
LTYPE
 70
     2
  0
LTYPE
  2
CONTINUOUS
 70
     0
  3
Solid line
 72
    65
 73
     0
 40
0.0
  0
LTYPE
  2
PHANTOM2
 70
     0
  3
___ _ _ ___ _ _ ___ _ _ ___ _ _
 72
    65
 73
     6
 40
1.25
 49
0.625
 49
-0.125
 49
0.125
 49
-0.125
 49
0.125
 49
-0.125
  0
ENDTAB
  0
TABLE
  2
LAYER
 70
     2
  0
LAYER
  2
0
 70
     0
 62
   255
  6
CONTINUOUS
  0
LAYER
  2
DEFPOINTS
 70
     0
 62
     7
  6
CONTINUOUS
  0
ENDTAB
  0
TABLE
  2
STYLE
 70
     1
  0
STYLE
  2
STANDARD
 70
     0
 40
0.0
 41
0.8
 50
0.0
 71
     0
 42
0.2
  3
txt
  4

  0
ENDTAB
  0
TABLE
  2
VIEW
 70
     0
  0
ENDTAB
  0
TABLE
  2
UCS
 70
     0
  0
ENDTAB
  0
TABLE
  2
APPID
 70
    11
  0
APPID
  2
ACAD
 70
     0
  0
APPID
  2
ACAD_MLEADERVER
 70
     0
  0
APPID
  2
ACAD_EXEMPT_FROM_CAD_STANDARDS
 70
     0
  0
APPID
  2
ACAD_NAV_VCDISPLAY
 70
     0
  0
APPID
  2
ACAECLAYERSTANDARD
 70
     0
  0
APPID
  2
ACCMTRANSPARENCY
 70
     0
  0
APPID
  2
ACAD_DSTYLE_DIMJAG
 70
     0
  0
APPID
  2
ACAD_DSTYLE_DIMTALN
 70
     0
  0
APPID
  2
ACDBATTR
 70
     0
  0
APPID
  2
ACADANNOTATIVE
 70
     0
  0
APPID
  2
DCO15
 70
     0
  0
ENDTAB
  0
TABLE
  2
DIMSTYLE
 70
     1
  0
DIMSTYLE
  2
STANDARD
 70
     0
  3

  4

  5

  6

  7

 40
1.0
 41
0.1875
 42
0.0625
 43
0.38
 44
0.125
 45
0.0
 46
0.0
 47
0.01
 48
0.01
140
0.15625
141
0.09
142
0.0
143
25.3999999999999986
144
1.0
145
0.0
146
1.0
147
0.09
 71
     1
 72
     0
 73
     1
 74
     1
 75
     0
 76
     0
 77
     0
 78
     4
170
     0
171
     2
172
     0
173
     0
174
     0
175
     0
176
     0
177
     0
178
     0
  0
ENDTAB
  0
ENDSEC
  0
SECTION
  2
BLOCKS
  0
BLOCK
  8
0
  2
$MODEL_SPACE
 70
     0
 10
0.0
 20
0.0
 30
0.0
  3
$MODEL_SPACE
  1

  0
ENDBLK
  5
21
  8
0
  0
BLOCK
 67
     1
  8
0
  2
$PAPER_SPACE
 70
     0
 10
0.0
 20
0.0
 30
0.0
  3
$PAPER_SPACE
  1

  0
ENDBLK
  5
1D
 67
     1
  8
0
  0
ENDSEC
  0
SECTION
  2
ENTITIES
  0
ATTDEF
  5
211C4
  8
DEFPOINTS
 10
4688.4560373312342563
 20
322.8262544995491794
 30
0.0
 40
0.001
  1
P25040-00
  3

  2
MODELNUMBER
 70
     0
1001
ACDBATTR
1070
     0
1070
     1
  0
ATTDEF
  5
211C5
  8
DEFPOINTS
 10
4688.4560373312342563
 20
322.8245876591699925
 30
0.0
 40
0.001
  1
SCRIPT
  3

  2
TRADENAME
 70
     0
1001
ACDBATTR
1070
     0
1070
     1
  0
ATTDEF
  5
211C6
  8
DEFPOINTS
 10
4688.4560373312342563
 20
322.8229211662159059
 30
0.0
 40
0.001
  1
SHOWERHEAD
  3

  2
PRODUCT
 70
     0
1001
ACDBATTR
1070
     0
1070
     1
  0
LINE
  5
22EC3
  8
0
 10
4687.384828867449869
 20
322.822170308068678
 30
0.0
 11
4689.5348288674504147
 21
322.822170308068678
 31
0.0
  0
LINE
  5
22EC4
  8
0
 10
4687.9098288674485957
 20
322.1321703080686802
 30
0.0
 11
4689.009828867449869
 21
322.1321703080686802
 31
0.0
  0
LINE
  5
22EC5
  8
0
 10
4689.547232555147275
 20
322.6528234659687087
 30
0.0
 11
4687.3724251797511897
 21
322.6528234659687087
 31
0.0
  0
LINE
  5
22EC6
  8
0
 10
4687.3398288674488867
 20
322.6960802403893922
 30
0.0
 11
4687.3398288674488867
 21
322.7771703080687189
 31
0.0
  0
LINE
  5
22EC7
  8
0
 10
4687.8498288674500145
 20
322.1921703080686825
 30
0.0
 11
4687.849840430048971
 21
322.4481102968687196
 31
0.0
  0
ARC
  5
22EC8
  8
0
 10
4687.7598117150491817
 20
322.4480853399780926
 30
0.0
 40
0.0900287184600145
 50
0.0158829820756099
 51
73.9938740385991593
  0
LINE
  5
22EC9
  8
0
 10
4687.7846362455093185
 20
322.5346238449050134
 30
0.0
 11
4687.3724251797648321
 21
322.6528234659647865
 31
0.0
  0
ARC
  5
22ECA
  8
0
 10
4687.3848288674989817
 20
322.6960802404058199
 30
0.0
 40
0.0450000000491553
 50
180.0000000209352891
 51
253.9999910966884897
  0
ARC
  5
22ECB
  8
0
 10
4687.384828867449869
 20
322.7771703080687189
 30
0.0
 40
0.045
 50
90.0
 51
180.0000000000032117
  0
ARC
  5
22ECC
  8
0
 10
4687.9098288674485957
 20
322.1921703080686825
 30
0.0
 40
0.06
 50
180.0000000000065086
 51
270.0
  0
LINE
  5
22ECD
  8
0
 10
4689.579828867449578
 20
322.6960802403893922
 30
0.0
 11
4689.579828867449578
 21
322.7771703080687189
 31
0.0
  0
LINE
  5
22ECE
  8
0
 10
4689.0698288674493597
 20
322.1921703080686825
 30
0.0
 11
4689.0698173048504032
 21
322.4481102968687196
 31
0.0
  0
ARC
  5
22ECF
  8
0
 10
4689.1598460198501925
 20
322.4480853399780926
 30
0.0
 40
0.0900287184600156
 50
106.006125961400798
 51
179.9841170179244045
  0
LINE
  5
22ED0
  8
0
 10
4689.1350214893900556
 20
322.5346238449050134
 30
0.0
 11
4689.5472325551336326
 21
322.6528234659647865
 31
0.0
  0
ARC
  5
22ED1
  8
0
 10
4689.5348288674003925
 20
322.6960802404058199
 30
0.0
 40
0.0450000000491553
 50
286.0000089033114818
 51
359.9999999790646825
  0
ARC
  5
22ED2
  8
0
 10
4689.5348288674504147
 20
322.7771703080687189
 30
0.0
 40
0.045
 50
359.9999999999968168
 51
90.0
  0
ARC
  5
22ED3
  8
0
 10
4689.009828867449869
 20
322.1921703080686825
 30
0.0
 40
0.06
 50
270.0
 51
359.9999999999935199
  0
LINE
  5
22ED4
  8
0
 10
4687.7846362455093185
 20
322.5346238449050134
 30
0.0
 11
4689.1350214893900556
 21
322.5346238449050134
 31
0.0
  0
LINE
  5
22ED5
  8
0
 10
4688.0548288674490323
 20
315.5900846785792169
 30
0.0
 11
4688.0548288674490323
 21
322.1321703080686802
 31
0.0
  0
ARC
  5
22ED6
  8
0
 10
4688.2587686962606313
 20
315.676603391380695
 30
0.0
 40
0.2940184270589645
 50
133.9635496904529077
 51
178.6751507584961871
  0
ARC
  5
22ED7
  8
0
 10
4688.3107810066157981
 20
315.7149366875540863
 30
0.0
 40
0.3473864691695793
 50
185.2084112266439035
 51
249.4734188359398104
  0
ARC
  5
22ED8
  8
0
 10
4688.4626295358802963
 20
316.0118374868936826
 30
0.0
 40
0.6797500697158267
 50
246.2601580637087864
 51
269.7639324480323921
  0
ARC
  5
22ED9
  8
0
 10
4688.2347359380883063
 20
315.6840094439958193
 30
0.0
 40
0.2049812248521231
 50
151.4307756781651051
 51
187.0215102095988016
  0
ARC
  5
22EDA
  8
0
 10
4688.3372822175715555
 20
315.725074719114275
 30
0.0
 40
0.3130530402969031
 50
192.1937668221370927
 51
251.9321563328234106
  0
ARC
  5
22EDB
  8
0
 10
4688.4564363896588475
 20
315.9595259217302896
 30
0.0
 40
0.574332624521931
 50
247.8819652490334988
 51
270.3384376605094985
  0
CIRCLE
  5
22EDC
  8
0
 10
4688.4598288674496871
 20
322.3221703080687917
 30
0.0
 40
0.0700000000000003
  0
ARC
  5
22EDD
  8
0
 10
4688.4686103327603632
 20
322.32217030826871
 30
0.0
 40
0.1098516020356692
 50
94.585079397109169
 51
265.4149206028907884
  0
ARC
  5
22EDE
  8
0
 10
4688.4510474021381015
 20
322.32217030826871
 30
0.0
 40
0.1098516020356692
 50
274.585079397109098
 51
85.414920602890831
  0
LINE
  5
22EDF
  8
0
 10
4688.0048288674497599
 20
314.9940277484597004
 30
0.0
 11
4688.0048288674497599
 21
315.4379704836144924
 31
0.0
  0
LINE
  5
22EE0
  8
0
 10
4687.7356162690493875
 20
314.5033071174686938
 30
0.0
 11
4687.7356162690493875
 21
315.0658566670687151
 31
0.0
  0
LINE
  5
22EE1
  8
0
 10
4687.6848288674500509
 20
314.2497962466318882
 30
0.0
 11
4687.6848288674500509
 21
314.6788802762702062
 31
0.0
  0
ARC
  5
22EE2
  8
0
 10
4688.451563695157347
 20
314.7103193094731068
 30
0.0
 40
1.0091777170802929
 50
243.7255031501580049
 51
270.4692580657545022
  0
ARC
  5
22EE3
  8
0
 10
4688.292925638228553
 20
314.3889795757137904
 30
0.0
 40
0.6508130179283528
 50
211.0932493402852117
 51
243.7255031501580049
  0
ARC
  5
22EE4
  8
0
 10
4688.0398413671837261
 20
314.2363500495238213
 30
0.0
 40
0.3552670477046102
 50
177.8309432254824003
 51
211.0932493402852117
  0
ARC
  5
22EE5
  8
0
 10
4688.2677833954376183
 20
314.9827535802082821
 30
0.0
 40
0.6015349248463161
 50
207.7875852885669872
 51
244.0785037839912093
  0
ARC
  5
22EE6
  8
0
 10
4688.4513719322840188
 20
315.3282151528193253
 30
0.0
 40
0.9925948925117859
 50
243.2643719880618107
 51
270.4881674877390196
  0
ARC
  5
22EE7
  8
0
 10
4688.2284034269359836
 20
314.8725535653130123
 30
0.0
 40
0.2847118093721041
 50
141.7453048380550058
 51
179.1871659901069904
  0
ARC
  5
22EE8
  8
0
 10
4688.2011611783746048
 20
314.8729400669362803
 30
0.0
 40
0.2574668191864892
 50
179.1871659901069904
 51
213.5596435609305956
  0
ARC
  5
22EE9
  8
0
 10
4688.3444744031448863
 20
314.9680117119784768
 30
0.0
 40
0.4294473357716737
 50
213.5596435609305956
 51
239.0527373270116982
  0
ARC
  5
22EEA
  8
0
 10
4688.4521181929021623
 20
315.1680697354565268
 30
0.0
 40
0.6564659363579775
 50
239.9744349996379071
 51
270.6729964851239743
  0
ARC
  5
22EEB
  8
0
 10
4688.2870282609374044
 20
314.7415286332707183
 30
0.0
 40
0.639721703794133
 50
116.1832838120728013
 51
149.5369224368747894
  0
ARC
  5
22EEC
  8
0
 10
4688.1070706195396269
 20
314.7058884724069117
 30
0.0
 40
0.4231046441089281
 50
183.4923025509523882
 51
208.606880238790211
  0
ARC
  5
22EED
  8
0
 10
4688.1045844465861592
 20
314.3333617441933256
 30
0.0
 40
0.4202551014149747
 50
182.7938403870439004
 51
216.3738985705726918
  0
ARC
  5
22EEE
  8
0
 10
4688.3042776601459991
 20
314.4721544411253262
 30
0.0
 40
0.6633858143129029
 50
215.7971531115331913
 51
247.9124017188848939
  0
ARC
  5
22EEF
  8
0
 10
4688.454210323143343
 20
314.7979454838321089
 30
0.0
 40
1.0217773092496629
 50
246.9913948846522942
 51
270.315059353125605
  0
ARC
  5
22EF0
  8
0
 10
4688.0986572295569204
 20
314.6943090886192067
 30
0.0
 40
0.4141158793567395
 50
151.2426626253254085
 51
182.1351764502555
  0
ARC
  5
22EF1
  8
0
 10
4688.4640826033109988
 20
315.6387940640310035
 30
0.0
 40
0.5012425603974054
 50
174.8942964069869959
 51
203.6189127989468091
  0
ARC
  5
22EF2
  8
0
 10
4688.4593412995109247
 20
315.2743544048232138
 30
0.0
 40
0.5340080384844621
 50
211.6647684942745968
 51
234.8917521284627981
  0
ARC
  5
22EF3
  8
0
 10
4688.4548280324343068
 20
315.3104475360129868
 30
0.0
 40
0.5614715641738457
 50
237.3875744426796928
 51
270.5103206415441264
  0
ARC
  5
22EF4
  8
0
 10
4688.2360975177571163
 20
314.8474831747456051
 30
0.0
 40
0.2464602908774652
 50
186.8449402770243069
 51
213.8937542177040996
  0
ARC
  5
22EF5
  8
0
 10
4688.3488334084386224
 20
314.923220712256807
 30
0.0
 40
0.3822747070343226
 50
213.8937542177040996
 51
249.0788722288893098
  0
ARC
  5
22EF6
  8
0
 10
4688.4563140782693154
 20
315.1448290092999969
 30
0.0
 40
0.6280125039759091
 50
247.1386636536676917
 51
270.3206681968648013
  0
ARC
  5
22EF7
  8
0
 10
4688.282901080564443
 20
314.6347682404149282
 30
0.0
 40
0.3568648797204497
 50
144.7923066132024132
 51
147.4544842364688009
  0
ARC
  5
22EF8
  8
0
 10
4688.2489625953958239
 20
314.8092736817512218
 30
0.0
 40
0.2595315199823797
 50
146.3912377469162891
 51
173.0860199551210883
  0
ARC
  5
22EF9
  8
0
 10
4688.223237095319746
 20
314.8468740931136836
 30
0.0
 40
0.2635610464803397
 50
186.4508288588770881
 51
206.3081974612688043
  0
ARC
  5
22EFA
  8
0
 10
4687.9709244648202002
 20
314.8164535069420253
 30
0.0
 40
0.0096138467303401
 50
115.0037098691222042
 51
175.1706499542069935
  0
ARC
  5
22EFB
  8
0
 10
4687.9764854830746117
 20
314.8065703192318097
 30
0.0
 40
0.0209390693729569
 50
74.5151470867382244
 51
117.3642980945191994
  0
ARC
  5
22EFC
  8
0
 10
4687.9791652521580545
 20
314.8142656241947179
 30
0.0
 40
0.0128185192147498
 50
17.4490502975499489
 51
76.8757439143287513
  0
ARC
  5
22EFD
  8
0
 10
4687.9809111219392435
 20
314.8716479476969994
 30
0.0
 40
0.0105498134087467
 50
3.448703322715339
 51
71.3567938395752321
  0
ARC
  5
22EFE
  8
0
 10
4687.9764032834946192
 20
314.8632502134386186
 30
0.0
 40
0.0200109472556028
 50
66.8087597975129341
 51
106.8138292054176048
  0
ARC
  5
22EFF
  8
0
 10
4687.9731683228737893
 20
314.8706607654659138
 30
0.0
 40
0.0120192908180201
 50
102.2657951633228066
 51
168.1239197340867122
  0
ARC
  5
22F00
  8
0
 10
4694.4869755799863924
 20
314.8204702431983151
 30
0.0
 40
6.5257817816583907
 50
179.53760942541291
 51
179.8663489823399004
  0
ARC
  5
22F01
  8
0
 10
4687.9567003998454311
 20
314.8366076790373995
 30
0.0
 40
0.0046030289150992
 50
263.5707894643771283
 51
348.5331970480684731
  0
ARC
  5
22F02
  8
0
 10
4688.3000214505600525
 20
314.8090653481481809
 30
0.0
 40
0.3480488462637908
 50
147.9541599802157066
 51
166.1913649427339976
  0
ARC
  5
22F03
  8
0
 10
4688.2044730627239915
 20
314.832549552626574
 30
0.0
 40
0.2496567618357549
 50
166.1913649427339976
 51
182.6801503191385905
  0
ARC
  5
22F04
  8
0
 10
4688.2218896872545884
 20
314.8333648526140109
 30
0.0
 40
0.2670924586711784
 50
182.6801503191385905
 51
189.1293605681011059
  0
ARC
  5
22F05
  8
0
 10
4688.2102763746161145
 20
314.8092662959736003
 30
0.0
 40
0.255445735962697
 50
167.2867767088557116
 51
176.6387107937300982
  0
ARC
  5
22F06
  8
0
 10
4892.3549289608699837
 20
314.0622688828889864
 30
0.0
 40
204.3650924066425887
 50
179.772904038445489
 51
179.7818102224730126
  0
ARC
  5
22F07
  8
0
 10
4688.4656786764353456
 20
315.1107862969341795
 30
0.0
 40
0.4158410850407494
 50
221.066173448670213
 51
269.1939699237843229
  0
ARC
  5
22F08
  8
0
 10
4688.3111074723310594
 20
312.365186675302823
 30
0.0
 40
2.398133419039262
 50
105.1395302557469051
 51
124.4896090807512934
  0
ARC
  5
22F09
  8
0
 10
4687.8170959257513459
 20
313.0368406446204972
 30
0.0
 40
1.565029766840845
 50
123.5065821805439015
 51
159.9344921453275106
  0
ARC
  5
22F0A
  8
0
 10
4687.4476459772004091
 20
313.2018744811268789
 30
0.0
 40
1.161726687326085
 50
161.3284121297756997
 51
199.1936296395597878
  0
ARC
  5
22F0B
  8
0
 10
4687.875133751696012
 20
313.420650107225697
 30
0.0
 40
1.63870927955442
 50
201.5044284316595053
 51
238.7873226036346921
  0
ARC
  5
22F0C
  8
0
 10
4688.398405211152749
 20
314.2842426921018273
 30
0.0
 40
2.6484642859468579
 50
238.7873226036346921
 51
261.5137737754840828
  0
ARC
  5
22F0D
  8
0
 10
4688.4685195398051292
 20
314.7541613573956738
 30
0.0
 40
3.1235848717709498
 50
261.5137737754840828
 51
269.8405871747032165
  0
ARC
  5
22F0E
  8
0
 10
4688.4469909137451396
 20
314.5906495310513264
 30
0.0
 40
2.5679041172506341
 50
247.8709034086608938
 51
270.2864451301238091
  0
ARC
  5
22F0F
  8
0
 10
4688.0846067287911865
 20
313.7799034594077057
 30
0.0
 40
1.6806443627141789
 50
214.6316866490163022
 51
248.903465212106795
  0
ARC
  5
22F10
  8
0
 10
4687.5700810619982803
 20
313.3970817964006983
 30
0.0
 40
1.039969468335707
 50
180.5410858413594895
 51
213.3870326230326953
  0
ARC
  5
22F11
  8
0
 10
4687.5743985313620215
 20
313.3765654324930097
 30
0.0
 40
1.044295334071474
 50
145.7117839447579968
 51
179.4131857477244125
  0
ARC
  5
22F12
  8
0
 10
4687.9754803235109648
 20
313.0994948043202157
 30
0.0
 40
1.5317671098643371
 50
121.1570104726745001
 51
145.6007735228897104
  0
ARC
  5
22F13
  8
0
 10
4688.3133419561991104
 20
312.5754275282437789
 30
0.0
 40
2.1551186787779959
 50
106.9586908138117991
 51
121.635068246224705
  0
LINE
  5
22F14
  8
0
 10
4688.8648288674494324
 20
315.5900846785792169
 30
0.0
 11
4688.8648288674494324
 21
322.1321703080686802
 31
0.0
  0
ARC
  5
22F15
  8
0
 10
4688.6608890386369239
 20
315.676603391380695
 30
0.0
 40
0.2940184270589645
 50
1.3248492415038149
 51
46.0364503095471065
  0
ARC
  5
22F16
  8
0
 10
4688.6088767282835761
 20
315.7149366875540863
 30
0.0
 40
0.3473864691695793
 50
290.5265811640600759
 51
354.7915887733561249
  0
ARC
  5
22F17
  8
0
 10
4688.4570281990190779
 20
316.0118374868936826
 30
0.0
 40
0.6797500697158342
 50
270.2360675519674942
 51
293.7398419362912136
  0
ARC
  5
22F18
  8
0
 10
4688.6849217968101584
 20
315.6840094439958193
 30
0.0
 40
0.2049812248521231
 50
352.9784897904012269
 51
28.5692243218348985
  0
ARC
  5
22F19
  8
0
 10
4688.5823755173259997
 20
315.725074719114275
 30
0.0
 40
0.3130530402969031
 50
288.0678436671764757
 51
347.8062331778629073
  0
ARC
  5
22F1A
  8
0
 10
4688.4632213452396172
 20
315.9595259217302896
 30
0.0
 40
0.574332624521931
 50
269.6615623394905015
 51
292.1180347509665012
  0
LINE
  5
22F1B
  8
0
 10
4688.9148288674487048
 20
314.9940277484597004
 30
0.0
 11
4688.9148288674487048
 21
315.4379704836144924
 31
0.0
  0
LINE
  5
22F1C
  8
0
 10
4689.1840414658499867
 20
314.5033071174686938
 30
0.0
 11
4689.1840414658499867
 21
315.0658566670687151
 31
0.0
  0
LINE
  5
22F1D
  8
0
 10
4689.2348288674493233
 20
314.2497962466318882
 30
0.0
 11
4689.2348288674493233
 21
314.6788802762702062
 31
0.0
  0
ARC
  5
22F1E
  8
0
 10
4688.4680940397420272
 20
314.7103193094731068
 30
0.0
 40
1.0091777170802929
 50
269.5307419342454978
 51
296.2744968498419098
  0
ARC
  5
22F1F
  8
0
 10
4688.6267320966680927
 20
314.3889795757137904
 30
0.0
 40
0.6508130179283528
 50
296.2744968498419098
 51
328.906750659714703
  0
ARC
  5
22F20
  8
0
 10
4688.8798163677147386
 20
314.2363500495238213
 30
0.0
 40
0.3552670477046102
 50
328.906750659714703
 51
2.169056774517589
  0
ARC
  5
22F21
  8
0
 10
4688.6518743394617559
 20
314.9827535802082821
 30
0.0
 40
0.6015349248463161
 50
295.921496216008677
 51
332.2124147114329844
  0
ARC
  5
22F22
  8
0
 10
4688.4682858026144459
 20
315.3282151528193253
 30
0.0
 40
0.9925948925117859
 50
269.5118325122609804
 51
296.7356280119382177
  0
ARC
  5
22F23
  8
0
 10
4688.6912543079606621
 20
314.8725535653130123
 30
0.0
 40
0.2847118093721041
 50
0.8128340098930301
 51
38.25469516194498
  0
ARC
  5
22F24
  8
0
 10
4688.7184965565238599
 20
314.8729400669362803
 30
0.0
 40
0.2574668191864892
 50
326.4403564390693759
 51
0.8128340098930301
  0
ARC
  5
22F25
  8
0
 10
4688.5751833317553974
 20
314.9680117119784768
 30
0.0
 40
0.4294473357716737
 50
300.9472626729884155
 51
326.4403564390693759
  0
ARC
  5
22F26
  8
0
 10
4688.4675395419972119
 20
315.1680697354565268
 30
0.0
 40
0.6564659363579775
 50
269.3270035148760257
 51
300.0255650003620076
  0
ARC
  5
22F27
  8
0
 10
4688.6326294739610603
 20
314.7415286332707183
 30
0.0
 40
0.639721703794133
 50
30.4630775631251893
 51
63.8167161879272129
  0
ARC
  5
22F28
  8
0
 10
4688.8125871153597473
 20
314.7058884724069117
 30
0.0
 40
0.4231046441089281
 50
331.3931197612096753
 51
356.5076974490476118
  0
ARC
  5
22F29
  8
0
 10
4688.815073288313215
 20
314.3333617441933256
 30
0.0
 40
0.4202551014149747
 50
323.6261014294273082
 51
357.2061596129560144
  0
ARC
  5
22F2A
  8
0
 10
4688.6153800747533751
 20
314.4721544411253262
 30
0.0
 40
0.6633858143129029
 50
292.0875982811151061
 51
324.2028468884643075
  0
ARC
  5
22F2B
  8
0
 10
4688.4654474117560312
 20
314.7979454838321089
 30
0.0
 40
1.0217773092496629
 50
269.684940646874395
 51
293.0086051153476774
  0
ARC
  5
22F2C
  8
0
 10
4688.8210005053406348
 20
314.6943090886192067
 30
0.0
 40
0.4141158793567395
 50
357.8648235497444716
 51
28.7573373746746093
  0
ARC
  5
22F2D
  8
0
 10
4688.4555751315883754
 20
315.6387940640310035
 30
0.0
 40
0.5012425603974054
 50
336.3810872010502067
 51
5.1057035930130183
  0
ARC
  5
22F2E
  8
0
 10
4688.4603164353884495
 20
315.2743544048232138
 30
0.0
 40
0.5340080384844621
 50
305.108247871537003
 51
328.3352315057254032
  0
ARC
  5
22F2F
  8
0
 10
4688.4648297024650674
 20
315.3104475360129868
 30
0.0
 40
0.5614715641738457
 50
269.4896793584558736
 51
302.6124255573201935
  0
ARC
  5
22F30
  8
0
 10
4688.6835602171422579
 20
314.8474831747456051
 30
0.0
 40
0.2464602908774652
 50
326.1062457822959004
 51
353.1550597229755795
  0
ARC
  5
22F31
  8
0
 10
4688.5708243264598423
 20
314.923220712256807
 30
0.0
 40
0.3822747070343226
 50
290.921127771110605
 51
326.1062457822959004
  0
ARC
  5
22F32
  8
0
 10
4688.4633436566300588
 20
315.1448290092999969
 30
0.0
 40
0.6280125039759091
 50
269.679331803135085
 51
292.8613363463322798
  0
ARC
  5
22F33
  8
0
 10
4688.6367566543349312
 20
314.6347682404149282
 30
0.0
 40
0.3568648797204497
 50
32.5455157635311778
 51
35.2076933867975796
  0
ARC
  5
22F34
  8
0
 10
4688.6706951395017313
 20
314.8092736817512218
 30
0.0
 40
0.2595315199823797
 50
6.913980044878886
 51
33.6087622530836967
  0
ARC
  5
22F35
  8
0
 10
4688.6964206395787187
 20
314.8468740931136836
 30
0.0
 40
0.2635610464803397
 50
333.6918025387312241
 51
353.5491711411228266
  0
ARC
  5
22F36
  8
0
 10
4688.9487332700800835
 20
314.8164535069420253
 30
0.0
 40
0.0096138467303401
 50
4.8293500457929932
 51
64.9962901308777816
  0
ARC
  5
22F37
  8
0
 10
4688.943172251823853
 20
314.8065703192318097
 30
0.0
 40
0.0209390693729569
 50
62.6357019054808219
 51
105.484852913261804
  0
ARC
  5
22F38
  8
0
 10
4688.9404924827422292
 20
314.8142656241947179
 30
0.0
 40
0.0128185192147498
 50
103.1242560856712061
 51
162.5509497024499979
  0
ARC
  5
22F39
  8
0
 10
4688.9387466129610402
 20
314.8716479476969994
 30
0.0
 40
0.0105498134087467
 50
108.6432061604246968
 51
176.5512966772845971
  0
ARC
  5
22F3A
  8
0
 10
4688.9432544514038455
 20
314.8632502134386186
 30
0.0
 40
0.0200109472556028
 50
73.1861707945823952
 51
113.1912402024869948
  0
ARC
  5
22F3B
  8
0
 10
4688.9464894120237659
 20
314.8706607654659138
 30
0.0
 40
0.0120192908180201
 50
11.87608026591327
 51
77.7342048366771365
  0
ARC
  5
22F3C
  8
0
 10
4682.4326821549129818
 20
314.8204702431983151
 30
0.0
 40
6.5257817816583907
 50
0.1336510176600877
 51
0.4623905745870537
  0
ARC
  5
22F3D
  8
0
 10
4688.9629573350530336
 20
314.8366076790373995
 30
0.0
 40
0.0046030289150992
 50
191.4668029519314985
 51
276.4292105356228717
  0
ARC
  5
22F3E
  8
0
 10
4688.6196362843393217
 20
314.8090653481481809
 30
0.0
 40
0.3480488462637908
 50
13.8086350572660006
 51
32.0458400197842508
  0
ARC
  5
22F3F
  8
0
 10
4688.7151846721753827
 20
314.832549552626574
 30
0.0
 40
0.2496567618357549
 50
357.3198496808612958
 51
13.8086350572660006
  0
ARC
  5
22F40
  8
0
 10
4688.6977680476438763
 20
314.8333648526140109
 30
0.0
 40
0.2670924586711784
 50
350.8706394318990078
 51
357.3198496808612958
  0
ARC
  5
22F41
  8
0
 10
4688.7093813602823502
 20
314.8092662959736003
 30
0.0
 40
0.255445735962697
 50
3.361289206269888
 51
12.7132232911442298
  0
ARC
  5
22F42
  8
0
 10
4484.5647287740312095
 20
314.0622688828889864
 30
0.0
 40
204.3650924066425887
 50
0.2181897775270091
 51
0.227095961554512
  0
ARC
  5
22F43
  8
0
 10
4688.4544055059668608
 20
315.1098663304101137
 30
0.0
 40
0.4149154165429581
 50
270.7489347474223109
 51
318.9909218801175257
  0
ARC
  5
22F44
  8
0
 10
4688.6085502625683148
 20
312.365186675302823
 30
0.0
 40
2.398133419039262
 50
55.5103909192486284
 51
74.8604697442530664
  0
ARC
  5
22F45
  8
0
 10
4689.1025618091480283
 20
313.0368406446204972
 30
0.0
 40
1.565029766840845
 50
20.0655078546724503
 51
56.4934178194561127
  0
ARC
  5
22F46
  8
0
 10
4689.4720117576989651
 20
313.2018744811268789
 30
0.0
 40
1.161726687326085
 50
340.8063703604400985
 51
18.671587870224279
  0
ARC
  5
22F47
  8
0
 10
4689.0445239832024527
 20
313.420650107225697
 30
0.0
 40
1.63870927955442
 50
301.2126773963652795
 51
338.4955715683404947
  0
ARC
  5
22F48
  8
0
 10
4688.5212525237448062
 20
314.2842426921018273
 30
0.0
 40
2.6484642859468579
 50
278.4862262245159172
 51
301.2126773963652795
  0
ARC
  5
22F49
  8
0
 10
4688.451138195094245
 20
314.7541613573956738
 30
0.0
 40
3.1235848717709498
 50
270.1594128252967835
 51
278.4862262245159172
  0
ARC
  5
22F4A
  8
0
 10
4688.4726668211542346
 20
314.5906495310513264
 30
0.0
 40
2.5679041172506172
 50
269.7135548698760772
 51
292.1290965913390778
  0
ARC
  5
22F4B
  8
0
 10
4688.8350510061072782
 20
313.7799034594077057
 30
0.0
 40
1.6806443627141789
 50
291.0965347878931766
 51
325.3683133509837262
  0
ARC
  5
22F4C
  8
0
 10
4689.3495766729010938
 20
313.3970817964006983
 30
0.0
 40
1.039969468335707
 50
326.6129673769672763
 51
359.4589141586404253
  0
ARC
  5
22F4D
  8
0
 10
4689.3452592035373527
 20
313.3765654324930097
 30
0.0
 40
1.044295334071474
 50
0.5868142522755225
 51
34.2882160552419535
  0
ARC
  5
22F4E
  8
0
 10
4688.9441774113884094
 20
313.0994948043202157
 30
0.0
 40
1.5317671098643371
 50
34.3992264771102967
 51
58.8429895273254573
  0
ARC
  5
22F4F
  8
0
 10
4688.6063157787011733
 20
312.5754275282437789
 30
0.0
 40
2.1551186787779959
 50
58.3649317537753021
 51
73.0413091861882293
  0
ENDSEC
  0
EOF
