  0
SECTION
  2
HEADER
  9
$ACADVER
  1
AC1009
  9
$INSBASE
 10
4686.2609890559106134
 20
319.7645714323326729
 30
0.0
  9
$EXTMIN
 10
4684.0870794783359088
 20
314.189778016446212
 30
0.0
  9
$EXTMAX
 10
4688.434898633487137
 20
320.8845714323326774
 30
0.0
  9
$LIMMIN
 10
0.0
 20
0.0
  9
$LIMMAX
 10
11.6929133858000007
 20
8.2677165353999982
  9
$ORTHOMODE
 70
     0
  9
$REGENMODE
 70
     1
  9
$FILLMODE
 70
     1
  9
$QTEXTMODE
 70
     0
  9
$MIRRTEXT
 70
     0
  9
$DRAGMODE
 70
     2
  9
$LTSCALE
 40
0.6431102362
  9
$OSMODE
 70
  4095
  9
$ATTMODE
 70
     1
  9
$TEXTSIZE
 40
0.2
  9
$TRACEWID
 40
0.05
  9
$TEXTSTYLE
  7
STANDARD
  9
$CLAYER
  8
0
  9
$CELTYPE
  6
BYLAYER
  9
$CECOLOR
 62
   256
  9
$DIMSCALE
 40
1.0
  9
$DIMASZ
 40
0.1875
  9
$DIMEXO
 40
0.0625
  9
$DIMDLI
 40
0.4443307087
  9
$DIMRND
 40
0.0
  9
$DIMDLE
 40
0.0
  9
$DIMEXE
 40
0.125
  9
$DIMTP
 40
0.01
  9
$DIMTM
 40
0.01
  9
$DIMTXT
 40
2.0
  9
$DIMCEN
 40
0.1052362205
  9
$DIMTSZ
 40
0.0
  9
$DIMTOL
 70
     1
  9
$DIMLIM
 70
     0
  9
$DIMTIH
 70
     1
  9
$DIMTOH
 70
     1
  9
$DIMSE1
 70
     0
  9
$DIMSE2
 70
     0
  9
$DIMTAD
 70
     0
  9
$DIMZIN
 70
     0
  9
$DIMBLK
  1

  9
$DIMASO
 70
     1
  9
$DIMSHO
 70
     1
  9
$DIMPOST
  1
\X
  9
$DIMAPOST
  1

  9
$DIMALT
 70
     1
  9
$DIMALTD
 70
     2
  9
$DIMALTF
 40
25.3999999999999986
  9
$DIMLFAC
 40
1.0
  9
$DIMTOFL
 70
     0
  9
$DIMTVP
 40
0.0
  9
$DIMTIX
 70
     0
  9
$DIMSOXD
 70
     0
  9
$DIMSAH
 70
     0
  9
$DIMBLK1
  1

  9
$DIMBLK2
  1

  9
$DIMSTYLE
  2
STANDARD
  9
$DIMCLRD
 70
     0
  9
$DIMCLRE
 70
     0
  9
$DIMCLRT
 70
     0
  9
$DIMTFAC
 40
1.0
  9
$DIMGAP
 40
0.09
  9
$LUNITS
 70
     2
  9
$LUPREC
 70
     4
  9
$SKETCHINC
 40
0.1
  9
$FILLETRAD
 40
0.0
  9
$AUNITS
 70
     0
  9
$AUPREC
 70
     0
  9
$MENU
  1
.
  9
$ELEVATION
 40
0.0
  9
$PELEVATION
 40
0.0
  9
$THICKNESS
 40
0.0
  9
$LIMCHECK
 70
     0
  9
$BLIPMODE
 70
     0
  9
$CHAMFERA
 40
0.0
  9
$CHAMFERB
 40
0.0
  9
$SKPOLY
 70
     0
  9
$TDCREATE
 40
2458060.468368056230247
  9
$TDUPDATE
 40
2459578.4740509260445833
  9
$TDINDWG
 40
0.6569052083
  9
$TDUSRTIMER
 40
0.6569052083
  9
$USRTIMER
 70
     1
  9
$ANGBASE
 50
0.0
  9
$ANGDIR
 70
     0
  9
$PDMODE
 70
     0
  9
$PDSIZE
 40
0.3125
  9
$PLINEWID
 40
0.0
  9
$COORDS
 70
     1
  9
$SPLFRAME
 70
     0
  9
$SPLINETYPE
 70
     6
  9
$SPLINESEGS
 70
     8
  9
$ATTDIA
 70
     1
  9
$ATTREQ
 70
     1
  9
$HANDLING
 70
     1
  9
$HANDSEED
  5
23B7D
  9
$SURFTAB1
 70
     6
  9
$SURFTAB2
 70
     6
  9
$SURFTYPE
 70
     6
  9
$SURFU
 70
     6
  9
$SURFV
 70
     6
  9
$UCSNAME
  2

  9
$UCSORG
 10
0.0
 20
0.0
 30
0.0
  9
$UCSXDIR
 10
1.0
 20
0.0
 30
0.0
  9
$UCSYDIR
 10
0.0
 20
1.0
 30
0.0
  9
$PUCSNAME
  2

  9
$PUCSORG
 10
0.0
 20
0.0
 30
0.0
  9
$PUCSXDIR
 10
1.0
 20
0.0
 30
0.0
  9
$PUCSYDIR
 10
0.0
 20
1.0
 30
0.0
  9
$USERI1
 70
     0
  9
$USERI2
 70
     0
  9
$USERI3
 70
     0
  9
$USERI4
 70
     0
  9
$USERI5
 70
     0
  9
$USERR1
 40
0.0
  9
$USERR2
 40
0.0
  9
$USERR3
 40
0.0
  9
$USERR4
 40
0.0
  9
$USERR5
 40
0.0
  9
$WORLDVIEW
 70
     1
  9
$SHADEDGE
 70
     3
  9
$SHADEDIF
 70
    70
  9
$TILEMODE
 70
     1
  9
$MAXACTVP
 70
    64
  9
$PLIMCHECK
 70
     0
  9
$PEXTMIN
 10
1.0000000000000000E+20
 20
1.0000000000000000E+20
 30
1.0000000000000000E+20
  9
$PEXTMAX
 10
-1.0000000000000000E+20
 20
-1.0000000000000000E+20
 30
-1.0000000000000000E+20
  9
$PLIMMIN
 10
0.0
 20
0.0
  9
$PLIMMAX
 10
12.0
 20
9.0
  9
$UNITMODE
 70
     0
  9
$VISRETAIN
 70
     1
  9
$PLINEGEN
 70
     0
  9
$PSLTSCALE
 70
     1
  0
ENDSEC
  0
SECTION
  2
TABLES
  0
TABLE
  2
VPORT
 70
     1
  0
VPORT
  2
*ACTIVE
 70
     0
 10
0.0
 20
0.0
 11
1.0
 21
1.0
 12
774.8956326105990229
 22
184.9575696218504106
 13
0.0
 23
0.0
 14
1.0
 24
1.0
 15
0.0
 25
0.0
 16
0.0
 26
0.0
 36
60.4960186965801583
 17
3911.3653564453120453
 27
132.5796051025390057
 37
0.0
 40
6.7478565076901873
 41
2.0410052910052912
 42
50.0
 43
0.0
 44
0.0
 50
0.0
 51
0.0
 71
     0
 72
   100
 73
     1
 74
     1
 75
     0
 76
     0
 77
     0
 78
     0
  0
ENDTAB
  0
TABLE
  2
LTYPE
 70
     2
  0
LTYPE
  2
CONTINUOUS
 70
     0
  3
Solid line
 72
    65
 73
     0
 40
0.0
  0
LTYPE
  2
PHANTOM2
 70
     0
  3
___ _ _ ___ _ _ ___ _ _ ___ _ _
 72
    65
 73
     6
 40
1.25
 49
0.625
 49
-0.125
 49
0.125
 49
-0.125
 49
0.125
 49
-0.125
  0
ENDTAB
  0
TABLE
  2
LAYER
 70
     2
  0
LAYER
  2
0
 70
     0
 62
   255
  6
CONTINUOUS
  0
LAYER
  2
DEFPOINTS
 70
     0
 62
     7
  6
CONTINUOUS
  0
ENDTAB
  0
TABLE
  2
STYLE
 70
     1
  0
STYLE
  2
STANDARD
 70
     0
 40
0.0
 41
0.8
 50
0.0
 71
     0
 42
0.2
  3
txt
  4

  0
ENDTAB
  0
TABLE
  2
VIEW
 70
     0
  0
ENDTAB
  0
TABLE
  2
UCS
 70
     0
  0
ENDTAB
  0
TABLE
  2
APPID
 70
    11
  0
APPID
  2
ACAD
 70
     0
  0
APPID
  2
ACAD_MLEADERVER
 70
     0
  0
APPID
  2
ACAD_EXEMPT_FROM_CAD_STANDARDS
 70
     0
  0
APPID
  2
ACAD_NAV_VCDISPLAY
 70
     0
  0
APPID
  2
ACAECLAYERSTANDARD
 70
     0
  0
APPID
  2
ACCMTRANSPARENCY
 70
     0
  0
APPID
  2
ACAD_DSTYLE_DIMJAG
 70
     0
  0
APPID
  2
ACAD_DSTYLE_DIMTALN
 70
     0
  0
APPID
  2
ACDBATTR
 70
     0
  0
APPID
  2
ACADANNOTATIVE
 70
     0
  0
APPID
  2
DCO15
 70
     0
  0
ENDTAB
  0
TABLE
  2
DIMSTYLE
 70
     1
  0
DIMSTYLE
  2
STANDARD
 70
     0
  3

  4

  5

  6

  7

 40
1.0
 41
0.1875
 42
0.0625
 43
0.38
 44
0.125
 45
0.0
 46
0.0
 47
0.01
 48
0.01
140
0.15625
141
0.09
142
0.0
143
25.3999999999999986
144
1.0
145
0.0
146
1.0
147
0.09
 71
     1
 72
     0
 73
     1
 74
     1
 75
     0
 76
     0
 77
     0
 78
     4
170
     0
171
     2
172
     0
173
     0
174
     0
175
     0
176
     0
177
     0
178
     0
  0
ENDTAB
  0
ENDSEC
  0
SECTION
  2
BLOCKS
  0
BLOCK
  8
0
  2
$MODEL_SPACE
 70
     0
 10
0.0
 20
0.0
 30
0.0
  3
$MODEL_SPACE
  1

  0
ENDBLK
  5
21
  8
0
  0
BLOCK
 67
     1
  8
0
  2
$PAPER_SPACE
 70
     0
 10
0.0
 20
0.0
 30
0.0
  3
$PAPER_SPACE
  1

  0
ENDBLK
  5
1D
 67
     1
  8
0
  0
ENDSEC
  0
SECTION
  2
ENTITIES
  0
ATTDEF
  5
211C4
  8
DEFPOINTS
 10
4686.2558392619339429
 20
319.7623385305964234
 30
0.0
 40
0.001
  1
P25040-00
  3

  2
MODELNUMBER
 70
     0
1001
ACDBATTR
1070
     0
1070
     1
  0
ATTDEF
  5
211C5
  8
DEFPOINTS
 10
4686.2558392619339429
 20
319.7606716902171797
 30
0.0
 40
0.001
  1
SCRIPT
  3

  2
TRADENAME
 70
     0
1001
ACDBATTR
1070
     0
1070
     1
  0
ATTDEF
  5
211C6
  8
DEFPOINTS
 10
4686.2558392619339429
 20
319.7590051972630931
 30
0.0
 40
0.001
  1
SHOWERHEAD
  3

  2
PRODUCT
 70
     0
1001
ACDBATTR
1070
     0
1070
     1
  0
LINE
  5
23780
  8
0
 10
4685.855989055910868
 20
318.4508237891824933
 30
0.0
 11
4685.855989055910868
 21
319.7645714323326729
 31
0.0
  0
LINE
  5
23781
  8
0
 10
4686.6659890559112682
 20
318.4508237891824933
 30
0.0
 11
4686.6659890559112682
 21
319.7645714323326729
 31
0.0
  0
LINE
  5
23782
  8
0
 10
4685.8059890559115956
 20
318.2786284985841121
 30
0.0
 11
4685.8059890559115956
 21
317.8781473866446277
 31
0.0
  0
LINE
  5
23783
  8
0
 10
4685.5367764575112233
 20
317.6282577955327042
 30
0.0
 11
4685.5367764575112233
 21
317.4559417929327196
 31
0.0
  0
ARC
  5
23784
  8
0
 10
4686.2609890559106134
 20
319.7645714323326729
 30
0.0
 40
1.119999999999997
 50
291.1989290171184166
 51
248.8010709828816118
  0
ARC
  5
23785
  8
0
 10
4686.2609890559106134
 20
319.7645714323326729
 30
0.0
 40
0.609994218699999
 50
311.6011114572615952
 51
228.3988885427384048
  0
ARC
  5
23786
  8
0
 10
4686.2609890559106134
 20
319.7645714323326729
 30
0.0
 40
0.5499999999999972
 50
317.4225675298117153
 51
222.5774324701883984
  0
ARC
  5
23787
  8
0
 10
4686.2609890559106134
 20
319.7645714323326729
 30
0.0
 40
0.4550000000000001
 50
332.8870588705826208
 51
207.1129411294174076
  0
ARC
  5
23788
  8
0
 10
4686.2609890559106134
 20
319.7645714323326729
 30
0.0
 40
0.4049999999999958
 50
0.0
 51
180.0
  0
ARC
  5
23789
  8
0
 10
4686.2609890559106134
 20
319.7645714323326729
 30
0.0
 40
0.42
 50
344.64111441917089
 51
195.3588855808322933
  0
LINE
  5
2378A
  8
0
 10
4686.1970447169105682
 20
320.1795157713327171
 30
0.0
 11
4686.2101878185303576
 21
320.1663726696137928
 31
0.0
  0
LINE
  5
2378B
  8
0
 10
4686.3249799938112119
 20
320.1795623702327021
 30
0.0
 11
4686.3117902932917787
 21
320.1663726696137928
 31
0.0
  0
ARC
  5
2378C
  8
0
 10
4686.2607096706360608
 20
317.9173235862926958
 30
0.0
 40
0.6843546556357222
 50
89.9766092077350237
 51
98.4295755726414541
  0
ARC
  5
2378D
  8
0
 10
4686.2510918871921604
 20
317.982225413755998
 30
0.0
 40
0.618744069856105
 50
98.4296048388461315
 51
119.9365769154345998
  0
ARC
  5
2378E
  8
0
 10
4686.1358913832500548
 20
318.1822696006393016
 30
0.0
 40
0.3879003287359626
 50
119.9365769154345998
 51
148.2641555678970064
  0
ARC
  5
2378F
  8
0
 10
4686.0346518034803012
 20
318.2450736647497251
 30
0.0
 40
0.2687627384715572
 50
148.2985491999494911
 51
181.5629562049809067
  0
LINE
  5
23790
  8
0
 10
4685.7659890559107225
 20
318.2377430673088838
 30
0.0
 11
4685.7659890559107225
 21
318.1623240897965275
 31
0.0
  0
ARC
  5
23791
  8
0
 10
4686.2882120198992197
 20
318.205978683429521
 30
0.0
 40
0.5240444138253179
 50
184.7784611775873032
 51
203.0454175824332879
  0
ARC
  5
23792
  8
0
 10
4685.8311628459287022
 20
318.2380499688184727
 30
0.0
 40
0.0477528719741811
 50
121.8143125945021978
 51
151.8816649015508915
  0
ARC
  5
23793
  8
0
 10
4685.974079209260708
 20
318.1616809541549742
 30
0.0
 40
0.2097939572228097
 50
151.8816649015508915
 51
169.2549768053752928
  0
ARC
  5
23794
  8
0
 10
4685.8811954063430676
 20
318.1793071364190837
 30
0.0
 40
0.1152525210924823
 50
169.2549768053752928
 51
178.3781527156326092
  0
ARC
  5
23795
  8
0
 10
4686.2616165433337301
 20
316.8298362479291086
 30
0.0
 40
1.15302517878175
 50
90.0311809173353339
 51
90.8933651597245529
  0
ARC
  5
23796
  8
0
 10
4686.2604270872279812
 20
316.9061155735427064
 30
0.0
 40
1.0767365798832611
 50
90.8933651597245529
 51
100.8869855375157982
  0
ARC
  5
23797
  8
0
 10
4686.2397877675357449
 20
317.0134253062157086
 30
0.0
 40
0.9674600488087115
 50
100.8869855375157982
 51
115.9076676515192048
  0
ARC
  5
23798
  8
0
 10
4686.1307214382395614
 20
317.2379620673016234
 30
0.0
 40
0.717835888789818
 50
115.9076676515192048
 51
131.9356580589418968
  0
ARC
  5
23799
  8
0
 10
4686.0193563068305593
 20
317.3619252429052153
 30
0.0
 40
0.5511953733103149
 50
131.9356580589418968
 51
151.1059913135611055
  0
ARC
  5
2379A
  8
0
 10
4686.3099746225689159
 20
309.6588704239412095
 30
0.0
 40
7.6873794342709312
 50
90.3651029905657452
 51
91.2600844206470327
  0
ARC
  5
2379B
  8
0
 10
4686.2433639609853344
 20
314.7156509746880033
 30
0.0
 40
2.6307351597577489
 50
92.2316730611494648
 51
95.079400589187145
  0
ARC
  5
2379C
  8
0
 10
4686.2426964023334222
 20
314.518923963781674
 30
0.0
 40
2.8266883502836899
 50
94.7128755454049269
 51
100.0685499133716974
  0
ARC
  5
2379D
  8
0
 10
4686.2085698763557957
 20
314.6618242117007185
 30
0.0
 40
2.6800365100942778
 50
99.8843027343648941
 51
113.4747962140325939
  0
ARC
  5
2379E
  8
0
 10
4685.9973176379626238
 20
315.1353440288060028
 30
0.0
 40
2.1615620899460031
 50
113.3384595938678956
 51
129.6521742398352899
  0
ARC
  5
2379F
  8
0
 10
4685.6090641304772362
 20
315.5909484539167238
 30
0.0
 40
1.563044525153414
 50
129.3517270044065128
 51
153.6943550739304101
  0
ARC
  5
237A0
  8
0
 10
4685.4216746000329294
 20
315.7284540673122137
 30
0.0
 40
1.3347298093823841
 50
155.4212410415256898
 51
179.1860297217976097
  0
ARC
  5
237A1
  8
0
 10
4685.2602680440304539
 20
315.7668316507832742
 30
0.0
 40
1.173349227032195
 50
180.9481665504571879
 51
198.1489150841501043
  0
ARC
  5
237A2
  8
0
 10
4685.5826289992992315
 20
315.9124148741867089
 30
0.0
 40
1.525491766900986
 50
199.5736321723371134
 51
235.3276822600296043
  0
ARC
  5
237A3
  8
0
 10
4686.1284015106812149
 20
316.6584177908928837
 30
0.0
 40
2.44962120273388
 50
234.7554247130325962
 51
258.7617022931851807
  0
ARC
  5
237A4
  8
0
 10
4686.1331238004468105
 20
316.3093798795790121
 30
0.0
 40
2.1094479959379902
 50
256.7878727869008912
 51
266.5542048194856761
  0
ARC
  5
237A5
  8
0
 10
4687.4400233740252588
 20
338.013958095414182
 30
0.0
 40
23.8533368390756415
 50
266.5542048194856761
 51
267.1668019172562936
  0
ARC
  5
237A6
  8
0
 10
4686.2790698373946725
 20
314.5533503018882016
 30
0.0
 40
2.8123677036708199
 50
90.3683585202931141
 51
90.8617558617168584
  0
ARC
  5
237A7
  8
0
 10
4686.2611605486663393
 20
316.2725381208172166
 30
0.0
 40
1.093133884020254
 50
91.2784090708185545
 51
92.5265606993149703
  0
ARC
  5
237A8
  8
0
 10
4686.2603846938191055
 20
316.2901210710381861
 30
0.0
 40
1.075533824667575
 50
92.5265606993149703
 51
99.6487703047644686
  0
ARC
  5
237A9
  8
0
 10
4686.2490330544578683
 20
316.3568903068155009
 30
0.0
 40
1.007806499587671
 50
99.6487703047644686
 51
103.6916148125155956
  0
ARC
  5
237AA
  8
0
 10
4686.2557412846172156
 20
316.4169308906380138
 30
0.0
 40
1.00112452357218
 50
89.699661214135773
 51
116.6341068689885958
  0
ARC
  5
237AB
  8
0
 10
4685.8947547171410406
 20
317.2584868138749812
 30
0.0
 40
0.4088238044955476
 50
151.1195865913581997
 51
182.2154740214824926
  0
ARC
  5
237AC
  8
0
 10
4686.2609343343510773
 20
314.2840939925727071
 30
0.0
 40
2.5155068915551748
 50
89.9987536052751551
 51
90.545799237224557
  0
ARC
  5
237AD
  8
0
 10
4686.2606439777428022
 20
314.2872808306133265
 30
0.0
 40
2.5123174456718211
 50
90.5398687957396646
 51
95.7747379297559149
  0
ARC
  5
237AE
  8
0
 10
4686.2528803806981159
 20
314.3640486641107827
 30
0.0
 40
2.4351580411967371
 50
95.7747379297559149
 51
104.0442019913368057
  0
ARC
  5
237AF
  8
0
 10
4686.1794214052843017
 20
314.6577112003749903
 30
0.0
 40
2.1324471126290439
 50
104.0442019913368057
 51
119.3214897368913938
  0
ARC
  5
237B0
  8
0
 10
4685.8851511220491375
 20
315.1816341370972054
 30
0.0
 40
1.531539263439271
 50
119.3214897368913938
 51
137.5173384885924861
  0
ARC
  5
237B1
  8
0
 10
4685.5699156967502859
 20
315.4656586947889991
 30
0.0
 40
1.1072433927674219
 50
137.3395017154699929
 51
161.0152658786336985
  0
ARC
  5
237B2
  8
0
 10
4685.3663761025673011
 20
315.5396089681432841
 30
0.0
 40
0.8907257922275859
 50
161.2541070977187871
 51
183.9548824575159074
  0
ARC
  5
237B3
  8
0
 10
4686.5154863715433748
 20
320.6431334718221819
 30
0.0
 40
6.3788302952041942
 50
265.7309195669855058
 51
267.7134533058834904
  0
ARC
  5
237B4
  8
0
 10
4686.2239352932347174
 20
316.5347672172276248
 30
0.0
 40
2.2602100269875272
 50
243.7549345675330983
 51
265.3484639219029191
  0
ARC
  5
237B5
  8
0
 10
4685.9352221086492136
 20
316.051901090258923
 30
0.0
 40
1.7000567674028011
 50
214.8926536054561893
 51
245.2859095603446065
  0
ARC
  5
237B6
  8
0
 10
4685.4226810175132414
 20
315.6558935749965826
 30
0.0
 40
1.0535998300354219
 50
189.7109460234977973
 51
213.172815537642407
  0
ARC
  5
237B7
  8
0
 10
4685.3295982624067619
 20
315.6322859776083192
 30
0.0
 40
0.9578986575171743
 50
160.4656260856442884
 51
189.2582480192116918
  0
ARC
  5
237B8
  8
0
 10
4685.6058090508031455
 20
315.5134299635193997
 30
0.0
 40
1.2581067880274259
 50
128.8138800696258102
 51
159.5703601586652951
  0
ARC
  5
237B9
  8
0
 10
4686.0487753526604138
 20
314.9857390247051967
 30
0.0
 40
1.946977507922093
 50
108.5713538733674
 51
129.2376608659205033
  0
ARC
  5
237BA
  8
0
 10
4686.2529731522763541
 20
314.4131188959873953
 30
0.0
 40
2.5548385670782432
 50
89.8202320073262257
 51
108.8223866905213981
  0
ARC
  5
237BB
  8
0
 10
4685.4101805098480327
 20
315.5415099923783941
 30
0.0
 40
0.9345576789852628
 50
183.8859274076679924
 51
204.8401407861506982
  0
ARC
  5
237BC
  8
0
 10
4685.5982408635636602
 20
315.62856600981371
 30
0.0
 40
1.1417905113541009
 50
204.8401407861506982
 51
220.9508524401811087
  0
ARC
  5
237BD
  8
0
 10
4686.0231330195292685
 20
316.0223938755482891
 30
0.0
 40
1.72092349763373
 50
221.5823792763054882
 51
236.9325418848449942
  0
ARC
  5
237BE
  8
0
 10
4685.5273518740477812
 20
315.5380921630746229
 30
0.0
 40
0.9051387295664511
 50
129.2532052700697989
 51
183.7955781729463922
  0
ARC
  5
237BF
  8
0
 10
4686.1672047446318174
 20
314.8432622518809012
 30
0.0
 40
1.848894231147852
 50
104.160681465472905
 51
130.9833487396273028
  0
ARC
  5
237C0
  8
0
 10
4686.2900315626384327
 20
313.891543380903272
 30
0.0
 40
2.8040498533676459
 50
90.5934426637917767
 51
101.8360520395872015
  0
ARC
  5
237C1
  8
0
 10
4685.5188892872902215
 20
315.5708084472461792
 30
0.0
 40
0.8994735184045367
 50
185.9111743360197977
 51
212.6462424030877116
  0
ARC
  5
237C2
  8
0
 10
4685.7966476576020796
 20
315.7487583586707274
 30
0.0
 40
1.2293460441699591
 50
212.6462424030877116
 51
237.1590002923136922
  0
ARC
  5
237C3
  8
0
 10
4686.1890036981221783
 20
316.3566200498676722
 30
0.0
 40
1.9528369550720139
 50
237.1590002923136922
 51
257.9951323514912929
  0
ARC
  5
237C4
  8
0
 10
4686.2618633744586987
 20
316.6992547397534281
 30
0.0
 40
2.3031326346757059
 50
257.9951323514912929
 51
269.9782492926544251
  0
ARC
  5
237C5
  8
0
 10
4685.8152254579599685
 20
316.506585173798328
 30
0.0
 40
0.0199743909573314
 50
26.4908654214398105
 51
90.1326964846320067
  0
ARC
  5
237C6
  8
0
 10
4685.8219509572809329
 20
316.5109744510460246
 30
0.0
 40
0.0120330474472751
 50
335.2191625049617869
 51
22.0654585267048695
  0
ARC
  5
237C7
  8
0
 10
4685.8165998163349286
 20
316.515029583043372
 30
0.0
 40
0.0186467381479541
 50
282.0193636819300878
 51
330.7937556102115764
  0
ARC
  5
237C8
  8
0
 10
4685.8152656911315717
 20
316.5212957347267206
 30
0.0
 40
0.0250533399753439
 50
236.0289359233171922
 51
282.0193636819300878
  0
ARC
  5
237C9
  8
0
 10
4685.8091689103339377
 20
316.5122470313730219
 30
0.0
 40
0.0141423469642897
 50
178.9222017080828948
 51
236.0289359233171922
  0
ARC
  5
237CA
  8
0
 10
4685.8070747863021097
 20
316.5122864288571805
 30
0.0
 40
0.0120478523673216
 50
118.6410711706136993
 51
178.9222017080795979
  0
ARC
  5
237CB
  8
0
 10
4685.8137584152118507
 20
316.5040046694655871
 30
0.0
 40
0.0225995466183604
 50
86.3955671696919438
 51
123.4540826542120016
  0
ARC
  5
237CC
  8
0
 10
4685.8024922359991251
 20
316.521955817739979
 30
0.0
 40
0.0401387031439292
 50
187.6987884326011056
 51
211.9390877284351973
  0
ARC
  5
237CD
  8
0
 10
4685.8089880043416997
 20
316.5260052284439212
 30
0.0
 40
0.0477932921866574
 50
211.9390877284351973
 51
253.0381747622745081
  0
ARC
  5
237CE
  8
0
 10
4685.822586243412843
 20
316.5228894418448249
 30
0.0
 40
0.044525548106371
 50
286.9185075298045149
 51
341.6665832415495743
  0
LINE
  5
237CF
  8
0
 10
4685.7570924732754065
 20
316.5628663020818863
 30
0.0
 11
4685.7627249000379379
 21
316.5165083889335733
 31
0.0
  0
LINE
  5
237D0
  8
0
 10
4685.8710071090490601
 20
316.5597254921220838
 30
0.0
 11
4685.8648517720112068
 21
316.5088841026328055
 31
0.0
  0
ARC
  5
237D1
  8
0
 10
4685.8124491209018743
 20
316.5032408820055139
 30
0.0
 40
0.0813606118205117
 50
43.9674872401407484
 51
132.8738391749807022
  0
ARC
  5
237D2
  8
0
 10
4685.7932395740708671
 20
316.5283854645152815
 30
0.0
 40
0.0499553906524613
 50
136.351478554429292
 51
165.9752795810256885
  0
ARC
  5
237D3
  8
0
 10
4685.8006502850912511
 20
316.5569739103816005
 30
0.0
 40
0.0582572092925923
 50
196.4346609631477918
 51
230.5133345947581915
  0
ARC
  5
237D4
  8
0
 10
4685.8337853684060974
 20
316.5501108567422079
 30
0.0
 40
0.051621378201068
 50
306.9998369631067021
 51
345.4865810342078021
  0
ARC
  5
237D5
  8
0
 10
4685.8302570716987248
 20
316.5218008352509855
 30
0.0
 40
0.0556672717382415
 50
16.0314568327150404
 51
42.9432670200930104
  0
ARC
  5
237D6
  8
0
 10
4685.8160929858267991
 20
316.5550076077427093
 30
0.0
 40
0.077624677464013
 50
254.2672889782901962
 51
269.4105179089643798
  0
ARC
  5
237D7
  8
0
 10
4685.8144957460208389
 20
316.5550076077427093
 30
0.0
 40
0.077624677464013
 50
270.5894820910356202
 51
285.7327110217096902
  0
ARC
  5
237D8
  8
0
 10
4685.5095116027223412
 20
316.2496313740759888
 30
0.0
 40
0.0199743909573314
 50
26.4908654214398105
 51
90.1326964846320067
  0
ARC
  5
237D9
  8
0
 10
4685.5162371020423961
 20
316.2540206513235717
 30
0.0
 40
0.0120330474472751
 50
335.2191625049617869
 51
22.0654585267048695
  0
ARC
  5
237DA
  8
0
 10
4685.5108859610963918
 20
316.2580757833210896
 30
0.0
 40
0.0186467381479541
 50
282.0193636819300878
 51
330.7937556102115764
  0
ARC
  5
237DB
  8
0
 10
4685.5095518358939444
 20
316.2643419350043246
 30
0.0
 40
0.0250533399753439
 50
236.0289359233171922
 51
282.0193636819300878
  0
ARC
  5
237DC
  8
0
 10
4685.5034550550954009
 20
316.2552932316506258
 30
0.0
 40
0.0141423469642897
 50
178.9222017080828948
 51
236.0289359233171922
  0
ARC
  5
237DD
  8
0
 10
4685.5013609310635729
 20
316.2553326291347844
 30
0.0
 40
0.0120478523673216
 50
118.6410711706136993
 51
178.9222017080795979
  0
ARC
  5
237DE
  8
0
 10
4685.5080445599742234
 20
316.247050869743191
 30
0.0
 40
0.0225995466183604
 50
86.3955671696919438
 51
123.4540826542120016
  0
ARC
  5
237DF
  8
0
 10
4685.4967783807624073
 20
316.2650020180175829
 30
0.0
 40
0.0401387031439292
 50
187.6987884326011056
 51
211.9390877284351973
  0
ARC
  5
237E0
  8
0
 10
4685.5032741491040724
 20
316.2690514287215251
 30
0.0
 40
0.0477932921866574
 50
211.9390877284351973
 51
253.0381747622745081
  0
ARC
  5
237E1
  8
0
 10
4685.5168723881743063
 20
316.265935642122372
 30
0.0
 40
0.044525548106371
 50
286.9185075298045149
 51
341.6665832415495743
  0
LINE
  5
237E2
  8
0
 10
4685.4513786180359602
 20
316.3059125023594902
 30
0.0
 11
4685.4570110447994011
 21
316.2595545892111772
 31
0.0
  0
LINE
  5
237E3
  8
0
 10
4685.5652932538096138
 20
316.3027716923996877
 30
0.0
 11
4685.5591379167717605
 21
316.2519303029104094
 31
0.0
  0
ARC
  5
237E4
  8
0
 10
4685.506735265664247
 20
316.2462870822831178
 30
0.0
 40
0.0813606118205117
 50
43.9674872401407484
 51
132.8738391749807022
  0
ARC
  5
237E5
  8
0
 10
4685.4875257188332398
 20
316.2714316647928854
 30
0.0
 40
0.0499553906524613
 50
136.351478554429292
 51
165.9752795810256885
  0
ARC
  5
237E6
  8
0
 10
4685.4949364298518049
 20
316.3000201106592044
 30
0.0
 40
0.0582572092925923
 50
196.4346609631477918
 51
230.5133345947581915
  0
ARC
  5
237E7
  8
0
 10
4685.5280715131666511
 20
316.2931570570199256
 30
0.0
 40
0.051621378201068
 50
306.9998369631067021
 51
345.4865810342078021
  0
ARC
  5
237E8
  8
0
 10
4685.524543216462007
 20
316.2648470355285895
 30
0.0
 40
0.0556672717382415
 50
16.0314568327150404
 51
42.9432670200930104
  0
ARC
  5
237E9
  8
0
 10
4685.5103791305891718
 20
316.2980538080203132
 30
0.0
 40
0.077624677464013
 50
254.2672889782901962
 51
269.4105179089643798
  0
ARC
  5
237EA
  8
0
 10
4685.5087818907823021
 20
316.2980538080203132
 30
0.0
 40
0.077624677464013
 50
270.5894820910356202
 51
285.7327110217096902
  0
ARC
  5
237EB
  8
0
 10
4685.7547727279052197
 20
315.9790921728064745
 30
0.0
 40
0.0199743909573314
 50
26.4908654214398105
 51
90.1326964846320067
  0
ARC
  5
237EC
  8
0
 10
4685.7614982272252746
 20
315.9834814500542279
 30
0.0
 40
0.0120330474472751
 50
335.2191625049617869
 51
22.0654585267048695
  0
ARC
  5
237ED
  8
0
 10
4685.7561470862792703
 20
315.9875365820515754
 30
0.0
 40
0.0186467381479541
 50
282.0193636819300878
 51
330.7937556102115764
  0
ARC
  5
237EE
  8
0
 10
4685.7548129610768228
 20
315.9938027337348103
 30
0.0
 40
0.0250533399753439
 50
236.0289359233171922
 51
282.0193636819300878
  0
ARC
  5
237EF
  8
0
 10
4685.7487161802782794
 20
315.9847540303812252
 30
0.0
 40
0.0141423469642897
 50
178.9222017080828948
 51
236.0289359233171922
  0
ARC
  5
237F0
  8
0
 10
4685.7466220562473609
 20
315.9847934278653838
 30
0.0
 40
0.0120478523673216
 50
118.6410711706136993
 51
178.9222017080795979
  0
ARC
  5
237F1
  8
0
 10
4685.7533056851571018
 20
315.9765116684737905
 30
0.0
 40
0.0225995466183604
 50
86.3955671696919438
 51
123.4540826542120016
  0
ARC
  5
237F2
  8
0
 10
4685.7420395059425573
 20
315.9944628167481255
 30
0.0
 40
0.0401387031439292
 50
187.6987884326011056
 51
211.9390877284351973
  0
ARC
  5
237F3
  8
0
 10
4685.7485352742869509
 20
315.9985122274521245
 30
0.0
 40
0.0477932921866574
 50
211.9390877284351973
 51
253.0381747622745081
  0
ARC
  5
237F4
  8
0
 10
4685.7621335133571847
 20
315.9953964408530283
 30
0.0
 40
0.044525548106371
 50
286.9185075298045149
 51
341.6665832415495743
  0
LINE
  5
237F5
  8
0
 10
4685.6966397432188387
 20
316.0353733010900896
 30
0.0
 11
4685.7022721699822796
 21
315.9890153879417767
 31
0.0
  0
LINE
  5
237F6
  8
0
 10
4685.8105543789934018
 20
316.0322324911302871
 30
0.0
 11
4685.804399041954639
 21
315.9813911016408952
 31
0.0
  0
ARC
  5
237F7
  8
0
 10
4685.7519963908471254
 20
315.9757478810137172
 30
0.0
 40
0.0813606118205117
 50
43.9674872401407484
 51
132.8738391749807022
  0
ARC
  5
237F8
  8
0
 10
4685.7327868440161183
 20
316.0008924635234848
 30
0.0
 40
0.0499553906524613
 50
136.351478554429292
 51
165.9752795810256885
  0
ARC
  5
237F9
  8
0
 10
4685.7401975550337738
 20
316.0294809093898039
 30
0.0
 40
0.0582572092925923
 50
196.4346609631477918
 51
230.5133345947581915
  0
ARC
  5
237FA
  8
0
 10
4685.7733326383504391
 20
316.0226178557504113
 30
0.0
 40
0.051621378201068
 50
306.9998369631067021
 51
345.4865810342078021
  0
ARC
  5
237FB
  8
0
 10
4685.7698043416439759
 20
315.9943078342591889
 30
0.0
 40
0.0556672717382415
 50
16.0314568327150404
 51
42.9432670200930104
  0
ARC
  5
237FC
  8
0
 10
4685.7556402557720503
 20
316.027514606750799
 30
0.0
 40
0.077624677464013
 50
254.2672889782901962
 51
269.4105179089643798
  0
ARC
  5
237FD
  8
0
 10
4685.7540430159651805
 20
316.027514606750799
 30
0.0
 40
0.077624677464013
 50
270.5894820910356202
 51
285.7327110217096902
  0
ARC
  5
237FE
  8
0
 10
4685.4415243446237582
 20
315.6729754952319809
 30
0.0
 40
0.0199743909573314
 50
26.4908654214398105
 51
90.1326964846320067
  0
ARC
  5
237FF
  8
0
 10
4685.4482498439429037
 20
315.6773647724797911
 30
0.0
 40
0.0120330474472751
 50
335.2191625049617869
 51
22.0654585267048695
  0
ARC
  5
23800
  8
0
 10
4685.4428987029968994
 20
315.6814199044771954
 30
0.0
 40
0.0186467381479541
 50
282.0193636819300878
 51
330.7937556102115764
  0
ARC
  5
23801
  8
0
 10
4685.4415645777953614
 20
315.6876860561603166
 30
0.0
 40
0.0250533399753439
 50
236.0289359233171922
 51
282.0193636819300878
  0
ARC
  5
23802
  8
0
 10
4685.4354677969949989
 20
315.6786373528066747
 30
0.0
 40
0.0141423469642897
 50
178.9222017080828948
 51
236.0289359233171922
  0
ARC
  5
23803
  8
0
 10
4685.4333736729658995
 20
315.6786767502908901
 30
0.0
 40
0.0120478523673216
 50
118.6410711706136993
 51
178.9222017080795979
  0
ARC
  5
23804
  8
0
 10
4685.4400573018747309
 20
315.6703949908992968
 30
0.0
 40
0.0225995466183604
 50
86.3955671696919438
 51
123.4540826542120016
  0
ARC
  5
23805
  8
0
 10
4685.4287911226620054
 20
315.6883461391736887
 30
0.0
 40
0.0401387031439292
 50
187.6987884326011056
 51
211.9390877284351973
  0
ARC
  5
23806
  8
0
 10
4685.43528689100458
 20
315.692395549877574
 30
0.0
 40
0.0477932921866574
 50
211.9390877284351973
 51
253.0381747622745081
  0
ARC
  5
23807
  8
0
 10
4685.4488851300748138
 20
315.6892797632784777
 30
0.0
 40
0.044525548106371
 50
286.9185075298045149
 51
341.6665832415495743
  0
LINE
  5
23808
  8
0
 10
4685.3833913599382868
 20
315.7292566235155959
 30
0.0
 11
4685.3890237866999087
 21
315.682898710367283
 31
0.0
  0
LINE
  5
23809
  8
0
 10
4685.4973059957119403
 20
315.7261158135557935
 30
0.0
 11
4685.4911506586731775
 21
315.6752744240664015
 31
0.0
  0
ARC
  5
2380A
  8
0
 10
4685.4387480075647545
 20
315.6696312034392236
 30
0.0
 40
0.0813606118205117
 50
43.9674872401407484
 51
132.8738391749807022
  0
ARC
  5
2380B
  8
0
 10
4685.4195384607337473
 20
315.6947757859489911
 30
0.0
 40
0.0499553906524613
 50
136.351478554429292
 51
165.9752795810256885
  0
ARC
  5
2380C
  8
0
 10
4685.4269491717523124
 20
315.7233642318153102
 30
0.0
 40
0.0582572092925923
 50
196.4346609631477918
 51
230.5133345947581915
  0
ARC
  5
2380D
  8
0
 10
4685.4600842550680682
 20
315.7165011781759176
 30
0.0
 40
0.051621378201068
 50
306.9998369631067021
 51
345.4865810342078021
  0
ARC
  5
2380E
  8
0
 10
4685.456555958363424
 20
315.6881911566846952
 30
0.0
 40
0.0556672717382415
 50
16.0314568327150404
 51
42.9432670200930104
  0
ARC
  5
2380F
  8
0
 10
4685.4423918724905889
 20
315.7213979291763053
 30
0.0
 40
0.077624677464013
 50
254.2672889782901962
 51
269.4105179089643798
  0
ARC
  5
23810
  8
0
 10
4685.4407946326828096
 20
315.7213979291763053
 30
0.0
 40
0.077624677464013
 50
270.5894820910356202
 51
285.7327110217096902
  0
ARC
  5
23811
  8
0
 10
4685.0445357384141971
 20
315.7986078341461962
 30
0.0
 40
0.0199743909573314
 50
26.4908654214398105
 51
90.1326964846320067
  0
ARC
  5
23812
  8
0
 10
4685.0512612377342521
 20
315.8029971113938927
 30
0.0
 40
0.0120330474472751
 50
335.2191625049617869
 51
22.0654585267048695
  0
ARC
  5
23813
  8
0
 10
4685.0459100967882478
 20
315.807052243391297
 30
0.0
 40
0.0186467381479541
 50
282.0193636819300878
 51
330.7937556102115764
  0
ARC
  5
23814
  8
0
 10
4685.0445759715839813
 20
315.8133183950745888
 30
0.0
 40
0.0250533399753439
 50
236.0289359233171922
 51
282.0193636819300878
  0
ARC
  5
23815
  8
0
 10
4685.0384791907863473
 20
315.8042696917210037
 30
0.0
 40
0.0141423469642897
 50
178.9222017080828948
 51
236.0289359233171922
  0
ARC
  5
23816
  8
0
 10
4685.0363850667563383
 20
315.8043090892051055
 30
0.0
 40
0.0120478523673216
 50
118.6410711706136993
 51
178.9222017080795979
  0
ARC
  5
23817
  8
0
 10
4685.0430686956651698
 20
315.7960273298133984
 30
0.0
 40
0.0225995466183604
 50
86.3955671696919438
 51
123.4540826542120016
  0
ARC
  5
23818
  8
0
 10
4685.0318025164524443
 20
315.813978478087904
 30
0.0
 40
0.0401387031439292
 50
187.6987884326011056
 51
211.9390877284351973
  0
ARC
  5
23819
  8
0
 10
4685.0382982847950188
 20
315.8180278887917893
 30
0.0
 40
0.0477932921866574
 50
211.9390877284351973
 51
253.0381747622745081
  0
ARC
  5
2381A
  8
0
 10
4685.0518965238661622
 20
315.8149121021926931
 30
0.0
 40
0.044525548106371
 50
286.9185075298045149
 51
341.6665832415495743
  0
LINE
  5
2381B
  8
0
 10
4684.9864027537278162
 20
315.8548889624296976
 30
0.0
 11
4684.9920351804912571
 21
315.808531049281612
 31
0.0
  0
LINE
  5
2381C
  8
0
 10
4685.1003173895023792
 20
315.8517481524700088
 30
0.0
 11
4685.0941620524636164
 21
315.8009067629806168
 31
0.0
  0
ARC
  5
2381D
  8
0
 10
4685.0417594013551934
 20
315.795263542353382
 30
0.0
 40
0.0813606118205117
 50
43.9674872401407484
 51
132.8738391749807022
  0
ARC
  5
2381E
  8
0
 10
4685.0225498545241862
 20
315.8204081248632065
 30
0.0
 40
0.0499553906524613
 50
136.351478554429292
 51
165.9752795810256885
  0
ARC
  5
2381F
  8
0
 10
4685.0299605655427513
 20
315.8489965707295255
 30
0.0
 40
0.0582572092925923
 50
196.4346609631477918
 51
230.5133345947581915
  0
ARC
  5
23820
  8
0
 10
4685.0630956488594165
 20
315.8421335170900761
 30
0.0
 40
0.051621378201068
 50
306.9998369631067021
 51
345.4865810342078021
  0
ARC
  5
23821
  8
0
 10
4685.0595673521529534
 20
315.8138234955989105
 30
0.0
 40
0.0556672717382415
 50
16.0314568327150404
 51
42.9432670200930104
  0
ARC
  5
23822
  8
0
 10
4685.0454032662810278
 20
315.8470302680905206
 30
0.0
 40
0.077624677464013
 50
254.2672889782901962
 51
269.4105179089643798
  0
ARC
  5
23823
  8
0
 10
4685.0438060264732485
 20
315.8470302680905206
 30
0.0
 40
0.077624677464013
 50
270.5894820910356202
 51
285.7327110217096902
  0
ARC
  5
23824
  8
0
 10
4685.092726816387767
 20
316.133857142591296
 30
0.0
 40
0.0199743909573314
 50
26.4908654214398105
 51
90.1326964846320067
  0
ARC
  5
23825
  8
0
 10
4685.0994523157069125
 20
316.1382464198389926
 30
0.0
 40
0.0120330474472751
 50
335.2191625049617869
 51
22.0654585267048695
  0
ARC
  5
23826
  8
0
 10
4685.0941011747618177
 20
316.1423015518363968
 30
0.0
 40
0.0186467381479541
 50
282.0193636819300878
 51
330.7937556102115764
  0
ARC
  5
23827
  8
0
 10
4685.0927670495593702
 20
316.1485677035195749
 30
0.0
 40
0.0250533399753439
 50
236.0289359233171922
 51
282.0193636819300878
  0
ARC
  5
23828
  8
0
 10
4685.0866702687590077
 20
316.1395190001659898
 30
0.0
 40
0.0141423469642897
 50
178.9222017080828948
 51
236.0289359233171922
  0
ARC
  5
23829
  8
0
 10
4685.0845761447289988
 20
316.1395583976500916
 30
0.0
 40
0.0120478523673216
 50
118.6410711706136993
 51
178.9222017080795979
  0
ARC
  5
2382A
  8
0
 10
4685.0912597736378302
 20
316.1312766382584982
 30
0.0
 40
0.0225995466183604
 50
86.3955671696919438
 51
123.4540826542120016
  0
ARC
  5
2382B
  8
0
 10
4685.0799935944260142
 20
316.1492277865328901
 30
0.0
 40
0.0401387031439292
 50
187.6987884326011056
 51
211.9390877284351973
  0
ARC
  5
2382C
  8
0
 10
4685.0864893627685888
 20
316.1532771972368892
 30
0.0
 40
0.0477932921866574
 50
211.9390877284351973
 51
253.0381747622745081
  0
ARC
  5
2382D
  8
0
 10
4685.1000876018379131
 20
316.1501614106377929
 30
0.0
 40
0.044525548106371
 50
286.9185075298045149
 51
341.6665832415495743
  0
LINE
  5
2382E
  8
0
 10
4685.0345938317013861
 20
316.1901382708747974
 30
0.0
 11
4685.0402262584639175
 21
316.1437803577265981
 31
0.0
  0
LINE
  5
2382F
  8
0
 10
4685.1485084674759491
 20
316.1869974609151086
 30
0.0
 11
4685.1423531304380958
 21
316.1361560714257166
 31
0.0
  0
ARC
  5
23830
  8
0
 10
4685.0899504793287633
 20
316.1305128507984818
 30
0.0
 40
0.0813606118205117
 50
43.9674872401407484
 51
132.8738391749807022
  0
ARC
  5
23831
  8
0
 10
4685.0707409324977561
 20
316.1556574333083063
 30
0.0
 40
0.0499553906524613
 50
136.351478554429292
 51
165.9752795810256885
  0
ARC
  5
23832
  8
0
 10
4685.0781516435163212
 20
316.1842458791746253
 30
0.0
 40
0.0582572092925923
 50
196.4346609631477918
 51
230.5133345947581915
  0
ARC
  5
23833
  8
0
 10
4685.111286726832077
 20
316.1773828255351759
 30
0.0
 40
0.051621378201068
 50
306.9998369631067021
 51
345.4865810342078021
  0
ARC
  5
23834
  8
0
 10
4685.1077584301274328
 20
316.1490728040440104
 30
0.0
 40
0.0556672717382415
 50
16.0314568327150404
 51
42.9432670200930104
  0
ARC
  5
23835
  8
0
 10
4685.0935943442536882
 20
316.1822795765356204
 30
0.0
 40
0.077624677464013
 50
254.2672889782901962
 51
269.4105179089643798
  0
ARC
  5
23836
  8
0
 10
4685.0919971044459089
 20
316.1822795765356204
 30
0.0
 40
0.077624677464013
 50
270.5894820910356202
 51
285.7327110217096902
  0
ARC
  5
23837
  8
0
 10
4686.0001547343990751
 20
315.7170502731029842
 30
0.0
 40
0.0199743909573314
 50
26.4908654214398105
 51
90.1326964846320067
  0
ARC
  5
23838
  8
0
 10
4686.0068802337182206
 20
315.7214395503506807
 30
0.0
 40
0.0120330474472751
 50
335.2191625049617869
 51
22.0654585267048695
  0
ARC
  5
23839
  8
0
 10
4686.0015290927731257
 20
315.725494682348085
 30
0.0
 40
0.0186467381479541
 50
282.0193636819300878
 51
330.7937556102115764
  0
ARC
  5
2383A
  8
0
 10
4686.0001949675697688
 20
315.7317608340313768
 30
0.0
 40
0.0250533399753439
 50
236.0289359233171922
 51
282.0193636819300878
  0
ARC
  5
2383B
  8
0
 10
4685.9940981867721348
 20
315.7227121306777917
 30
0.0
 40
0.0141423469642897
 50
178.9222017080828948
 51
236.0289359233171922
  0
ARC
  5
2383C
  8
0
 10
4685.9920040627412163
 20
315.7227515281618935
 30
0.0
 40
0.0120478523673216
 50
118.6410711706136993
 51
178.9222017080795979
  0
ARC
  5
2383D
  8
0
 10
4685.9986876916500478
 20
315.7144697687703001
 30
0.0
 40
0.0225995466183604
 50
86.3955671696919438
 51
123.4540826542120016
  0
ARC
  5
2383E
  8
0
 10
4685.9874215124373222
 20
315.732420917044692
 30
0.0
 40
0.0401387031439292
 50
187.6987884326011056
 51
211.9390877284351973
  0
ARC
  5
2383F
  8
0
 10
4685.9939172807798968
 20
315.7364703277485773
 30
0.0
 40
0.0477932921866574
 50
211.9390877284351973
 51
253.0381747622745081
  0
ARC
  5
23840
  8
0
 10
4686.0075155198501307
 20
315.7333545411494811
 30
0.0
 40
0.044525548106371
 50
286.9185075298045149
 51
341.6665832415495743
  0
LINE
  5
23841
  8
0
 10
4685.9420217497126941
 20
315.7733314013865993
 30
0.0
 11
4685.947654176476135
 21
315.7269734882384
 31
0.0
  0
LINE
  5
23842
  8
0
 10
4686.0559363854872572
 20
315.7701905914269105
 30
0.0
 11
4686.0497810484494039
 21
315.7193492019374048
 31
0.0
  0
ARC
  5
23843
  8
0
 10
4685.9973783973409809
 20
315.7137059813102269
 30
0.0
 40
0.0813606118205117
 50
43.9674872401407484
 51
132.8738391749807022
  0
ARC
  5
23844
  8
0
 10
4685.9781688505090642
 20
315.7388505638201082
 30
0.0
 40
0.0499553906524613
 50
136.351478554429292
 51
165.9752795810256885
  0
ARC
  5
23845
  8
0
 10
4685.9855795615294483
 20
315.7674390096864272
 30
0.0
 40
0.0582572092925923
 50
196.4346609631477918
 51
230.5133345947581915
  0
ARC
  5
23846
  8
0
 10
4686.0187146448442945
 20
315.7605759560469778
 30
0.0
 40
0.051621378201068
 50
306.9998369631067021
 51
345.4865810342078021
  0
ARC
  5
23847
  8
0
 10
4686.0151863481378314
 20
315.7322659345556985
 30
0.0
 40
0.0556672717382415
 50
16.0314568327150404
 51
42.9432670200930104
  0
ARC
  5
23848
  8
0
 10
4686.0010222622659057
 20
315.7654727070474223
 30
0.0
 40
0.077624677464013
 50
254.2672889782901962
 51
269.4105179089643798
  0
ARC
  5
23849
  8
0
 10
4685.999425022457217
 20
315.7654727070474223
 30
0.0
 40
0.077624677464013
 50
270.5894820910356202
 51
285.7327110217096902
  0
ARC
  5
2384A
  8
0
 10
4685.8403181660105474
 20
315.5607232635268247
 30
0.0
 40
0.0199743909573314
 50
26.4908654214398105
 51
90.1326964846320067
  0
ARC
  5
2384B
  8
0
 10
4685.8470436653306024
 20
315.5651125407745212
 30
0.0
 40
0.0120330474472751
 50
335.2191625049617869
 51
22.0654585267048695
  0
ARC
  5
2384C
  8
0
 10
4685.8416925243864171
 20
315.5691676727719255
 30
0.0
 40
0.0186467381479541
 50
282.0193636819300878
 51
330.7937556102115764
  0
ARC
  5
2384D
  8
0
 10
4685.8403583991821506
 20
315.5754338244551036
 30
0.0
 40
0.0250533399753439
 50
236.0289359233171922
 51
282.0193636819300878
  0
ARC
  5
2384E
  8
0
 10
4685.8342616183836071
 20
315.5663851211015185
 30
0.0
 40
0.0141423469642897
 50
178.9222017080828948
 51
236.0289359233171922
  0
ARC
  5
2384F
  8
0
 10
4685.8321674943526887
 20
315.5664245185856771
 30
0.0
 40
0.0120478523673216
 50
118.6410711706136993
 51
178.9222017080795979
  0
ARC
  5
23850
  8
0
 10
4685.8388511232633391
 20
315.5581427591940269
 30
0.0
 40
0.0225995466183604
 50
86.3955671696919438
 51
123.4540826542120016
  0
ARC
  5
23851
  8
0
 10
4685.8275849440487946
 20
315.5760939074684188
 30
0.0
 40
0.0401387031439292
 50
187.6987884326011056
 51
211.9390877284351973
  0
ARC
  5
23852
  8
0
 10
4685.8340807123922787
 20
315.5801433181724178
 30
0.0
 40
0.0477932921866574
 50
211.9390877284351973
 51
253.0381747622745081
  0
ARC
  5
23853
  8
0
 10
4685.847678951463422
 20
315.5770275315733215
 30
0.0
 40
0.044525548106371
 50
286.9185075298045149
 51
341.6665832415495743
  0
LINE
  5
23854
  8
0
 10
4685.7821851813259855
 20
315.6170043918103261
 30
0.0
 11
4685.7878176080894264
 21
315.5706464786621268
 31
0.0
  0
LINE
  5
23855
  8
0
 10
4685.8960998170987295
 20
315.6138635818505804
 30
0.0
 11
4685.8899444800617857
 21
315.5630221923611884
 31
0.0
  0
ARC
  5
23856
  8
0
 10
4685.8375418289533627
 20
315.5573789717338968
 30
0.0
 40
0.0813606118205117
 50
43.9674872401407484
 51
132.8738391749807022
  0
ARC
  5
23857
  8
0
 10
4685.818332282121446
 20
315.5825235542437781
 30
0.0
 40
0.0499553906524613
 50
136.351478554429292
 51
165.9752795810256885
  0
ARC
  5
23858
  8
0
 10
4685.8257429931409206
 20
315.6111120001100971
 30
0.0
 40
0.0582572092925923
 50
196.4346609631477918
 51
230.5133345947581915
  0
ARC
  5
23859
  8
0
 10
4685.8588780764566764
 20
315.6042489464707046
 30
0.0
 40
0.051621378201068
 50
306.9998369631067021
 51
345.4865810342078021
  0
ARC
  5
2385A
  8
0
 10
4685.8553497797502132
 20
315.5759389249794822
 30
0.0
 40
0.0556672717382415
 50
16.0314568327150404
 51
42.9432670200930104
  0
ARC
  5
2385B
  8
0
 10
4685.8411856938782876
 20
315.6091456974710923
 30
0.0
 40
0.077624677464013
 50
254.2672889782901962
 51
269.4105179089643798
  0
ARC
  5
2385C
  8
0
 10
4685.8395884540695988
 20
315.6091456974710923
 30
0.0
 40
0.077624677464013
 50
270.5894820910356202
 51
285.7327110217096902
  0
ARC
  5
2385D
  8
0
 10
4684.8178321330087783
 20
315.5363674615937839
 30
0.0
 40
0.0199743909573314
 50
26.4908654214398105
 51
90.1326964846320067
  0
ARC
  5
2385E
  8
0
 10
4684.8245576323297428
 20
315.5407567388414805
 30
0.0
 40
0.0120330474472751
 50
335.2191625049617869
 51
22.0654585267048695
  0
ARC
  5
2385F
  8
0
 10
4684.8192064913837385
 20
315.5448118708388847
 30
0.0
 40
0.0186467381479541
 50
282.0193636819300878
 51
330.7937556102115764
  0
ARC
  5
23860
  8
0
 10
4684.8178723661803815
 20
315.5510780225221197
 30
0.0
 40
0.0250533399753439
 50
236.0289359233171922
 51
282.0193636819300878
  0
ARC
  5
23861
  8
0
 10
4684.8117755853827475
 20
315.5420293191684777
 30
0.0
 40
0.0141423469642897
 50
178.9222017080828948
 51
236.0289359233171922
  0
ARC
  5
23862
  8
0
 10
4684.8096814613509196
 20
315.5420687166525795
 30
0.0
 40
0.0120478523673216
 50
118.6410711706136993
 51
178.9222017080795979
  0
ARC
  5
23863
  8
0
 10
4684.8163650902606605
 20
315.5337869572610998
 30
0.0
 40
0.0225995466183604
 50
86.3955671696919438
 51
123.4540826542120016
  0
ARC
  5
23864
  8
0
 10
4684.805098911047935
 20
315.5517381055353781
 30
0.0
 40
0.0401387031439292
 50
187.6987884326011056
 51
211.9390877284351973
  0
ARC
  5
23865
  8
0
 10
4684.811594679391419
 20
315.5557875162393771
 30
0.0
 40
0.0477932921866574
 50
211.9390877284351973
 51
253.0381747622745081
  0
ARC
  5
23866
  8
0
 10
4684.8251929184616529
 20
315.5526717296402239
 30
0.0
 40
0.044525548106371
 50
286.9185075298045149
 51
341.6665832415495743
  0
LINE
  5
23867
  8
0
 10
4684.7596991483242164
 20
315.592648589877399
 30
0.0
 11
4684.7653315750867478
 21
315.546290676729086
 31
0.0
  0
LINE
  5
23868
  8
0
 10
4684.8736137840969604
 20
315.5895077799175965
 30
0.0
 11
4684.8674584470600166
 21
315.5386663904280908
 31
0.0
  0
ARC
  5
23869
  8
0
 10
4684.8150557959506841
 20
315.5330231698010266
 30
0.0
 40
0.0813606118205117
 50
43.9674872401407484
 51
132.8738391749807022
  0
ARC
  5
2386A
  8
0
 10
4684.7958462491196769
 20
315.5581677523107942
 30
0.0
 40
0.0499553906524613
 50
136.351478554429292
 51
165.9752795810256885
  0
ARC
  5
2386B
  8
0
 10
4684.8032569601391515
 20
315.5867561981771132
 30
0.0
 40
0.0582572092925923
 50
196.4346609631477918
 51
230.5133345947581915
  0
ARC
  5
2386C
  8
0
 10
4684.8363920434549073
 20
315.5798931445377207
 30
0.0
 40
0.051621378201068
 50
306.9998369631067021
 51
345.4865810342078021
  0
ARC
  5
2386D
  8
0
 10
4684.8328637467484441
 20
315.5515831230463846
 30
0.0
 40
0.0556672717382415
 50
16.0314568327150404
 51
42.9432670200930104
  0
ARC
  5
2386E
  8
0
 10
4684.818699660875609
 20
315.5847898955379947
 30
0.0
 40
0.077624677464013
 50
254.2672889782901962
 51
269.4105179089643798
  0
ARC
  5
2386F
  8
0
 10
4684.8171024210696487
 20
315.5847898955379947
 30
0.0
 40
0.077624677464013
 50
270.5894820910356202
 51
285.7327110217096902
  0
ARC
  5
23870
  8
0
 10
4685.0435997561871773
 20
315.2370651267789867
 30
0.0
 40
0.0199743909573314
 50
26.4908654214398105
 51
90.1326964846320067
  0
ARC
  5
23871
  8
0
 10
4685.0503252555072322
 20
315.2414544040266833
 30
0.0
 40
0.0120330474472751
 50
335.2191625049617869
 51
22.0654585267048695
  0
ARC
  5
23872
  8
0
 10
4685.0449741145612279
 20
315.2455095360240875
 30
0.0
 40
0.0186467381479541
 50
282.0193636819300878
 51
330.7937556102115764
  0
ARC
  5
23873
  8
0
 10
4685.0436399893578709
 20
315.2517756877073225
 30
0.0
 40
0.0250533399753439
 50
236.0289359233171922
 51
282.0193636819300878
  0
ARC
  5
23874
  8
0
 10
4685.0375432085593275
 20
315.2427269843536806
 30
0.0
 40
0.0141423469642897
 50
178.9222017080828948
 51
236.0289359233171922
  0
ARC
  5
23875
  8
0
 10
4685.035449084528409
 20
315.2427663818377823
 30
0.0
 40
0.0120478523673216
 50
118.6410711706136993
 51
178.9222017080795979
  0
ARC
  5
23876
  8
0
 10
4685.0421327134381499
 20
315.234484622446189
 30
0.0
 40
0.0225995466183604
 50
86.3955671696919438
 51
123.4540826542120016
  0
ARC
  5
23877
  8
0
 10
4685.0308665342254244
 20
315.2524357707206946
 30
0.0
 40
0.0401387031439292
 50
187.6987884326011056
 51
211.9390877284351973
  0
ARC
  5
23878
  8
0
 10
4685.037362302567999
 20
315.2564851814245799
 30
0.0
 40
0.0477932921866574
 50
211.9390877284351973
 51
253.0381747622745081
  0
ARC
  5
23879
  8
0
 10
4685.0509605416382328
 20
315.2533693948254836
 30
0.0
 40
0.044525548106371
 50
286.9185075298045149
 51
341.6665832415495743
  0
LINE
  5
2387A
  8
0
 10
4684.9854667714998868
 20
315.2933462550624881
 30
0.0
 11
4684.9910991982633277
 21
315.2469883419142889
 31
0.0
  0
LINE
  5
2387B
  8
0
 10
4685.0993814072753594
 20
315.2902054451027993
 30
0.0
 11
4685.0932260702384156
 21
315.2393640556134073
 31
0.0
  0
ARC
  5
2387C
  8
0
 10
4685.0408234191281736
 20
315.2337208349861726
 30
0.0
 40
0.0813606118205117
 50
43.9674872401407484
 51
132.8738391749807022
  0
ARC
  5
2387D
  8
0
 10
4685.0216138722962569
 20
315.258865417495997
 30
0.0
 40
0.0499553906524613
 50
136.351478554429292
 51
165.9752795810256885
  0
ARC
  5
2387E
  8
0
 10
4685.0290245833148219
 20
315.287453863362316
 30
0.0
 40
0.0582572092925923
 50
196.4346609631477918
 51
230.5133345947581915
  0
ARC
  5
2387F
  8
0
 10
4685.0621596666305777
 20
315.2805908097229235
 30
0.0
 40
0.051621378201068
 50
306.9998369631067021
 51
345.4865810342078021
  0
ARC
  5
23880
  8
0
 10
4685.058631369925024
 20
315.2522807882315874
 30
0.0
 40
0.0556672717382415
 50
16.0314568327150404
 51
42.9432670200930104
  0
ARC
  5
23881
  8
0
 10
4685.0444672840530984
 20
315.2854875607233112
 30
0.0
 40
0.077624677464013
 50
254.2672889782901962
 51
269.4105179089643798
  0
ARC
  5
23882
  8
0
 10
4685.0428700442462286
 20
315.2854875607233112
 30
0.0
 40
0.077624677464013
 50
270.5894820910356202
 51
285.7327110217096902
  0
ARC
  5
23883
  8
0
 10
4685.4414324965337073
 20
315.2949600791129114
 30
0.0
 40
0.0199743909573314
 50
26.4908654214398105
 51
90.1326964846320067
  0
ARC
  5
23884
  8
0
 10
4685.4481579958537623
 20
315.299349356360608
 30
0.0
 40
0.0120330474472751
 50
335.2191625049617869
 51
22.0654585267048695
  0
ARC
  5
23885
  8
0
 10
4685.4428068549086674
 20
315.3034044883580123
 30
0.0
 40
0.0186467381479541
 50
282.0193636819300878
 51
330.7937556102115764
  0
ARC
  5
23886
  8
0
 10
4685.44147272970622
 20
315.3096706400411904
 30
0.0
 40
0.0250533399753439
 50
236.0289359233171922
 51
282.0193636819300878
  0
ARC
  5
23887
  8
0
 10
4685.4353759489058575
 20
315.300621936687719
 30
0.0
 40
0.0141423469642897
 50
178.9222017080828948
 51
236.0289359233171922
  0
ARC
  5
23888
  8
0
 10
4685.4332818248758485
 20
315.3006613341718207
 30
0.0
 40
0.0120478523673216
 50
118.6410711706136993
 51
178.9222017080795979
  0
ARC
  5
23889
  8
0
 10
4685.43996545378468
 20
315.2923795747802274
 30
0.0
 40
0.0225995466183604
 50
86.3955671696919438
 51
123.4540826542120016
  0
ARC
  5
2388A
  8
0
 10
4685.4286992745728639
 20
315.3103307230546193
 30
0.0
 40
0.0401387031439292
 50
187.6987884326011056
 51
211.9390877284351973
  0
ARC
  5
2388B
  8
0
 10
4685.435195042916348
 20
315.3143801337585046
 30
0.0
 40
0.0477932921866574
 50
211.9390877284351973
 51
253.0381747622745081
  0
ARC
  5
2388C
  8
0
 10
4685.4487932819847629
 20
315.3112643471594083
 30
0.0
 40
0.044525548106371
 50
286.9185075298045149
 51
341.6665832415495743
  0
LINE
  5
2388D
  8
0
 10
4685.3832995118482359
 20
315.3512412073965265
 30
0.0
 11
4685.3889319386098578
 21
315.3048832942483273
 31
0.0
  0
LINE
  5
2388E
  8
0
 10
4685.4972141476218894
 20
315.3481003974367241
 30
0.0
 11
4685.4910588105849456
 21
315.2972590079472752
 31
0.0
  0
ARC
  5
2388F
  8
0
 10
4685.4386561594747036
 20
315.2916157873200973
 30
0.0
 40
0.0813606118205117
 50
43.9674872401407484
 51
132.8738391749807022
  0
ARC
  5
23890
  8
0
 10
4685.4194466126436964
 20
315.3167603698299217
 30
0.0
 40
0.0499553906524613
 50
136.351478554429292
 51
165.9752795810256885
  0
ARC
  5
23891
  8
0
 10
4685.426857323663171
 20
315.3453488156962976
 30
0.0
 40
0.0582572092925923
 50
196.4346609631477918
 51
230.5133345947581915
  0
ARC
  5
23892
  8
0
 10
4685.4599924069780172
 20
315.3384857620569051
 30
0.0
 40
0.051621378201068
 50
306.9998369631067021
 51
345.4865810342078021
  0
ARC
  5
23893
  8
0
 10
4685.4564641102733731
 20
315.3101757405656258
 30
0.0
 40
0.0556672717382415
 50
16.0314568327150404
 51
42.9432670200930104
  0
ARC
  5
23894
  8
0
 10
4685.4423000244014474
 20
315.343382513057179
 30
0.0
 40
0.077624677464013
 50
254.2672889782901962
 51
269.4105179089643798
  0
ARC
  5
23895
  8
0
 10
4685.4407027845927587
 20
315.343382513057179
 30
0.0
 40
0.077624677464013
 50
270.5894820910356202
 51
285.7327110217096902
  0
ARC
  5
23896
  8
0
 10
4685.8397927189662369
 20
315.3666285111929142
 30
0.0
 40
0.0199743909573314
 50
26.4908654214398105
 51
90.1326964846320067
  0
ARC
  5
23897
  8
0
 10
4685.8465182182862918
 20
315.3710177884406107
 30
0.0
 40
0.0120330474472751
 50
335.2191625049617869
 51
22.0654585267048695
  0
ARC
  5
23898
  8
0
 10
4685.841167077341197
 20
315.375072920438015
 30
0.0
 40
0.0186467381479541
 50
282.0193636819300878
 51
330.7937556102115764
  0
ARC
  5
23899
  8
0
 10
4685.8398329521369305
 20
315.3813390721210794
 30
0.0
 40
0.0250533399753439
 50
236.0289359233171922
 51
282.0193636819300878
  0
ARC
  5
2389A
  8
0
 10
4685.8337361713383871
 20
315.3722903687674943
 30
0.0
 40
0.0141423469642897
 50
178.9222017080828948
 51
236.0289359233171922
  0
ARC
  5
2389B
  8
0
 10
4685.8316420473083781
 20
315.3723297662517098
 30
0.0
 40
0.0120478523673216
 50
118.6410711706136993
 51
178.9222017080795979
  0
ARC
  5
2389C
  8
0
 10
4685.8383256762172095
 20
315.3640480068601164
 30
0.0
 40
0.0225995466183604
 50
86.3955671696919438
 51
123.4540826542120016
  0
ARC
  5
2389D
  8
0
 10
4685.8270594970035745
 20
315.3819991551345083
 30
0.0
 40
0.0401387031439292
 50
187.6987884326011056
 51
211.9390877284351973
  0
ARC
  5
2389E
  8
0
 10
4685.8335552653470586
 20
315.3860485658383936
 30
0.0
 40
0.0477932921866574
 50
211.9390877284351973
 51
253.0381747622745081
  0
ARC
  5
2389F
  8
0
 10
4685.8471535044172924
 20
315.3829327792392974
 30
0.0
 40
0.044525548106371
 50
286.9185075298045149
 51
341.6665832415495743
  0
LINE
  5
238A0
  8
0
 10
4685.7816597342798559
 20
315.4229096394764156
 30
0.0
 11
4685.7872921610442063
 21
315.3765517263281026
 31
0.0
  0
LINE
  5
238A1
  8
0
 10
4685.895574370054419
 20
315.4197688295167268
 30
0.0
 11
4685.8894190330156562
 21
315.3689274400272211
 31
0.0
  0
ARC
  5
238A2
  8
0
 10
4685.8370163819072332
 20
315.3632842193999863
 30
0.0
 40
0.0813606118205117
 50
43.9674872401407484
 51
132.8738391749807022
  0
ARC
  5
238A3
  8
0
 10
4685.817806835076226
 20
315.3884288019098108
 30
0.0
 40
0.0499553906524613
 50
136.351478554429292
 51
165.9752795810256885
  0
ARC
  5
238A4
  8
0
 10
4685.825217546094791
 20
315.417017247776073
 30
0.0
 40
0.0582572092925923
 50
196.4346609631477918
 51
230.5133345947581915
  0
ARC
  5
238A5
  8
0
 10
4685.8583526294123658
 20
315.4101541941367941
 30
0.0
 40
0.051621378201068
 50
306.9998369631067021
 51
345.4865810342078021
  0
ARC
  5
238A6
  8
0
 10
4685.8548243327049931
 20
315.3818441726455148
 30
0.0
 40
0.0556672717382415
 50
16.0314568327150404
 51
42.9432670200930104
  0
ARC
  5
238A7
  8
0
 10
4685.840660246832158
 20
315.4150509451371249
 30
0.0
 40
0.077624677464013
 50
254.2672889782901962
 51
269.4105179089643798
  0
ARC
  5
238A8
  8
0
 10
4685.8390630070252882
 20
315.4150509451371249
 30
0.0
 40
0.077624677464013
 50
270.5894820910356202
 51
285.7327110217096902
  0
ARC
  5
238A9
  8
0
 10
4686.0013948871082903
 20
315.2112664174887868
 30
0.0
 40
0.0199743909573314
 50
26.4908654214398105
 51
90.1326964846320067
  0
ARC
  5
238AA
  8
0
 10
4686.0081203864283452
 20
315.2156556947364834
 30
0.0
 40
0.0120330474472751
 50
335.2191625049617869
 51
22.0654585267048695
  0
ARC
  5
238AB
  8
0
 10
4686.0027692454823409
 20
315.2197108267338876
 30
0.0
 40
0.0186467381479541
 50
282.0193636819300878
 51
330.7937556102115764
  0
ARC
  5
238AC
  8
0
 10
4686.001435120278984
 20
315.2259769784171226
 30
0.0
 40
0.0250533399753439
 50
236.0289359233171922
 51
282.0193636819300878
  0
ARC
  5
238AD
  8
0
 10
4685.9953383394804405
 20
315.2169282750635944
 30
0.0
 40
0.0141423469642897
 50
178.9222017080828948
 51
236.0289359233171922
  0
ARC
  5
238AE
  8
0
 10
4685.9932442154504315
 20
315.2169676725476961
 30
0.0
 40
0.0120478523673216
 50
118.6410711706136993
 51
178.9222017080795979
  0
ARC
  5
238AF
  8
0
 10
4685.9999278443601725
 20
315.2086859131561027
 30
0.0
 40
0.0225995466183604
 50
86.3955671696919438
 51
123.4540826542120016
  0
ARC
  5
238B0
  8
0
 10
4685.9886616651456279
 20
315.2266370614304947
 30
0.0
 40
0.0401387031439292
 50
187.6987884326011056
 51
211.9390877284351973
  0
ARC
  5
238B1
  8
0
 10
4685.995157433489112
 20
315.23068647213438
 30
0.0
 40
0.0477932921866574
 50
211.9390877284351973
 51
253.0381747622745081
  0
ARC
  5
238B2
  8
0
 10
4686.0087556725602553
 20
315.2275706855352837
 30
0.0
 40
0.044525548106371
 50
286.9185075298045149
 51
341.6665832415495743
  0
LINE
  5
238B3
  8
0
 10
4685.9432619024219093
 20
315.2675475457722882
 30
0.0
 11
4685.9488943291853502
 21
315.221189632624089
 31
0.0
  0
LINE
  5
238B4
  8
0
 10
4686.0571765381955629
 20
315.2644067358125994
 30
0.0
 11
4686.0510212011586191
 21
315.2135653463232075
 31
0.0
  0
ARC
  5
238B5
  8
0
 10
4685.9986185500492866
 20
315.2079221256959727
 30
0.0
 40
0.0813606118205117
 50
43.9674872401407484
 51
132.8738391749807022
  0
ARC
  5
238B6
  8
0
 10
4685.9794090032182794
 20
315.2330667082057971
 30
0.0
 40
0.0499553906524613
 50
136.351478554429292
 51
165.9752795810256885
  0
ARC
  5
238B7
  8
0
 10
4685.9868197142368444
 20
315.2616551540721161
 30
0.0
 40
0.0582572092925923
 50
196.4346609631477918
 51
230.5133345947581915
  0
ARC
  5
238B8
  8
0
 10
4686.0199547975526002
 20
315.2547921004327236
 30
0.0
 40
0.051621378201068
 50
306.9998369631067021
 51
345.4865810342078021
  0
ARC
  5
238B9
  8
0
 10
4686.0164265008470466
 20
315.2264820789415012
 30
0.0
 40
0.0556672717382415
 50
16.0314568327150404
 51
42.9432670200930104
  0
ARC
  5
238BA
  8
0
 10
4686.0022624149751209
 20
315.2596888514331113
 30
0.0
 40
0.077624677464013
 50
254.2672889782901962
 51
269.4105179089643798
  0
ARC
  5
238BB
  8
0
 10
4686.0006651751673417
 20
315.2596888514331113
 30
0.0
 40
0.077624677464013
 50
270.5894820910356202
 51
285.7327110217096902
  0
ARC
  5
238BC
  8
0
 10
4685.7560789515437136
 20
314.9933381943857853
 30
0.0
 40
0.0199743909573314
 50
26.4908654214398105
 51
90.1326964846320067
  0
ARC
  5
238BD
  8
0
 10
4685.7628044508628591
 20
314.9977274716334819
 30
0.0
 40
0.0120330474472751
 50
335.2191625049617869
 51
22.0654585267048695
  0
ARC
  5
238BE
  8
0
 10
4685.7574533099186738
 20
315.0017826036308861
 30
0.0
 40
0.0186467381479541
 50
282.0193636819300878
 51
330.7937556102115764
  0
ARC
  5
238BF
  8
0
 10
4685.7561191847153168
 20
315.0080487553141211
 30
0.0
 40
0.0250533399753439
 50
236.0289359233171922
 51
282.0193636819300878
  0
ARC
  5
238C0
  8
0
 10
4685.7500224039167733
 20
314.9990000519604791
 30
0.0
 40
0.0141423469642897
 50
178.9222017080828948
 51
236.0289359233171922
  0
ARC
  5
238C1
  8
0
 10
4685.7479282798849454
 20
314.9990394494446946
 30
0.0
 40
0.0120478523673216
 50
118.6410711706136993
 51
178.9222017080795979
  0
ARC
  5
238C2
  8
0
 10
4685.7546119087946863
 20
314.9907576900531012
 30
0.0
 40
0.0225995466183604
 50
86.3955671696919438
 51
123.4540826542120016
  0
ARC
  5
238C3
  8
0
 10
4685.7433457295828703
 20
315.0087088383274931
 30
0.0
 40
0.0401387031439292
 50
187.6987884326011056
 51
211.9390877284351973
  0
ARC
  5
238C4
  8
0
 10
4685.7498414979254449
 20
315.0127582490313785
 30
0.0
 40
0.0477932921866574
 50
211.9390877284351973
 51
253.0381747622745081
  0
ARC
  5
238C5
  8
0
 10
4685.7634397369947692
 20
315.0096424624322822
 30
0.0
 40
0.044525548106371
 50
286.9185075298045149
 51
341.6665832415495743
  0
LINE
  5
238C6
  8
0
 10
4685.6979459668582422
 20
315.0496193226694004
 30
0.0
 11
4685.7035783936207736
 21
315.0032614095210874
 31
0.0
  0
LINE
  5
238C7
  8
0
 10
4685.8118606026318957
 20
315.0464785127095979
 30
0.0
 11
4685.8057052655949519
 21
314.9956371232202059
 31
0.0
  0
ARC
  5
238C8
  8
0
 10
4685.7533026144847099
 20
314.989993902593028
 30
0.0
 40
0.0813606118205117
 50
43.9674872401407484
 51
132.8738391749807022
  0
ARC
  5
238C9
  8
0
 10
4685.7340930676537027
 20
315.0151384851027956
 30
0.0
 40
0.0499553906524613
 50
136.351478554429292
 51
165.9752795810256885
  0
ARC
  5
238CA
  8
0
 10
4685.7415037786731773
 20
315.0437269309691146
 30
0.0
 40
0.0582572092925923
 50
196.4346609631477918
 51
230.5133345947581915
  0
ARC
  5
238CB
  8
0
 10
4685.7746388619880236
 20
315.0368638773297221
 30
0.0
 40
0.051621378201068
 50
306.9998369631067021
 51
345.4865810342078021
  0
ARC
  5
238CC
  8
0
 10
4685.7711105652833794
 20
315.0085538558384997
 30
0.0
 40
0.0556672717382415
 50
16.0314568327150404
 51
42.9432670200930104
  0
ARC
  5
238CD
  8
0
 10
4685.7569464794114538
 20
315.0417606283301097
 30
0.0
 40
0.077624677464013
 50
254.2672889782901962
 51
269.4105179089643798
  0
ARC
  5
238CE
  8
0
 10
4685.755349239602765
 20
315.0417606283301097
 30
0.0
 40
0.077624677464013
 50
270.5894820910356202
 51
285.7327110217096902
  0
ARC
  5
238CF
  8
0
 10
4685.5099186105026092
 20
314.7851266952303035
 30
0.0
 40
0.0199743909573314
 50
26.4908654214398105
 51
90.1326964846320067
  0
ARC
  5
238D0
  8
0
 10
4685.5166441098226642
 20
314.7895159724780001
 30
0.0
 40
0.0120330474472751
 50
335.2191625049617869
 51
22.0654585267048695
  0
ARC
  5
238D1
  8
0
 10
4685.5112929688775694
 20
314.7935711044754044
 30
0.0
 40
0.0186467381479541
 50
282.0193636819300878
 51
330.7937556102115764
  0
ARC
  5
238D2
  8
0
 10
4685.5099588436751219
 20
314.7998372561585825
 30
0.0
 40
0.0250533399753439
 50
236.0289359233171922
 51
282.0193636819300878
  0
ARC
  5
238D3
  8
0
 10
4685.5038620628756689
 20
314.7907885528049974
 30
0.0
 40
0.0141423469642897
 50
178.9222017080828948
 51
236.0289359233171922
  0
ARC
  5
238D4
  8
0
 10
4685.50176793884566
 20
314.7908279502892128
 30
0.0
 40
0.0120478523673216
 50
118.6410711706136993
 51
178.9222017080795979
  0
ARC
  5
238D5
  8
0
 10
4685.5084515677554009
 20
314.7825461908976195
 30
0.0
 40
0.0225995466183604
 50
86.3955671696919438
 51
123.4540826542120016
  0
ARC
  5
238D6
  8
0
 10
4685.4971853885408564
 20
314.8004973391718977
 30
0.0
 40
0.0401387031439292
 50
187.6987884326011056
 51
211.9390877284351973
  0
ARC
  5
238D7
  8
0
 10
4685.5036811568852499
 20
314.8045467498758967
 30
0.0
 40
0.0477932921866574
 50
211.9390877284351973
 51
253.0381747622745081
  0
ARC
  5
238D8
  8
0
 10
4685.5172793959545743
 20
314.8014309632768004
 30
0.0
 40
0.044525548106371
 50
286.9185075298045149
 51
341.6665832415495743
  0
LINE
  5
238D9
  8
0
 10
4685.4517856258180473
 20
314.8414078235139186
 30
0.0
 11
4685.4574180525805787
 21
314.7950499103656057
 31
0.0
  0
LINE
  5
238DA
  8
0
 10
4685.5657002615917008
 20
314.8382670135541161
 30
0.0
 11
4685.559544924552938
 21
314.7874256240647242
 31
0.0
  0
ARC
  5
238DB
  8
0
 10
4685.5071422734454245
 20
314.7817824034374894
 30
0.0
 40
0.0813606118205117
 50
43.9674872401407484
 51
132.8738391749807022
  0
ARC
  5
238DC
  8
0
 10
4685.4879327266153268
 20
314.8069269859473138
 30
0.0
 40
0.0499553906524613
 50
136.351478554429292
 51
165.9752795810256885
  0
ARC
  5
238DD
  8
0
 10
4685.4953434376329824
 20
314.835515431813576
 30
0.0
 40
0.0582572092925923
 50
196.4346609631477918
 51
230.5133345947581915
  0
ARC
  5
238DE
  8
0
 10
4685.5284785209487382
 20
314.8286523781742972
 30
0.0
 40
0.051621378201068
 50
306.9998369631067021
 51
345.4865810342078021
  0
ARC
  5
238DF
  8
0
 10
4685.524950224242275
 20
314.8003423566830179
 30
0.0
 40
0.0556672717382415
 50
16.0314568327150404
 51
42.9432670200930104
  0
ARC
  5
238E0
  8
0
 10
4685.5107861383712589
 20
314.833549129174628
 30
0.0
 40
0.077624677464013
 50
254.2672889782901962
 51
269.4105179089643798
  0
ARC
  5
238E1
  8
0
 10
4685.5091888985625701
 20
314.833549129174628
 30
0.0
 40
0.077624677464013
 50
270.5894820910356202
 51
285.7327110217096902
  0
ARC
  5
238E2
  8
0
 10
4685.0926147535783457
 20
314.9287432404424862
 30
0.0
 40
0.0199743909573314
 50
26.4908654214398105
 51
90.1326964846320067
  0
ARC
  5
238E3
  8
0
 10
4685.0993402528984006
 20
314.9331325176901828
 30
0.0
 40
0.0120330474472751
 50
335.2191625049617869
 51
22.0654585267048695
  0
ARC
  5
238E4
  8
0
 10
4685.0939891119523963
 20
314.9371876496875871
 30
0.0
 40
0.0186467381479541
 50
282.0193636819300878
 51
330.7937556102115764
  0
ARC
  5
238E5
  8
0
 10
4685.0926549867490394
 20
314.943453801370822
 30
0.0
 40
0.0250533399753439
 50
236.0289359233171922
 51
282.0193636819300878
  0
ARC
  5
238E6
  8
0
 10
4685.0865582059495864
 20
314.9344050980171801
 30
0.0
 40
0.0141423469642897
 50
178.9222017080828948
 51
236.0289359233171922
  0
ARC
  5
238E7
  8
0
 10
4685.0844640819195774
 20
314.9344444955012818
 30
0.0
 40
0.0120478523673216
 50
118.6410711706136993
 51
178.9222017080795979
  0
ARC
  5
238E8
  8
0
 10
4685.0911477108311374
 20
314.9261627361096885
 30
0.0
 40
0.0225995466183604
 50
86.3955671696919438
 51
123.4540826542120016
  0
ARC
  5
238E9
  8
0
 10
4685.0798815316156833
 20
314.9441138843840804
 30
0.0
 40
0.0401387031439292
 50
187.6987884326011056
 51
211.9390877284351973
  0
ARC
  5
238EA
  8
0
 10
4685.0863772999600769
 20
314.9481632950880794
 30
0.0
 40
0.0477932921866574
 50
211.9390877284351973
 51
253.0381747622745081
  0
ARC
  5
238EB
  8
0
 10
4685.0999755390312203
 20
314.9450475084889263
 30
0.0
 40
0.044525548106371
 50
286.9185075298045149
 51
341.6665832415495743
  0
LINE
  5
238EC
  8
0
 10
4685.0344817688928742
 20
314.9850243687259876
 30
0.0
 11
4685.0401141956554056
 21
314.9386664555777884
 31
0.0
  0
LINE
  5
238ED
  8
0
 10
4685.1483964046656183
 20
314.9818835587662988
 30
0.0
 11
4685.142241067627765
 21
314.9310421692767932
 31
0.0
  0
ARC
  5
238EE
  8
0
 10
4685.0898384165202515
 20
314.9253989486496721
 30
0.0
 40
0.0813606118205117
 50
43.9674872401407484
 51
132.8738391749807022
  0
ARC
  5
238EF
  8
0
 10
4685.0706288696883348
 20
314.9505435311593828
 30
0.0
 40
0.0499553906524613
 50
136.351478554429292
 51
165.9752795810256885
  0
ARC
  5
238F0
  8
0
 10
4685.0780395807078094
 20
314.9791319770258156
 30
0.0
 40
0.0582572092925923
 50
196.4346609631477918
 51
230.5133345947581915
  0
ARC
  5
238F1
  8
0
 10
4685.1111746640226556
 20
314.972268923386423
 30
0.0
 40
0.051621378201068
 50
306.9998369631067021
 51
345.4865810342078021
  0
ARC
  5
238F2
  8
0
 10
4685.107646367317102
 20
314.9439589018950869
 30
0.0
 40
0.0556672717382415
 50
16.0314568327150404
 51
42.9432670200930104
  0
ARC
  5
238F3
  8
0
 10
4685.0934822814451763
 20
314.9771656743868107
 30
0.0
 40
0.077624677464013
 50
254.2672889782901962
 51
269.4105179089643798
  0
ARC
  5
238F4
  8
0
 10
4685.0918850416383066
 20
314.9771656743868107
 30
0.0
 40
0.077624677464013
 50
270.5894820910356202
 51
285.7327110217096902
  0
ARC
  5
238F5
  8
0
 10
4685.8155001882132638
 20
314.5632332379739751
 30
0.0
 40
0.0199743909573314
 50
26.4908654214398105
 51
90.1326964846320067
  0
ARC
  5
238F6
  8
0
 10
4685.8222256875333187
 20
314.5676225152216716
 30
0.0
 40
0.0120330474472751
 50
335.2191625049617869
 51
22.0654585267048695
  0
ARC
  5
238F7
  8
0
 10
4685.8168745465882239
 20
314.5716776472190759
 30
0.0
 40
0.0186467381479541
 50
282.0193636819300878
 51
330.7937556102115764
  0
ARC
  5
238F8
  8
0
 10
4685.8155404213830479
 20
314.5779437989023108
 30
0.0
 40
0.0250533399753439
 50
236.0289359233171922
 51
282.0193636819300878
  0
ARC
  5
238F9
  8
0
 10
4685.809443640585414
 20
314.5688950955487257
 30
0.0
 40
0.0141423469642897
 50
178.9222017080828948
 51
236.0289359233171922
  0
ARC
  5
238FA
  8
0
 10
4685.807349516555405
 20
314.5689344930328843
 30
0.0
 40
0.0120478523673216
 50
118.6410711706136993
 51
178.9222017080795979
  0
ARC
  5
238FB
  8
0
 10
4685.8140331454642364
 20
314.560652733641291
 30
0.0
 40
0.0225995466183604
 50
86.3955671696919438
 51
123.4540826542120016
  0
ARC
  5
238FC
  8
0
 10
4685.8027669662524204
 20
314.5786038819156261
 30
0.0
 40
0.0401387031439292
 50
187.6987884326011056
 51
211.9390877284351973
  0
ARC
  5
238FD
  8
0
 10
4685.809262734594995
 20
314.5826532926196251
 30
0.0
 40
0.0477932921866574
 50
211.9390877284351973
 51
253.0381747622745081
  0
ARC
  5
238FE
  8
0
 10
4685.8228609736652288
 20
314.5795375060204719
 30
0.0
 40
0.044525548106371
 50
286.9185075298045149
 51
341.6665832415495743
  0
LINE
  5
238FF
  8
0
 10
4685.7573672035268828
 20
314.6195143662575902
 30
0.0
 11
4685.7629996302903237
 21
314.5731564531092772
 31
0.0
  0
LINE
  5
23900
  8
0
 10
4685.8712818393014459
 20
314.6163735562977877
 30
0.0
 11
4685.8651265022626831
 21
314.5655321668083957
 31
0.0
  0
ARC
  5
23901
  8
0
 10
4685.8127238511551695
 20
314.5598889461812178
 30
0.0
 40
0.0813606118205117
 50
43.9674872401407484
 51
132.8738391749807022
  0
ARC
  5
23902
  8
0
 10
4685.7935143043232529
 20
314.5850335286909853
 30
0.0
 40
0.0499553906524613
 50
136.351478554429292
 51
165.9752795810256885
  0
ARC
  5
23903
  8
0
 10
4685.8009250153418179
 20
314.6136219745573044
 30
0.0
 40
0.0582572092925923
 50
196.4346609631477918
 51
230.5133345947581915
  0
ARC
  5
23904
  8
0
 10
4685.8340600986593927
 20
314.6067589209179118
 30
0.0
 40
0.051621378201068
 50
306.9998369631067021
 51
345.4865810342078021
  0
ARC
  5
23905
  8
0
 10
4685.8305318019511105
 20
314.5784488994266894
 30
0.0
 40
0.0556672717382415
 50
16.0314568327150404
 51
42.9432670200930104
  0
ARC
  5
23906
  8
0
 10
4685.8163677160800944
 20
314.6116556719182995
 30
0.0
 40
0.077624677464013
 50
254.2672889782901962
 51
269.4105179089643798
  0
ARC
  5
23907
  8
0
 10
4685.8147704762723151
 20
314.6116556719182995
 30
0.0
 40
0.077624677464013
 50
270.5894820910356202
 51
285.7327110217096902
  0
ARC
  5
23908
  8
0
 10
4686.2609201479472176
 20
316.4231006940544262
 30
0.0
 40
0.0199743909573314
 50
26.4908654214398105
 51
90.1326964846320067
  0
ARC
  5
23909
  8
0
 10
4686.2676456472681821
 20
316.4274899713021227
 30
0.0
 40
0.0120330474472751
 50
335.2191625049617869
 51
22.0654585267048695
  0
ARC
  5
2390A
  8
0
 10
4686.2622945063221778
 20
316.431545103299527
 30
0.0
 40
0.0186467381479541
 50
282.0193636819300878
 51
330.7937556102115764
  0
ARC
  5
2390B
  8
0
 10
4686.2609603811179113
 20
316.4378112549825914
 30
0.0
 40
0.0250533399753439
 50
236.0289359233171922
 51
282.0193636819300878
  0
ARC
  5
2390C
  8
0
 10
4686.2548636003202773
 20
316.42876255162912
 30
0.0
 40
0.0141423469642897
 50
178.9222017080828948
 51
236.0289359233171922
  0
ARC
  5
2390D
  8
0
 10
4686.2527694762902684
 20
316.4288019491132218
 30
0.0
 40
0.0120478523673216
 50
118.6410711706136993
 51
178.9222017080795979
  0
ARC
  5
2390E
  8
0
 10
4686.2594531052000093
 20
316.4205201897216284
 30
0.0
 40
0.0225995466183604
 50
86.3955671696919438
 51
123.4540826542120016
  0
ARC
  5
2390F
  8
0
 10
4686.2481869259863743
 20
316.4384713379960203
 30
0.0
 40
0.0401387031439292
 50
187.6987884326011056
 51
211.9390877284351973
  0
ARC
  5
23910
  8
0
 10
4686.2546826943298584
 20
316.4425207487000193
 30
0.0
 40
0.0477932921866574
 50
211.9390877284351973
 51
253.0381747622745081
  0
ARC
  5
23911
  8
0
 10
4686.2682809334000922
 20
316.4394049621008094
 30
0.0
 40
0.044525548106371
 50
286.9185075298045149
 51
341.6665832415495743
  0
LINE
  5
23912
  8
0
 10
4686.2027871632626557
 20
316.4793818223379276
 30
0.0
 11
4686.2084195900251871
 21
316.4330239091897283
 31
0.0
  0
LINE
  5
23913
  8
0
 10
4686.3167017990363092
 20
316.4762410123781819
 30
0.0
 11
4686.3105464619975464
 21
316.4253996228886763
 31
0.0
  0
ARC
  5
23914
  8
0
 10
4686.2581438108900329
 20
316.4197564022614984
 30
0.0
 40
0.0813606118205117
 50
43.9674872401407484
 51
132.8738391749807022
  0
ARC
  5
23915
  8
0
 10
4686.2389342640581162
 20
316.4449009847713228
 30
0.0
 40
0.0499553906524613
 50
136.351478554429292
 51
165.9752795810256885
  0
ARC
  5
23916
  8
0
 10
4686.2463449750766813
 20
316.4734894306376987
 30
0.0
 40
0.0582572092925923
 50
196.4346609631477918
 51
230.5133345947581915
  0
ARC
  5
23917
  8
0
 10
4686.2794800583933466
 20
316.4666263769983061
 30
0.0
 40
0.051621378201068
 50
306.9998369631067021
 51
345.4865810342078021
  0
ARC
  5
23918
  8
0
 10
4686.2759517616868834
 20
316.4383163555070269
 30
0.0
 40
0.0556672717382415
 50
16.0314568327150404
 51
42.9432670200930104
  0
ARC
  5
23919
  8
0
 10
4686.2617876758149578
 20
316.4715231279985801
 30
0.0
 40
0.077624677464013
 50
254.2672889782901962
 51
269.4105179089643798
  0
ARC
  5
2391A
  8
0
 10
4686.2601904360071785
 20
316.4715231279985801
 30
0.0
 40
0.077624677464013
 50
270.5894820910356202
 51
285.7327110217096902
  0
ARC
  5
2391B
  8
0
 10
4686.2609201479472176
 20
316.0997782527542768
 30
0.0
 40
0.0199743909573314
 50
26.4908654214398105
 51
90.1326964846320067
  0
ARC
  5
2391C
  8
0
 10
4686.2676456472681821
 20
316.1041675300019733
 30
0.0
 40
0.0120330474472751
 50
335.2191625049617869
 51
22.0654585267048695
  0
ARC
  5
2391D
  8
0
 10
4686.2622945063221778
 20
316.1082226619993776
 30
0.0
 40
0.0186467381479541
 50
282.0193636819300878
 51
330.7937556102115764
  0
ARC
  5
2391E
  8
0
 10
4686.2609603811179113
 20
316.1144888136827262
 30
0.0
 40
0.0250533399753439
 50
236.0289359233171922
 51
282.0193636819300878
  0
ARC
  5
2391F
  8
0
 10
4686.2548636003202773
 20
316.1054401103290843
 30
0.0
 40
0.0141423469642897
 50
178.9222017080828948
 51
236.0289359233171922
  0
ARC
  5
23920
  8
0
 10
4686.2527694762902684
 20
316.1054795078132997
 30
0.0
 40
0.0120478523673216
 50
118.6410711706136993
 51
178.9222017080795979
  0
ARC
  5
23921
  8
0
 10
4686.2594531052000093
 20
316.0971977484215927
 30
0.0
 40
0.0225995466183604
 50
86.3955671696919438
 51
123.4540826542120016
  0
ARC
  5
23922
  8
0
 10
4686.2481869259863743
 20
316.1151488966959846
 30
0.0
 40
0.0401387031439292
 50
187.6987884326011056
 51
211.9390877284351973
  0
ARC
  5
23923
  8
0
 10
4686.2546826943298584
 20
316.1191983073999268
 30
0.0
 40
0.0477932921866574
 50
211.9390877284351973
 51
253.0381747622745081
  0
ARC
  5
23924
  8
0
 10
4686.2682809334000922
 20
316.1160825208007736
 30
0.0
 40
0.044525548106371
 50
286.9185075298045149
 51
341.6665832415495743
  0
LINE
  5
23925
  8
0
 10
4686.2027871632626557
 20
316.1560593810378919
 30
0.0
 11
4686.2084195900251871
 21
316.1097014678896926
 31
0.0
  0
LINE
  5
23926
  8
0
 10
4686.3167017990363092
 20
316.1529185710782031
 30
0.0
 11
4686.3105464619975464
 21
316.1020771815888111
 31
0.0
  0
ARC
  5
23927
  8
0
 10
4686.2581438108900329
 20
316.0964339609615195
 30
0.0
 40
0.0813606118205117
 50
43.9674872401407484
 51
132.8738391749807022
  0
ARC
  5
23928
  8
0
 10
4686.2389342640581162
 20
316.1215785434714007
 30
0.0
 40
0.0499553906524613
 50
136.351478554429292
 51
165.9752795810256885
  0
ARC
  5
23929
  8
0
 10
4686.2463449750766813
 20
316.1501669893377198
 30
0.0
 40
0.0582572092925923
 50
196.4346609631477918
 51
230.5133345947581915
  0
ARC
  5
2392A
  8
0
 10
4686.2794800583933466
 20
316.1433039356983272
 30
0.0
 40
0.051621378201068
 50
306.9998369631067021
 51
345.4865810342078021
  0
ARC
  5
2392B
  8
0
 10
4686.2759517616868834
 20
316.1149939142071048
 30
0.0
 40
0.0556672717382415
 50
16.0314568327150404
 51
42.9432670200930104
  0
ARC
  5
2392C
  8
0
 10
4686.2617876758149578
 20
316.1482006866986012
 30
0.0
 40
0.077624677464013
 50
254.2672889782901962
 51
269.4105179089643798
  0
ARC
  5
2392D
  8
0
 10
4686.2601904360071785
 20
316.1482006866986012
 30
0.0
 40
0.077624677464013
 50
270.5894820910356202
 51
285.7327110217096902
  0
ARC
  5
2392E
  8
0
 10
4686.2609204100481293
 20
315.7814375202544284
 30
0.0
 40
0.0199743909573314
 50
26.4908654214398105
 51
90.1326964846320067
  0
ARC
  5
2392F
  8
0
 10
4686.2676459093681842
 20
315.7858267975021249
 30
0.0
 40
0.0120330474472751
 50
335.2191625049617869
 51
22.0654585267048695
  0
ARC
  5
23930
  8
0
 10
4686.2622947684221799
 20
315.7898819294994723
 30
0.0
 40
0.0186467381479541
 50
282.0193636819300878
 51
330.7937556102115764
  0
ARC
  5
23931
  8
0
 10
4686.260960643218823
 20
315.7961480811827073
 30
0.0
 40
0.0250533399753439
 50
236.0289359233171922
 51
282.0193636819300878
  0
ARC
  5
23932
  8
0
 10
4686.2548638624202795
 20
315.7870993778291222
 30
0.0
 40
0.0141423469642897
 50
178.9222017080828948
 51
236.0289359233171922
  0
ARC
  5
23933
  8
0
 10
4686.2527697383902705
 20
315.787138775313224
 30
0.0
 40
0.0120478523673216
 50
118.6410711706136993
 51
178.9222017080795979
  0
ARC
  5
23934
  8
0
 10
4686.2594533673000115
 20
315.7788570159215737
 30
0.0
 40
0.0225995466183604
 50
86.3955671696919438
 51
123.4540826542120016
  0
ARC
  5
23935
  8
0
 10
4686.2481871880872859
 20
315.7968081641960225
 30
0.0
 40
0.0401387031439292
 50
187.6987884326011056
 51
211.9390877284351973
  0
ARC
  5
23936
  8
0
 10
4686.254682956428951
 20
315.8008575749000215
 30
0.0
 40
0.0477932921866574
 50
211.9390877284351973
 51
253.0381747622745081
  0
ARC
  5
23937
  8
0
 10
4686.2682811955000943
 20
315.7977417883008115
 30
0.0
 40
0.044525548106371
 50
286.9185075298045149
 51
341.6665832415495743
  0
LINE
  5
23938
  8
0
 10
4686.2027874253617483
 20
315.8377186485378729
 30
0.0
 11
4686.2084198521251892
 21
315.7913607353896737
 31
0.0
  0
LINE
  5
23939
  8
0
 10
4686.3167020611363114
 20
315.8345778385781841
 30
0.0
 11
4686.3105467240975486
 21
315.7837364490886785
 31
0.0
  0
ARC
  5
2393A
  8
0
 10
4686.2581440729900351
 20
315.7780932284615005
 30
0.0
 40
0.0813606118205117
 50
43.9674872401407484
 51
132.8738391749807022
  0
ARC
  5
2393B
  8
0
 10
4686.2389345261581184
 20
315.803237810971325
 30
0.0
 40
0.0499553906524613
 50
136.351478554429292
 51
165.9752795810256885
  0
ARC
  5
2393C
  8
0
 10
4686.2463452371775929
 20
315.8318262568375872
 30
0.0
 40
0.0582572092925923
 50
196.4346609631477918
 51
230.5133345947581915
  0
ARC
  5
2393D
  8
0
 10
4686.2794803204933487
 20
315.8249632031981946
 30
0.0
 40
0.051621378201068
 50
306.9998369631067021
 51
345.4865810342078021
  0
ARC
  5
2393E
  8
0
 10
4686.2759520237868855
 20
315.7966531817069722
 30
0.0
 40
0.0556672717382415
 50
16.0314568327150404
 51
42.9432670200930104
  0
ARC
  5
2393F
  8
0
 10
4686.2617879379140504
 20
315.8298599541985823
 30
0.0
 40
0.077624677464013
 50
254.2672889782901962
 51
269.4105179089643798
  0
ARC
  5
23940
  8
0
 10
4686.2601906981062712
 20
315.8298599541985823
 30
0.0
 40
0.077624677464013
 50
270.5894820910356202
 51
285.7327110217096902
  0
ARC
  5
23941
  8
0
 10
4686.2609201181476237
 20
315.1545941579544206
 30
0.0
 40
0.0199743909573314
 50
26.4908654214398105
 51
90.1326964846320067
  0
ARC
  5
23942
  8
0
 10
4686.2676456174676787
 20
315.1589834352021171
 30
0.0
 40
0.0120330474472751
 50
335.2191625049617869
 51
22.0654585267048695
  0
ARC
  5
23943
  8
0
 10
4686.2622944765225839
 20
315.1630385671995214
 30
0.0
 40
0.0186467381479541
 50
282.0193636819300878
 51
330.7937556102115764
  0
ARC
  5
23944
  8
0
 10
4686.2609603513192269
 20
315.1693047188825858
 30
0.0
 40
0.0250533399753439
 50
236.0289359233171922
 51
282.0193636819300878
  0
ARC
  5
23945
  8
0
 10
4686.2548635705197739
 20
315.1602560155291144
 30
0.0
 40
0.0141423469642897
 50
178.9222017080828948
 51
236.0289359233171922
  0
ARC
  5
23946
  8
0
 10
4686.252769446489765
 20
315.1602954130132161
 30
0.0
 40
0.0120478523673216
 50
118.6410711706136993
 51
178.9222017080795979
  0
ARC
  5
23947
  8
0
 10
4686.2594530754004154
 20
315.1520136536216228
 30
0.0
 40
0.0225995466183604
 50
86.3955671696919438
 51
123.4540826542120016
  0
ARC
  5
23948
  8
0
 10
4686.2481868961867804
 20
315.1699648018960147
 30
0.0
 40
0.0401387031439292
 50
187.6987884326011056
 51
211.9390877284351973
  0
ARC
  5
23949
  8
0
 10
4686.254682664529355
 20
315.1740142126000137
 30
0.0
 40
0.0477932921866574
 50
211.9390877284351973
 51
253.0381747622745081
  0
ARC
  5
2394A
  8
0
 10
4686.2682809035995888
 20
315.1708984260008037
 30
0.0
 40
0.044525548106371
 50
286.9185075298045149
 51
341.6665832415495743
  0
LINE
  5
2394B
  8
0
 10
4686.2027871334630618
 20
315.210875286237922
 30
0.0
 11
4686.2084195602246837
 21
315.1645173730897227
 31
0.0
  0
LINE
  5
2394C
  8
0
 10
4686.3167017692367153
 20
315.2077344762781763
 30
0.0
 11
4686.3105464321979525
 21
315.1568930867887275
 31
0.0
  0
ARC
  5
2394D
  8
0
 10
4686.25814378108862
 20
315.1512498661614927
 30
0.0
 40
0.0813606118205117
 50
43.9674872401407484
 51
132.8738391749807022
  0
ARC
  5
2394E
  8
0
 10
4686.2389342342594318
 20
315.1763944486713172
 30
0.0
 40
0.0499553906524613
 50
136.351478554429292
 51
165.9752795810256885
  0
ARC
  5
2394F
  8
0
 10
4686.2463449452770874
 20
315.2049828945375793
 30
0.0
 40
0.0582572092925923
 50
196.4346609631477918
 51
230.5133345947581915
  0
ARC
  5
23950
  8
0
 10
4686.2794800285928432
 20
315.1981198408983005
 30
0.0
 40
0.051621378201068
 50
306.9998369631067021
 51
345.4865810342078021
  0
ARC
  5
23951
  8
0
 10
4686.2759517318872895
 20
315.1698098194070212
 30
0.0
 40
0.0556672717382415
 50
16.0314568327150404
 51
42.9432670200930104
  0
ARC
  5
23952
  8
0
 10
4686.2617876460153639
 20
315.2030165918985745
 30
0.0
 40
0.077624677464013
 50
254.2672889782901962
 51
269.4105179089643798
  0
ARC
  5
23953
  8
0
 10
4686.2601904062075846
 20
315.2030165918985745
 30
0.0
 40
0.077624677464013
 50
270.5894820910356202
 51
285.7327110217096902
  0
ARC
  5
23954
  8
0
 10
4686.2609251132480495
 20
314.8826558217543266
 30
0.0
 40
0.0199743909573314
 50
26.4908654214398105
 51
90.1326964846320067
  0
ARC
  5
23955
  8
0
 10
4686.2676506125681044
 20
314.8870450990020231
 30
0.0
 40
0.0120330474472751
 50
335.2191625049617869
 51
22.0654585267048695
  0
ARC
  5
23956
  8
0
 10
4686.2622994716211906
 20
314.8911002309994274
 30
0.0
 40
0.0186467381479541
 50
282.0193636819300878
 51
330.7937556102115764
  0
ARC
  5
23957
  8
0
 10
4686.2609653464187431
 20
314.8973663826827192
 30
0.0
 40
0.0250533399753439
 50
236.0289359233171922
 51
282.0193636819300878
  0
ARC
  5
23958
  8
0
 10
4686.2548685656220187
 20
314.8883176793290772
 30
0.0
 40
0.0141423469642897
 50
178.9222017080828948
 51
236.0289359233171922
  0
ARC
  5
23959
  8
0
 10
4686.2527744415901907
 20
314.888357076813179
 30
0.0
 40
0.0120478523673216
 50
118.6410711706136993
 51
178.9222017080795979
  0
ARC
  5
2395A
  8
0
 10
4686.2594580704999316
 20
314.8800753174215856
 30
0.0
 40
0.0225995466183604
 50
86.3955671696919438
 51
123.4540826542120016
  0
ARC
  5
2395B
  8
0
 10
4686.2481918912862966
 20
314.8980264656959775
 30
0.0
 40
0.0401387031439292
 50
187.6987884326011056
 51
211.9390877284351973
  0
ARC
  5
2395C
  8
0
 10
4686.2546876596288712
 20
314.9020758763999197
 30
0.0
 40
0.0477932921866574
 50
211.9390877284351973
 51
253.0381747622745081
  0
ARC
  5
2395D
  8
0
 10
4686.2682858987000145
 20
314.8989600898008234
 30
0.0
 40
0.044525548106371
 50
286.9185075298045149
 51
341.6665832415495743
  0
LINE
  5
2395E
  8
0
 10
4686.2027921285616685
 20
314.9389369500378848
 30
0.0
 11
4686.2084245553251094
 21
314.8925790368896855
 31
0.0
  0
LINE
  5
2395F
  8
0
 10
4686.3167067643362316
 20
314.9357961400780823
 30
0.0
 11
4686.3105514272992878
 21
314.8849547505886903
 31
0.0
  0
ARC
  5
23960
  8
0
 10
4686.2581487761899552
 20
314.8793115299615124
 30
0.0
 40
0.0813606118205117
 50
43.9674872401407484
 51
132.8738391749807022
  0
ARC
  5
23961
  8
0
 10
4686.2389392293571291
 20
314.90445611247128
 30
0.0
 40
0.0499553906524613
 50
136.351478554429292
 51
165.9752795810256885
  0
ARC
  5
23962
  8
0
 10
4686.2463499403766036
 20
314.9330445583377127
 30
0.0
 40
0.0582572092925923
 50
196.4346609631477918
 51
230.5133345947581915
  0
ARC
  5
23963
  8
0
 10
4686.2794850236932689
 20
314.9261815046983202
 30
0.0
 40
0.051621378201068
 50
306.9998369631067021
 51
345.4865810342078021
  0
ARC
  5
23964
  8
0
 10
4686.2759567269858962
 20
314.8978714832069841
 30
0.0
 40
0.0556672717382415
 50
16.0314568327150404
 51
42.9432670200930104
  0
ARC
  5
23965
  8
0
 10
4686.2617926411139706
 20
314.9310782556987078
 30
0.0
 40
0.077624677464013
 50
254.2672889782901962
 51
269.4105179089643798
  0
ARC
  5
23966
  8
0
 10
4686.2601954013071008
 20
314.9310782556987078
 30
0.0
 40
0.077624677464013
 50
270.5894820910356202
 51
285.7327110217096902
  0
ARC
  5
23967
  8
0
 10
4686.2609201479472176
 20
314.6180872798544215
 30
0.0
 40
0.0199743909573314
 50
26.4908654214398105
 51
90.1326964846320067
  0
ARC
  5
23968
  8
0
 10
4686.2676456472681821
 20
314.6224765571020043
 30
0.0
 40
0.0120330474472751
 50
335.2191625049617869
 51
22.0654585267048695
  0
ARC
  5
23969
  8
0
 10
4686.2622945063221778
 20
314.6265316890995223
 30
0.0
 40
0.0186467381479541
 50
282.0193636819300878
 51
330.7937556102115764
  0
ARC
  5
2396A
  8
0
 10
4686.2609603811179113
 20
314.6327978407827004
 30
0.0
 40
0.0250533399753439
 50
236.0289359233171922
 51
282.0193636819300878
  0
ARC
  5
2396B
  8
0
 10
4686.2548636003202773
 20
314.6237491374291153
 30
0.0
 40
0.0141423469642897
 50
178.9222017080828948
 51
236.0289359233171922
  0
ARC
  5
2396C
  8
0
 10
4686.2527694762902684
 20
314.6237885349132171
 30
0.0
 40
0.0120478523673216
 50
118.6410711706136993
 51
178.9222017080795979
  0
ARC
  5
2396D
  8
0
 10
4686.2594531052000093
 20
314.6155067755216237
 30
0.0
 40
0.0225995466183604
 50
86.3955671696919438
 51
123.4540826542120016
  0
ARC
  5
2396E
  8
0
 10
4686.2481869259863743
 20
314.6334579237960156
 30
0.0
 40
0.0401387031439292
 50
187.6987884326011056
 51
211.9390877284351973
  0
ARC
  5
2396F
  8
0
 10
4686.2546826943298584
 20
314.6375073345000146
 30
0.0
 40
0.0477932921866574
 50
211.9390877284351973
 51
253.0381747622745081
  0
ARC
  5
23970
  8
0
 10
4686.2682809334000922
 20
314.6343915479008047
 30
0.0
 40
0.044525548106371
 50
286.9185075298045149
 51
341.6665832415495743
  0
LINE
  5
23971
  8
0
 10
4686.2027871632626557
 20
314.6743684081379229
 30
0.0
 11
4686.2084195900251871
 21
314.6280104949897236
 31
0.0
  0
LINE
  5
23972
  8
0
 10
4686.3167017990363092
 20
314.6712275981781772
 30
0.0
 11
4686.3105464619975464
 21
314.6203862086887284
 31
0.0
  0
ARC
  5
23973
  8
0
 10
4686.2581438108900329
 20
314.6147429880616073
 30
0.0
 40
0.0813606118205117
 50
43.9674872401407484
 51
132.8738391749807022
  0
ARC
  5
23974
  8
0
 10
4686.2389342640581162
 20
314.6398875705713181
 30
0.0
 40
0.0499553906524613
 50
136.351478554429292
 51
165.9752795810256885
  0
ARC
  5
23975
  8
0
 10
4686.2463449750766813
 20
314.6684760164375803
 30
0.0
 40
0.0582572092925923
 50
196.4346609631477918
 51
230.5133345947581915
  0
ARC
  5
23976
  8
0
 10
4686.2794800583933466
 20
314.6616129627981877
 30
0.0
 40
0.051621378201068
 50
306.9998369631067021
 51
345.4865810342078021
  0
ARC
  5
23977
  8
0
 10
4686.2759517616868834
 20
314.6333029413070221
 30
0.0
 40
0.0556672717382415
 50
16.0314568327150404
 51
42.9432670200930104
  0
ARC
  5
23978
  8
0
 10
4686.2617876758149578
 20
314.6665097137986891
 30
0.0
 40
0.077624677464013
 50
254.2672889782901962
 51
269.4105179089643798
  0
ARC
  5
23979
  8
0
 10
4686.2601904360071785
 20
314.6665097137986891
 30
0.0
 40
0.077624677464013
 50
270.5894820910356202
 51
285.7327110217096902
  0
LINE
  5
2397A
  8
0
 10
4686.7159890559114501
 20
318.2786284985841121
 30
0.0
 11
4686.7159890559114501
 21
317.8781473866446277
 31
0.0
  0
LINE
  5
2397B
  8
0
 10
4686.985201654310913
 20
317.6282577955327042
 30
0.0
 11
4686.985201654310913
 21
317.4559417929327196
 31
0.0
  0
ARC
  5
2397C
  8
0
 10
4686.261268441186985
 20
317.9173235862926958
 30
0.0
 40
0.6843546556356865
 50
81.5704244273585459
 51
90.0233907922649763
  0
ARC
  5
2397D
  8
0
 10
4686.2708862246299759
 20
317.982225413755998
 30
0.0
 40
0.618744069856105
 50
60.0634230845653292
 51
81.5703951611538685
  0
ARC
  5
2397E
  8
0
 10
4686.386086728572991
 20
318.1822696006393016
 30
0.0
 40
0.3879003287359626
 50
31.7358444321030397
 51
60.0634230845653292
  0
ARC
  5
2397F
  8
0
 10
4686.4873263083409256
 20
318.2450736647497251
 30
0.0
 40
0.2687627384715572
 50
358.4370437950191217
 51
31.7014508000504591
  0
LINE
  5
23980
  8
0
 10
4686.7559890559114137
 20
318.2377430673088838
 30
0.0
 11
4686.7559890559114137
 21
318.1623240897965275
 31
0.0
  0
ARC
  5
23981
  8
0
 10
4686.2337660919229165
 20
318.205978683429521
 30
0.0
 40
0.5240444138253179
 50
336.9545824175667121
 51
355.2215388224126968
  0
ARC
  5
23982
  8
0
 10
4686.6908152658943436
 20
318.2380499688184727
 30
0.0
 40
0.0477528719741811
 50
28.1183350984491014
 51
58.1856874054978235
  0
ARC
  5
23983
  8
0
 10
4686.5478989025632472
 20
318.1616809541549742
 30
0.0
 40
0.2097939572228097
 50
10.7450231946246895
 51
28.1183350984491014
  0
ARC
  5
23984
  8
0
 10
4686.6407827054799782
 20
318.1793071364190837
 30
0.0
 40
0.1152525210924823
 50
1.6218472843673859
 51
10.7450231946246895
  0
ARC
  5
23985
  8
0
 10
4686.2603615684884062
 20
316.8298362479291086
 30
0.0
 40
1.15302517878175
 50
89.1066348402754187
 51
89.9688190826646661
  0
ARC
  5
23986
  8
0
 10
4686.2615510245950645
 20
316.9061155735427064
 30
0.0
 40
1.0767365798832611
 50
79.113014462484216
 51
89.1066348402754187
  0
ARC
  5
23987
  8
0
 10
4686.2821903442873008
 20
317.0134253062157086
 30
0.0
 40
0.9674600488087115
 50
64.092332348480781
 51
79.113014462484216
  0
ARC
  5
23988
  8
0
 10
4686.3912566735825749
 20
317.2379620673016234
 30
0.0
 40
0.717835888789818
 50
48.0643419410580393
 51
64.092332348480781
  0
ARC
  5
23989
  8
0
 10
4686.5026218049915769
 20
317.3619252429052153
 30
0.0
 40
0.5511953733103149
 50
28.8940086864389087
 51
48.0643419410580393
  0
ARC
  5
2398A
  8
0
 10
4686.2120034892532203
 20
309.6588704239412095
 30
0.0
 40
7.6873794342709312
 50
88.739915579352953
 51
89.6348970094342548
  0
ARC
  5
2398B
  8
0
 10
4686.2786141508386208
 20
314.7156509746880033
 30
0.0
 40
2.6307351597577489
 50
84.920599410812855
 51
87.7683269388505352
  0
ARC
  5
2398C
  8
0
 10
4686.2792817094914426
 20
314.518923963781674
 30
0.0
 40
2.8266883502836899
 50
79.9314500866283169
 51
85.2871244545950731
  0
ARC
  5
2398D
  8
0
 10
4686.3134082354663406
 20
314.6618242117007185
 30
0.0
 40
2.6800365100942778
 50
66.5252037859673635
 51
80.1156972656351343
  0
ARC
  5
2398E
  8
0
 10
4686.5246604738586029
 20
315.1353440288060028
 30
0.0
 40
2.1615620899460031
 50
50.347825760164703
 51
66.661540406132076
  0
ARC
  5
2398F
  8
0
 10
4686.9129139813458096
 20
315.5909484539167238
 30
0.0
 40
1.563044525153414
 50
26.3056449260695899
 51
50.648272995593473
  0
ARC
  5
23990
  8
0
 10
4687.1003035117892068
 20
315.7284540673122137
 30
0.0
 40
1.3347298093823841
 50
0.813970278202364
 51
24.5787589584742996
  0
ARC
  5
23991
  8
0
 10
4687.2617100677925919
 20
315.7668316507832742
 30
0.0
 40
1.173349227032195
 50
341.8510849158499241
 51
359.0518334495428121
  0
ARC
  5
23992
  8
0
 10
4686.9393491125229048
 20
315.9124148741867089
 30
0.0
 40
1.525491766900986
 50
304.6723177399704809
 51
340.4263678276627729
  0
ARC
  5
23993
  8
0
 10
4686.3935766011409214
 20
316.6584177908928837
 30
0.0
 40
2.44962120273388
 50
281.2382977068148193
 51
305.2445752869672901
  0
ARC
  5
23994
  8
0
 10
4686.3888543113753258
 20
316.3093798795790121
 30
0.0
 40
2.1094479959379902
 50
273.4457951805143239
 51
283.2121272130991088
  0
ARC
  5
23995
  8
0
 10
4685.0819547377977869
 20
338.013958095414182
 30
0.0
 40
23.8533368390756415
 50
272.8331980827435927
 51
273.4457951805143239
  0
ARC
  5
23996
  8
0
 10
4686.2302590832541682
 20
313.3750575509400846
 30
0.0
 40
3.9907206507527202
 50
89.2110879201802334
 51
89.5587976977956259
  0
ARC
  5
23997
  8
0
 10
4686.2608175631548875
 20
316.2725381208172166
 30
0.0
 40
1.093133884020254
 50
87.4734393006850155
 51
88.7215909291814455
  0
ARC
  5
23998
  8
0
 10
4686.2615934180030308
 20
316.2901210710381861
 30
0.0
 40
1.075533824667575
 50
80.3512296952355456
 51
87.4734393006850155
  0
ARC
  5
23999
  8
0
 10
4686.272945057364268
 20
316.3568903068155009
 30
0.0
 40
1.007806499587671
 50
76.3083851874843901
 51
80.3512296952355456
  0
ARC
  5
2399A
  8
0
 10
4686.2662368272040112
 20
316.4169308906380138
 30
0.0
 40
1.0011245235721831
 50
63.3658931310113474
 51
90.3003387858642412
  0
ARC
  5
2399B
  8
0
 10
4686.6272233946820052
 20
317.2584868138749812
 30
0.0
 40
0.4088238044955476
 50
357.784525978517479
 51
28.880413408641779
  0
ARC
  5
2399C
  8
0
 10
4686.2610437774719685
 20
314.2840939925727071
 30
0.0
 40
2.5155068915551748
 50
89.4542007627754572
 51
90.0012463947248591
  0
ARC
  5
2399D
  8
0
 10
4686.2613341340802435
 20
314.2872808306133265
 30
0.0
 40
2.5123174456718211
 50
84.2252620702440851
 51
89.4601312042603638
  0
ARC
  5
2399E
  8
0
 10
4686.2690977311231109
 20
314.3640486641107827
 30
0.0
 40
2.4351580411967371
 50
75.9557980086631801
 51
84.2252620702440851
  0
ARC
  5
2399F
  8
0
 10
4686.3425567065396535
 20
314.6577112003749903
 30
0.0
 40
2.1324471126290439
 50
60.6785102631085778
 51
75.9557980086631801
  0
ARC
  5
239A0
  8
0
 10
4686.6368269897729988
 20
315.1816341370972054
 30
0.0
 40
1.531539263439271
 50
42.48266151140745
 51
60.6785102631085778
  0
ARC
  5
239A1
  8
0
 10
4686.9520624150718504
 20
315.4656586947889991
 30
0.0
 40
1.1072433927674219
 50
18.9847341213663299
 51
42.66049828453
  0
ARC
  5
239A2
  8
0
 10
4687.1556020092566541
 20
315.5396089681432841
 30
0.0
 40
0.8907257922275859
 50
356.0451175424840926
 51
18.7458929022811915
  0
ARC
  5
239A3
  8
0
 10
4686.0064917402787614
 20
320.6431334718221819
 30
0.0
 40
6.3788302952041942
 50
272.2865466941163959
 51
274.2690804330146079
  0
ARC
  5
239A4
  8
0
 10
4686.2980428185874189
 20
316.5347672172276248
 30
0.0
 40
2.2602100269875272
 50
274.6515360780970809
 51
296.2450654324669017
  0
ARC
  5
239A5
  8
0
 10
4686.5867560031729226
 20
316.051901090258923
 30
0.0
 40
1.7000567674028011
 50
294.714090439655422
 51
325.107346394543697
  0
ARC
  5
239A6
  8
0
 10
4687.0992970943088949
 20
315.6558935749965826
 30
0.0
 40
1.0535998300354219
 50
326.827184462357593
 51
350.289053976502089
  0
ARC
  5
239A7
  8
0
 10
4687.1923798494162838
 20
315.6322859776083192
 30
0.0
 40
0.9578986575171743
 50
350.7417519807883082
 51
19.5343739143557116
  0
ARC
  5
239A8
  8
0
 10
4686.9161690610189908
 20
315.5134299635193997
 30
0.0
 40
1.2581067880274259
 50
20.4296398413346516
 51
51.1861199303741827
  0
ARC
  5
239A9
  8
0
 10
4686.4732027591617225
 20
314.9857390247051967
 30
0.0
 40
1.946977507922093
 50
50.7623391340794967
 51
71.4286461266326143
  0
ARC
  5
239AA
  8
0
 10
4686.2690049595457822
 20
314.4131188959873953
 30
0.0
 40
2.5548385670782432
 50
71.1776133094786303
 51
90.1797679926737743
  0
ARC
  5
239AB
  8
0
 10
4687.1117976019750131
 20
315.5415099923783941
 30
0.0
 40
0.9345576789852628
 50
335.1598592138493018
 51
356.1140725923319792
  0
ARC
  5
239AC
  8
0
 10
4686.9237372482593855
 20
315.62856600981371
 30
0.0
 40
1.1417905113541009
 50
319.0491475598188913
 51
335.1598592138493018
  0
ARC
  5
239AD
  8
0
 10
4686.4988450922928678
 20
316.0223938755482891
 30
0.0
 40
1.72092349763373
 50
303.067458115155091
 51
318.4176207236944833
  0
ARC
  5
239AE
  8
0
 10
4686.9946262377743551
 20
315.5380921630746229
 30
0.0
 40
0.9051387295664511
 50
356.2044218270535225
 51
50.7467947299301798
  0
ARC
  5
239AF
  8
0
 10
4686.3547733671894093
 20
314.8432622518809012
 30
0.0
 40
1.848894231147852
 50
49.0166512603726403
 51
75.839318534526285
  0
ARC
  5
239B0
  8
0
 10
4686.2319465491837036
 20
313.891543380903272
 30
0.0
 40
2.804049853367649
 50
78.1639479604127843
 51
89.4065573362082517
  0
ARC
  5
239B1
  8
0
 10
4687.0030888245337337
 20
315.5708084472461792
 30
0.0
 40
0.8994735184045367
 50
327.3537575969123168
 51
354.0888256639801739
  0
ARC
  5
239B2
  8
0
 10
4686.7253304542209662
 20
315.7487583586707274
 30
0.0
 40
1.2293460441699591
 50
302.8409997076864215
 51
327.3537575969123168
  0
ARC
  5
239B3
  8
0
 10
4686.3329744137008674
 20
316.3566200498676722
 30
0.0
 40
1.9528369550720139
 50
282.0048676485087071
 51
302.8409997076864215
  0
ARC
  5
239B4
  8
0
 10
4686.2601147373643471
 20
316.6992547397534281
 30
0.0
 40
2.3031326346757059
 50
270.0217507073455749
 51
282.0048676485087071
  0
ARC
  5
239B5
  8
0
 10
4686.7067526538612583
 20
316.506585173798328
 30
0.0
 40
0.0199743909573314
 50
89.8673035153680075
 51
153.5091345785602073
  0
ARC
  5
239B6
  8
0
 10
4686.7000271545421128
 20
316.5109744510460246
 30
0.0
 40
0.0120330474472751
 50
157.9345414732950985
 51
204.7808374950382131
  0
ARC
  5
239B7
  8
0
 10
4686.7053782954881171
 20
316.515029583043372
 30
0.0
 40
0.0186467381479541
 50
209.2062443897883952
 51
257.9806363180700259
  0
ARC
  5
239B8
  8
0
 10
4686.7067124206896551
 20
316.5212957347267206
 30
0.0
 40
0.0250533399753439
 50
257.9806363180700259
 51
303.9710640766826941
  0
ARC
  5
239B9
  8
0
 10
4686.7128092014891081
 20
316.5122470313730219
 30
0.0
 40
0.0141423469642897
 50
303.9710640766826941
 51
1.0777982919170981
  0
ARC
  5
239BA
  8
0
 10
4686.7149033255200266
 20
316.5122864288571805
 30
0.0
 40
0.0120478523673216
 50
1.077798291920355
 51
61.3589288293862865
  0
ARC
  5
239BB
  8
0
 10
4686.7082196966102856
 20
316.5040046694655871
 30
0.0
 40
0.0225995466183604
 50
56.5459173457879487
 51
93.6044328303080846
  0
ARC
  5
239BC
  8
0
 10
4686.7194858758230112
 20
316.521955817739979
 30
0.0
 40
0.0401387031439292
 50
328.0609122715648027
 51
352.3012115673989229
  0
ARC
  5
239BD
  8
0
 10
4686.7129901074804366
 20
316.5260052284439212
 30
0.0
 40
0.0477932921866574
 50
286.9618252377255203
 51
328.0609122715620174
  0
ARC
  5
239BE
  8
0
 10
4686.6993918684102027
 20
316.5228894418448249
 30
0.0
 40
0.044525548106371
 50
198.3334167584503973
 51
253.0814924701955135
  0
LINE
  5
239BF
  8
0
 10
4686.7648856385476392
 20
316.5628663020818863
 30
0.0
 11
4686.7592532117851079
 21
316.5165083889335733
 31
0.0
  0
LINE
  5
239C0
  8
0
 10
4686.6509710027739857
 20
316.5597254921220838
 30
0.0
 11
4686.657126339811839
 21
316.5088841026328055
 31
0.0
  0
ARC
  5
239C1
  8
0
 10
4686.7095289909193525
 20
316.5032408820055139
 30
0.0
 40
0.0813606118205117
 50
47.1261608250192765
 51
136.0325127598592019
  0
ARC
  5
239C2
  8
0
 10
4686.7287385377512692
 20
316.5283854645152815
 30
0.0
 40
0.0499553906524613
 50
14.0247204189743204
 51
43.6485214455706725
  0
ARC
  5
239C3
  8
0
 10
4686.7213278267327041
 20
316.5569739103816005
 30
0.0
 40
0.0582572092925923
 50
309.4866654052418085
 51
343.5653390368522082
  0
ARC
  5
239C4
  8
0
 10
4686.6881927434160389
 20
316.5501108567422079
 30
0.0
 40
0.051621378201068
 50
194.5134189657921979
 51
233.0001630368932979
  0
ARC
  5
239C5
  8
0
 10
4686.6917210401234115
 20
316.5218008352509855
 30
0.0
 40
0.0556672717382415
 50
137.0567329799069967
 51
163.9685431672849063
  0
ARC
  5
239C6
  8
0
 10
4686.7058851259944277
 20
316.5550076077427093
 30
0.0
 40
0.077624677464013
 50
270.5894820910356202
 51
285.7327110217096902
  0
ARC
  5
239C7
  8
0
 10
4686.7074823658022069
 20
316.5550076077427093
 30
0.0
 40
0.077624677464013
 50
254.2672889782901962
 51
269.4105179089643798
  0
ARC
  5
239C8
  8
0
 10
4687.0124665090988856
 20
316.2496313740759888
 30
0.0
 40
0.0199743909573314
 50
89.8673035153680075
 51
153.5091345785602073
  0
ARC
  5
239C9
  8
0
 10
4687.0057410097797401
 20
316.2540206513235717
 30
0.0
 40
0.0120330474472751
 50
157.9345414732950985
 51
204.7808374950382131
  0
ARC
  5
239CA
  8
0
 10
4687.0110921507248349
 20
316.2580757833210896
 30
0.0
 40
0.0186467381479541
 50
209.2062443897883952
 51
257.9806363180700259
  0
ARC
  5
239CB
  8
0
 10
4687.0124262759291014
 20
316.2643419350043246
 30
0.0
 40
0.0250533399753439
 50
257.9806363180700259
 51
303.9710640766826941
  0
ARC
  5
239CC
  8
0
 10
4687.0185230567267354
 20
316.2552932316506258
 30
0.0
 40
0.0141423469642897
 50
303.9710640766826941
 51
1.0777982919170981
  0
ARC
  5
239CD
  8
0
 10
4687.0206171807585633
 20
316.2553326291347844
 30
0.0
 40
0.0120478523673216
 50
1.077798291920355
 51
61.3589288293862865
  0
ARC
  5
239CE
  8
0
 10
4687.0139335518479129
 20
316.247050869743191
 30
0.0
 40
0.0225995466183604
 50
56.5459173457879487
 51
93.6044328303080846
  0
ARC
  5
239CF
  8
0
 10
4687.0251997310615479
 20
316.2650020180175829
 30
0.0
 40
0.0401387031439292
 50
328.0609122715648027
 51
352.3012115673989229
  0
ARC
  5
239D0
  8
0
 10
4687.0187039627189733
 20
316.2690514287215251
 30
0.0
 40
0.0477932921866574
 50
286.9618252377255203
 51
328.0609122715620174
  0
ARC
  5
239D1
  8
0
 10
4687.00510572364783
 20
316.265935642122372
 30
0.0
 40
0.044525548106371
 50
198.3334167584503973
 51
253.0814924701955135
  0
LINE
  5
239D2
  8
0
 10
4687.070599493786176
 20
316.3059125023594902
 30
0.0
 11
4687.0649670670236446
 21
316.2595545892111772
 31
0.0
  0
LINE
  5
239D3
  8
0
 10
4686.9566848580107035
 20
316.3027716923996877
 30
0.0
 11
4686.9628401950485568
 21
316.2519303029104094
 31
0.0
  0
ARC
  5
239D4
  8
0
 10
4687.0152428461578893
 20
316.2462870822831178
 30
0.0
 40
0.0813606118205117
 50
47.1261608250192765
 51
136.0325127598592019
  0
ARC
  5
239D5
  8
0
 10
4687.034452392989806
 20
316.2714316647928854
 30
0.0
 40
0.0499553906524613
 50
14.0247204189743204
 51
43.6485214455706725
  0
ARC
  5
239D6
  8
0
 10
4687.0270416819712409
 20
316.3000201106592044
 30
0.0
 40
0.0582572092925923
 50
309.4866654052418085
 51
343.5653390368522082
  0
ARC
  5
239D7
  8
0
 10
4686.9939065986545756
 20
316.2931570570199256
 30
0.0
 40
0.051621378201068
 50
194.5134189657921979
 51
233.0001630368932979
  0
ARC
  5
239D8
  8
0
 10
4686.9974348953619483
 20
316.2648470355285895
 30
0.0
 40
0.0556672717382415
 50
137.0567329799069967
 51
163.9685431672849063
  0
ARC
  5
239D9
  8
0
 10
4687.0115989812329644
 20
316.2980538080203132
 30
0.0
 40
0.077624677464013
 50
270.5894820910356202
 51
285.7327110217096902
  0
ARC
  5
239DA
  8
0
 10
4687.0131962210398342
 20
316.2980538080203132
 30
0.0
 40
0.077624677464013
 50
254.2672889782901962
 51
269.4105179089643798
  0
ARC
  5
239DB
  8
0
 10
4686.7672053839169166
 20
315.9790921728064745
 30
0.0
 40
0.0199743909573314
 50
89.8673035153680075
 51
153.5091345785602073
  0
ARC
  5
239DC
  8
0
 10
4686.7604798845977712
 20
315.9834814500542279
 30
0.0
 40
0.0120330474472751
 50
157.9345414732950985
 51
204.7808374950382131
  0
ARC
  5
239DD
  8
0
 10
4686.7658310255419565
 20
315.9875365820515754
 30
0.0
 40
0.0186467381479541
 50
209.2062443897883952
 51
257.9806363180700259
  0
ARC
  5
239DE
  8
0
 10
4686.7671651507462229
 20
315.9938027337348103
 30
0.0
 40
0.0250533399753439
 50
257.9806363180700259
 51
303.9710640766826941
  0
ARC
  5
239DF
  8
0
 10
4686.7732619315438569
 20
315.9847540303812252
 30
0.0
 40
0.0141423469642897
 50
303.9710640766826941
 51
1.0777982919170981
  0
ARC
  5
239E0
  8
0
 10
4686.7753560555756849
 20
315.9847934278653838
 30
0.0
 40
0.0120478523673216
 50
1.077798291920355
 51
61.3589288293862865
  0
ARC
  5
239E1
  8
0
 10
4686.7686724266659439
 20
315.9765116684737905
 30
0.0
 40
0.0225995466183604
 50
56.5459173457879487
 51
93.6044328303080846
  0
ARC
  5
239E2
  8
0
 10
4686.77993860587776
 20
315.9944628167481255
 30
0.0
 40
0.0401387031439292
 50
328.0609122715648027
 51
352.3012115673989229
  0
ARC
  5
239E3
  8
0
 10
4686.7734428375360949
 20
315.9985122274521245
 30
0.0
 40
0.0477932921866574
 50
286.9618252377255203
 51
328.0609122715620174
  0
ARC
  5
239E4
  8
0
 10
4686.7598445984658611
 20
315.9953964408530283
 30
0.0
 40
0.044525548106371
 50
198.3334167584503973
 51
253.0814924701955135
  0
LINE
  5
239E5
  8
0
 10
4686.8253383686032976
 20
316.0353733010900896
 30
0.0
 11
4686.8197059418398567
 21
315.9890153879417767
 31
0.0
  0
LINE
  5
239E6
  8
0
 10
4686.711423732829644
 20
316.0322324911302871
 30
0.0
 11
4686.7175790698665878
 21
315.9813911016408952
 31
0.0
  0
ARC
  5
239E7
  8
0
 10
4686.7699817209759203
 20
315.9757478810137172
 30
0.0
 40
0.0813606118205117
 50
47.1261608250192765
 51
136.0325127598592019
  0
ARC
  5
239E8
  8
0
 10
4686.7891912678069275
 20
316.0008924635234848
 30
0.0
 40
0.0499553906524613
 50
14.0247204189743204
 51
43.6485214455706725
  0
ARC
  5
239E9
  8
0
 10
4686.781780556787453
 20
316.0294809093898039
 30
0.0
 40
0.0582572092925923
 50
309.4866654052418085
 51
343.5653390368522082
  0
ARC
  5
239EA
  8
0
 10
4686.7486454734716972
 20
316.0226178557504113
 30
0.0
 40
0.051621378201068
 50
194.5134189657921979
 51
233.0001630368932979
  0
ARC
  5
239EB
  8
0
 10
4686.7521737701790698
 20
315.9943078342591889
 30
0.0
 40
0.0556672717382415
 50
137.0567329799069967
 51
163.9685431672849063
  0
ARC
  5
239EC
  8
0
 10
4686.766337856050086
 20
316.027514606750799
 30
0.0
 40
0.077624677464013
 50
270.5894820910356202
 51
285.7327110217096902
  0
ARC
  5
239ED
  8
0
 10
4686.7679350958578652
 20
316.027514606750799
 30
0.0
 40
0.077624677464013
 50
254.2672889782901962
 51
269.4105179089643798
  0
ARC
  5
239EE
  8
0
 10
4687.0804537671992875
 20
315.6729754952319809
 30
0.0
 40
0.0199743909573314
 50
89.8673035153680075
 51
153.5091345785602073
  0
ARC
  5
239EF
  8
0
 10
4687.0737282678792326
 20
315.6773647724797911
 30
0.0
 40
0.0120330474472751
 50
157.9345414732950985
 51
204.7808374950382131
  0
ARC
  5
239F0
  8
0
 10
4687.0790794088252369
 20
315.6814199044771954
 30
0.0
 40
0.0186467381479541
 50
209.2062443897883952
 51
257.9806363180700259
  0
ARC
  5
239F1
  8
0
 10
4687.0804135340285939
 20
315.6876860561603166
 30
0.0
 40
0.0250533399753439
 50
257.9806363180700259
 51
303.9710640766826941
  0
ARC
  5
239F2
  8
0
 10
4687.0865103148262278
 20
315.6786373528066747
 30
0.0
 40
0.0141423469642897
 50
303.9710640766826941
 51
1.0777982919170981
  0
ARC
  5
239F3
  8
0
 10
4687.0886044388571463
 20
315.6786767502908901
 30
0.0
 40
0.0120478523673216
 50
1.077798291920355
 51
61.3589288293862865
  0
ARC
  5
239F4
  8
0
 10
4687.0819208099474054
 20
315.6703949908992968
 30
0.0
 40
0.0225995466183604
 50
56.5459173457879487
 51
93.6044328303080846
  0
ARC
  5
239F5
  8
0
 10
4687.0931869891610404
 20
315.6883461391736887
 30
0.0
 40
0.0401387031439292
 50
328.0609122715648027
 51
352.3012115673989229
  0
ARC
  5
239F6
  8
0
 10
4687.0866912208193753
 20
315.692395549877574
 30
0.0
 40
0.0477932921866574
 50
286.9618252377255203
 51
328.0609122715620174
  0
ARC
  5
239F7
  8
0
 10
4687.0730929817473225
 20
315.6892797632784777
 30
0.0
 40
0.044525548106371
 50
198.3334167584503973
 51
253.0814924701955135
  0
LINE
  5
239F8
  8
0
 10
4687.1385867518838495
 20
315.7292566235155959
 30
0.0
 11
4687.1329543251222276
 21
315.682898710367283
 31
0.0
  0
LINE
  5
239F9
  8
0
 10
4687.0246721161111054
 20
315.7261158135557935
 30
0.0
 11
4687.0308274531480492
 21
315.6752744240664015
 31
0.0
  0
ARC
  5
239FA
  8
0
 10
4687.0832301042573818
 20
315.6696312034392236
 30
0.0
 40
0.0813606118205117
 50
47.1261608250192765
 51
136.0325127598592019
  0
ARC
  5
239FB
  8
0
 10
4687.1024396510902079
 20
315.6947757859489911
 30
0.0
 40
0.0499553906524613
 50
14.0247204189743204
 51
43.6485214455706725
  0
ARC
  5
239FC
  8
0
 10
4687.0950289400698239
 20
315.7233642318153102
 30
0.0
 40
0.0582572092925923
 50
309.4866654052418085
 51
343.5653390368522082
  0
ARC
  5
239FD
  8
0
 10
4687.0618938567531586
 20
315.7165011781759176
 30
0.0
 40
0.051621378201068
 50
194.5134189657921979
 51
233.0001630368932979
  0
ARC
  5
239FE
  8
0
 10
4687.0654221534614408
 20
315.6881911566846952
 30
0.0
 40
0.0556672717382415
 50
137.0567329799069967
 51
163.9685431672849063
  0
ARC
  5
239FF
  8
0
 10
4687.0795862393315474
 20
315.7213979291763053
 30
0.0
 40
0.077624677464013
 50
270.5894820910356202
 51
285.7327110217096902
  0
ARC
  5
23A00
  8
0
 10
4687.0811834791402362
 20
315.7213979291763053
 30
0.0
 40
0.077624677464013
 50
254.2672889782901962
 51
269.4105179089643798
  0
ARC
  5
23A01
  8
0
 10
4687.4774423734088487
 20
315.7986078341461962
 30
0.0
 40
0.0199743909573314
 50
89.8673035153680075
 51
153.5091345785602073
  0
ARC
  5
23A02
  8
0
 10
4687.4707168740887937
 20
315.8029971113938927
 30
0.0
 40
0.0120330474472751
 50
157.9345414732950985
 51
204.7808374950382131
  0
ARC
  5
23A03
  8
0
 10
4687.476068015034798
 20
315.807052243391297
 30
0.0
 40
0.0186467381479541
 50
209.2062443897883952
 51
257.9806363180700259
  0
ARC
  5
23A04
  8
0
 10
4687.4774021402372455
 20
315.8133183950745888
 30
0.0
 40
0.0250533399753439
 50
257.9806363180700259
 51
303.9710640766826941
  0
ARC
  5
23A05
  8
0
 10
4687.4834989210366984
 20
315.8042696917210037
 30
0.0
 40
0.0141423469642897
 50
303.9710640766826941
 51
1.0777982919170981
  0
ARC
  5
23A06
  8
0
 10
4687.4855930450657979
 20
315.8043090892051055
 30
0.0
 40
0.0120478523673216
 50
1.077798291920355
 51
61.3589288293862865
  0
ARC
  5
23A07
  8
0
 10
4687.4789094161569665
 20
315.7960273298133984
 30
0.0
 40
0.0225995466183604
 50
56.5459173457879487
 51
93.6044328303080846
  0
ARC
  5
23A08
  8
0
 10
4687.490175595369692
 20
315.813978478087904
 30
0.0
 40
0.0401387031439292
 50
328.0609122715648027
 51
352.3012115673989229
  0
ARC
  5
23A09
  8
0
 10
4687.4836798270271174
 20
315.8180278887917893
 30
0.0
 40
0.0477932921866574
 50
286.9618252377255203
 51
328.0609122715620174
  0
ARC
  5
23A0A
  8
0
 10
4687.4700815879568836
 20
315.8149121021926931
 30
0.0
 40
0.044525548106371
 50
198.3334167584503973
 51
253.0814924701955135
  0
LINE
  5
23A0B
  8
0
 10
4687.5355753580943201
 20
315.8548889624296976
 30
0.0
 11
4687.5299429313308792
 21
315.808531049281612
 31
0.0
  0
LINE
  5
23A0C
  8
0
 10
4687.421660722319757
 20
315.8517481524700088
 30
0.0
 11
4687.4278160593576104
 21
315.8009067629806168
 31
0.0
  0
ARC
  5
23A0D
  8
0
 10
4687.4802187104669429
 20
315.795263542353382
 30
0.0
 40
0.0813606118205117
 50
47.1261608250192765
 51
136.0325127598592019
  0
ARC
  5
23A0E
  8
0
 10
4687.4994282572988595
 20
315.8204081248632065
 30
0.0
 40
0.0499553906524613
 50
14.0247204189743204
 51
43.6485214455706725
  0
ARC
  5
23A0F
  8
0
 10
4687.492017546279385
 20
315.8489965707295255
 30
0.0
 40
0.0582572092925923
 50
309.4866654052418085
 51
343.5653390368522082
  0
ARC
  5
23A10
  8
0
 10
4687.4588824629636292
 20
315.8421335170900761
 30
0.0
 40
0.051621378201068
 50
194.5134189657921979
 51
233.0001630368932979
  0
ARC
  5
23A11
  8
0
 10
4687.4624107596700924
 20
315.8138234955989105
 30
0.0
 40
0.0556672717382415
 50
137.0567329799069967
 51
163.9685431672849063
  0
ARC
  5
23A12
  8
0
 10
4687.476574845542018
 20
315.8470302680905206
 30
0.0
 40
0.077624677464013
 50
270.5894820910356202
 51
285.7327110217096902
  0
ARC
  5
23A13
  8
0
 10
4687.4781720853497973
 20
315.8470302680905206
 30
0.0
 40
0.077624677464013
 50
254.2672889782901962
 51
269.4105179089643798
  0
ARC
  5
23A14
  8
0
 10
4687.4292512954352787
 20
316.133857142591296
 30
0.0
 40
0.0199743909573314
 50
89.8673035153680075
 51
153.5091345785602073
  0
ARC
  5
23A15
  8
0
 10
4687.4225257961143143
 20
316.1382464198389926
 30
0.0
 40
0.0120330474472751
 50
157.9345414732950985
 51
204.7808374950382131
  0
ARC
  5
23A16
  8
0
 10
4687.4278769370612281
 20
316.1423015518363968
 30
0.0
 40
0.0186467381479541
 50
209.2062443897883952
 51
257.9806363180700259
  0
ARC
  5
23A17
  8
0
 10
4687.4292110622645851
 20
316.1485677035195749
 30
0.0
 40
0.0250533399753439
 50
257.9806363180700259
 51
303.9710640766826941
  0
ARC
  5
23A18
  8
0
 10
4687.435307843062219
 20
316.1395190001659898
 30
0.0
 40
0.0141423469642897
 50
303.9710640766826941
 51
1.0777982919170981
  0
ARC
  5
23A19
  8
0
 10
4687.4374019670931375
 20
316.1395583976500916
 30
0.0
 40
0.0120478523673216
 50
1.077798291920355
 51
61.3589288293862865
  0
ARC
  5
23A1A
  8
0
 10
4687.430718338184306
 20
316.1312766382584982
 30
0.0
 40
0.0225995466183604
 50
56.5459173457879487
 51
93.6044328303080846
  0
ARC
  5
23A1B
  8
0
 10
4687.4419845173970316
 20
316.1492277865328901
 30
0.0
 40
0.0401387031439292
 50
328.0609122715648027
 51
352.3012115673989229
  0
ARC
  5
23A1C
  8
0
 10
4687.4354887490553665
 20
316.1532771972368892
 30
0.0
 40
0.0477932921866574
 50
286.9618252377255203
 51
328.0609122715620174
  0
ARC
  5
23A1D
  8
0
 10
4687.4218905099842232
 20
316.1501614106377929
 30
0.0
 40
0.044525548106371
 50
198.3334167584503973
 51
253.0814924701955135
  0
LINE
  5
23A1E
  8
0
 10
4687.4873842801198407
 20
316.1901382708747974
 30
0.0
 11
4687.4817518533582188
 21
316.1437803577265981
 31
0.0
  0
LINE
  5
23A1F
  8
0
 10
4687.3734696443470966
 20
316.1869974609151086
 30
0.0
 11
4687.3796249813840404
 21
316.1361560714257166
 31
0.0
  0
ARC
  5
23A20
  8
0
 10
4687.4320276324942824
 20
316.1305128507984818
 30
0.0
 40
0.0813606118205117
 50
47.1261608250192765
 51
136.0325127598592019
  0
ARC
  5
23A21
  8
0
 10
4687.4512371793252896
 20
316.1556574333083063
 30
0.0
 40
0.0499553906524613
 50
14.0247204189743204
 51
43.6485214455706725
  0
ARC
  5
23A22
  8
0
 10
4687.4438264683058151
 20
316.1842458791746253
 30
0.0
 40
0.0582572092925923
 50
309.4866654052418085
 51
343.5653390368522082
  0
ARC
  5
23A23
  8
0
 10
4687.4106913849900593
 20
316.1773828255351759
 30
0.0
 40
0.051621378201068
 50
194.5134189657921979
 51
233.0001630368932979
  0
ARC
  5
23A24
  8
0
 10
4687.414219681697432
 20
316.1490728040440104
 30
0.0
 40
0.0556672717382415
 50
137.0567329799069967
 51
163.9685431672849063
  0
ARC
  5
23A25
  8
0
 10
4687.4283837675684481
 20
316.1822795765356204
 30
0.0
 40
0.077624677464013
 50
270.5894820910356202
 51
285.7327110217096902
  0
ARC
  5
23A26
  8
0
 10
4687.4299810073762274
 20
316.1822795765356204
 30
0.0
 40
0.077624677464013
 50
254.2672889782901962
 51
269.4105179089643798
  0
ARC
  5
23A27
  8
0
 10
4686.5218233774239707
 20
315.7170502731029842
 30
0.0
 40
0.0199743909573314
 50
89.8673035153680075
 51
153.5091345785602073
  0
ARC
  5
23A28
  8
0
 10
4686.5150978781030062
 20
315.7214395503506807
 30
0.0
 40
0.0120330474472751
 50
157.9345414732950985
 51
204.7808374950382131
  0
ARC
  5
23A29
  8
0
 10
4686.52044901904992
 20
315.725494682348085
 30
0.0
 40
0.0186467381479541
 50
209.2062443897883952
 51
257.9806363180700259
  0
ARC
  5
23A2A
  8
0
 10
4686.5217831442523675
 20
315.7317608340313768
 30
0.0
 40
0.0250533399753439
 50
257.9806363180700259
 51
303.9710640766826941
  0
ARC
  5
23A2B
  8
0
 10
4686.5278799250500015
 20
315.7227121306777917
 30
0.0
 40
0.0141423469642897
 50
303.9710640766826941
 51
1.0777982919170981
  0
ARC
  5
23A2C
  8
0
 10
4686.5299740490818294
 20
315.7227515281618935
 30
0.0
 40
0.0120478523673216
 50
1.077798291920355
 51
61.3589288293862865
  0
ARC
  5
23A2D
  8
0
 10
4686.523290420171179
 20
315.7144697687703001
 30
0.0
 40
0.0225995466183604
 50
56.5459173457879487
 51
93.6044328303080846
  0
ARC
  5
23A2E
  8
0
 10
4686.534556599384814
 20
315.732420917044692
 30
0.0
 40
0.0401387031439292
 50
328.0609122715648027
 51
352.3012115673989229
  0
ARC
  5
23A2F
  8
0
 10
4686.5280608310422394
 20
315.7364703277485773
 30
0.0
 40
0.0477932921866574
 50
286.9618252377255203
 51
328.0609122715620174
  0
ARC
  5
23A30
  8
0
 10
4686.5144625919710961
 20
315.7333545411494811
 30
0.0
 40
0.044525548106371
 50
198.3334167584503973
 51
253.0814924701955135
  0
LINE
  5
23A31
  8
0
 10
4686.5799563621094421
 20
315.7733314013865993
 30
0.0
 11
4686.5743239353469107
 21
315.7269734882384
 31
0.0
  0
LINE
  5
23A32
  8
0
 10
4686.4660417263357886
 20
315.7701905914269105
 30
0.0
 11
4686.4721970633727324
 21
315.7193492019374048
 31
0.0
  0
ARC
  5
23A33
  8
0
 10
4686.5245997144811554
 20
315.7137059813102269
 30
0.0
 40
0.0813606118205117
 50
47.1261608250192765
 51
136.0325127598592019
  0
ARC
  5
23A34
  8
0
 10
4686.5438092613130721
 20
315.7388505638201082
 30
0.0
 40
0.0499553906524613
 50
14.0247204189743204
 51
43.6485214455706725
  0
ARC
  5
23A35
  8
0
 10
4686.5363985502935975
 20
315.7674390096864272
 30
0.0
 40
0.0582572092925923
 50
309.4866654052418085
 51
343.5653390368522082
  0
ARC
  5
23A36
  8
0
 10
4686.5032634669778417
 20
315.7605759560469778
 30
0.0
 40
0.051621378201068
 50
194.5134189657921979
 51
233.0001630368932979
  0
ARC
  5
23A37
  8
0
 10
4686.5067917636852144
 20
315.7322659345556985
 30
0.0
 40
0.0556672717382415
 50
137.0567329799069967
 51
163.9685431672849063
  0
ARC
  5
23A38
  8
0
 10
4686.52095584955714
 20
315.7654727070474223
 30
0.0
 40
0.077624677464013
 50
270.5894820910356202
 51
285.7327110217096902
  0
ARC
  5
23A39
  8
0
 10
4686.5225530893631003
 20
315.7654727070474223
 30
0.0
 40
0.077624677464013
 50
254.2672889782901962
 51
269.4105179089643798
  0
ARC
  5
23A3A
  8
0
 10
4686.6816599458106793
 20
315.5607232635268247
 30
0.0
 40
0.0199743909573314
 50
89.8673035153680075
 51
153.5091345785602073
  0
ARC
  5
23A3B
  8
0
 10
4686.6749344464906244
 20
315.5651125407745212
 30
0.0
 40
0.0120330474472751
 50
157.9345414732950985
 51
204.7808374950382131
  0
ARC
  5
23A3C
  8
0
 10
4686.6802855874384477
 20
315.5691676727719255
 30
0.0
 40
0.0186467381479541
 50
209.2062443897883952
 51
257.9806363180700259
  0
ARC
  5
23A3D
  8
0
 10
4686.6816197126408952
 20
315.5754338244551036
 30
0.0
 40
0.0250533399753439
 50
257.9806363180700259
 51
303.9710640766826941
  0
ARC
  5
23A3E
  8
0
 10
4686.6877164934394386
 20
315.5663851211015185
 30
0.0
 40
0.0141423469642897
 50
303.9710640766826941
 51
1.0777982919170981
  0
ARC
  5
23A3F
  8
0
 10
4686.6898106174694476
 20
315.5664245185856771
 30
0.0
 40
0.0120478523673216
 50
1.077798291920355
 51
61.3589288293862865
  0
ARC
  5
23A40
  8
0
 10
4686.6831269885597067
 20
315.5581427591940269
 30
0.0
 40
0.0225995466183604
 50
56.5459173457879487
 51
93.6044328303080846
  0
ARC
  5
23A41
  8
0
 10
4686.6943931677733417
 20
315.5760939074684188
 30
0.0
 40
0.0401387031439292
 50
328.0609122715648027
 51
352.3012115673989229
  0
ARC
  5
23A42
  8
0
 10
4686.6878973994289481
 20
315.5801433181724178
 30
0.0
 40
0.0477932921866574
 50
286.9618252377255203
 51
328.0609122715620174
  0
ARC
  5
23A43
  8
0
 10
4686.6742991603587143
 20
315.5770275315733215
 30
0.0
 40
0.044525548106371
 50
198.3334167584503973
 51
253.0814924701955135
  0
LINE
  5
23A44
  8
0
 10
4686.7397929304970603
 20
315.6170043918103261
 30
0.0
 11
4686.7341605037354384
 21
315.5706464786621268
 31
0.0
  0
LINE
  5
23A45
  8
0
 10
4686.6258782947234067
 20
315.6138635818505804
 30
0.0
 11
4686.63203363176126
 21
315.5630221923611884
 31
0.0
  0
ARC
  5
23A46
  8
0
 10
4686.6844362828687736
 20
315.5573789717338968
 30
0.0
 40
0.0813606118205117
 50
47.1261608250192765
 51
136.0325127598592019
  0
ARC
  5
23A47
  8
0
 10
4686.7036458297006902
 20
315.5825235542437781
 30
0.0
 40
0.0499553906524613
 50
14.0247204189743204
 51
43.6485214455706725
  0
ARC
  5
23A48
  8
0
 10
4686.6962351186821252
 20
315.6111120001100971
 30
0.0
 40
0.0582572092925923
 50
309.4866654052418085
 51
343.5653390368522082
  0
ARC
  5
23A49
  8
0
 10
4686.6631000353663694
 20
315.6042489464707046
 30
0.0
 40
0.051621378201068
 50
194.5134189657921979
 51
233.0001630368932979
  0
ARC
  5
23A4A
  8
0
 10
4686.6666283320728326
 20
315.5759389249794822
 30
0.0
 40
0.0556672717382415
 50
137.0567329799069967
 51
163.9685431672849063
  0
ARC
  5
23A4B
  8
0
 10
4686.6807924179438487
 20
315.6091456974710923
 30
0.0
 40
0.077624677464013
 50
270.5894820910356202
 51
285.7327110217096902
  0
ARC
  5
23A4C
  8
0
 10
4686.682389657753447
 20
315.6091456974710923
 30
0.0
 40
0.077624677464013
 50
254.2672889782901962
 51
269.4105179089643798
  0
ARC
  5
23A4D
  8
0
 10
4687.7041459788124484
 20
315.5363674615937839
 30
0.0
 40
0.0199743909573314
 50
89.8673035153680075
 51
153.5091345785602073
  0
ARC
  5
23A4E
  8
0
 10
4687.697420479493303
 20
315.5407567388414805
 30
0.0
 40
0.0120330474472751
 50
157.9345414732950985
 51
204.7808374950382131
  0
ARC
  5
23A4F
  8
0
 10
4687.7027716204393073
 20
315.5448118708388847
 30
0.0
 40
0.0186467381479541
 50
209.2062443897883952
 51
257.9806363180700259
  0
ARC
  5
23A50
  8
0
 10
4687.7041057456408453
 20
315.5510780225221197
 30
0.0
 40
0.0250533399753439
 50
257.9806363180700259
 51
303.9710640766826941
  0
ARC
  5
23A51
  8
0
 10
4687.7102025264402982
 20
315.5420293191684777
 30
0.0
 40
0.0141423469642897
 50
303.9710640766826941
 51
1.0777982919170981
  0
ARC
  5
23A52
  8
0
 10
4687.7122966504712167
 20
315.5420687166525795
 30
0.0
 40
0.0120478523673216
 50
1.077798291920355
 51
61.3589288293862865
  0
ARC
  5
23A53
  8
0
 10
4687.7056130215605663
 20
315.5337869572610998
 30
0.0
 40
0.0225995466183604
 50
56.5459173457879487
 51
93.6044328303080846
  0
ARC
  5
23A54
  8
0
 10
4687.7168792007742013
 20
315.5517381055353781
 30
0.0
 40
0.0401387031439292
 50
328.0609122715648027
 51
352.3012115673989229
  0
ARC
  5
23A55
  8
0
 10
4687.7103834324307172
 20
315.5557875162393771
 30
0.0
 40
0.0477932921866574
 50
286.9618252377255203
 51
328.0609122715620174
  0
ARC
  5
23A56
  8
0
 10
4687.6967851933613929
 20
315.5526717296402239
 30
0.0
 40
0.044525548106371
 50
198.3334167584503973
 51
253.0814924701955135
  0
LINE
  5
23A57
  8
0
 10
4687.7622789634988294
 20
315.592648589877399
 30
0.0
 11
4687.756646536736298
 21
315.546290676729086
 31
0.0
  0
LINE
  5
23A58
  8
0
 10
4687.6483643277251758
 20
315.5895077799175965
 30
0.0
 11
4687.6545196647630291
 21
315.5386663904280908
 31
0.0
  0
ARC
  5
23A59
  8
0
 10
4687.7069223158714522
 20
315.5330231698010266
 30
0.0
 40
0.0813606118205117
 50
47.1261608250192765
 51
136.0325127598592019
  0
ARC
  5
23A5A
  8
0
 10
4687.7261318627015498
 20
315.5581677523107942
 30
0.0
 40
0.0499553906524613
 50
14.0247204189743204
 51
43.6485214455706725
  0
ARC
  5
23A5B
  8
0
 10
4687.7187211516838943
 20
315.5867561981771132
 30
0.0
 40
0.0582572092925923
 50
309.4866654052418085
 51
343.5653390368522082
  0
ARC
  5
23A5C
  8
0
 10
4687.6855860683681385
 20
315.5798931445377207
 30
0.0
 40
0.051621378201068
 50
194.5134189657921979
 51
233.0001630368932979
  0
ARC
  5
23A5D
  8
0
 10
4687.6891143650736922
 20
315.5515831230463846
 30
0.0
 40
0.0556672717382415
 50
137.0567329799069967
 51
163.9685431672849063
  0
ARC
  5
23A5E
  8
0
 10
4687.7032784509447083
 20
315.5847898955379947
 30
0.0
 40
0.077624677464013
 50
270.5894820910356202
 51
285.7327110217096902
  0
ARC
  5
23A5F
  8
0
 10
4687.7048756907533971
 20
315.5847898955379947
 30
0.0
 40
0.077624677464013
 50
254.2672889782901962
 51
269.4105179089643798
  0
ARC
  5
23A60
  8
0
 10
4687.4783783556358685
 20
315.2370651267789867
 30
0.0
 40
0.0199743909573314
 50
89.8673035153680075
 51
153.5091345785602073
  0
ARC
  5
23A61
  8
0
 10
4687.4716528563158136
 20
315.2414544040266833
 30
0.0
 40
0.0120330474472751
 50
157.9345414732950985
 51
204.7808374950382131
  0
ARC
  5
23A62
  8
0
 10
4687.4770039972609084
 20
315.2455095360240875
 30
0.0
 40
0.0186467381479541
 50
209.2062443897883952
 51
257.9806363180700259
  0
ARC
  5
23A63
  8
0
 10
4687.4783381224651748
 20
315.2517756877073225
 30
0.0
 40
0.0250533399753439
 50
257.9806363180700259
 51
303.9710640766826941
  0
ARC
  5
23A64
  8
0
 10
4687.4844349032637183
 20
315.2427269843536806
 30
0.0
 40
0.0141423469642897
 50
303.9710640766826941
 51
1.0777982919170981
  0
ARC
  5
23A65
  8
0
 10
4687.4865290272928178
 20
315.2427663818377823
 30
0.0
 40
0.0120478523673216
 50
1.077798291920355
 51
61.3589288293862865
  0
ARC
  5
23A66
  8
0
 10
4687.4798453983839863
 20
315.234484622446189
 30
0.0
 40
0.0225995466183604
 50
56.5459173457879487
 51
93.6044328303080846
  0
ARC
  5
23A67
  8
0
 10
4687.4911115775976214
 20
315.2524357707206946
 30
0.0
 40
0.0401387031439292
 50
328.0609122715648027
 51
352.3012115673989229
  0
ARC
  5
23A68
  8
0
 10
4687.4846158092550468
 20
315.2564851814245799
 30
0.0
 40
0.0477932921866574
 50
286.9618252377255203
 51
328.0609122715620174
  0
ARC
  5
23A69
  8
0
 10
4687.4710175701839034
 20
315.2533693948254836
 30
0.0
 40
0.044525548106371
 50
198.3334167584503973
 51
253.0814924701955135
  0
LINE
  5
23A6A
  8
0
 10
4687.53651134032134
 20
315.2933462550624881
 30
0.0
 11
4687.5308789135578991
 21
315.2469883419142889
 31
0.0
  0
LINE
  5
23A6B
  8
0
 10
4687.4225967045467769
 20
315.2902054451027993
 30
0.0
 11
4687.4287520415864492
 21
315.2393640556134073
 31
0.0
  0
ARC
  5
23A6C
  8
0
 10
4687.4811546926948722
 20
315.2337208349861726
 30
0.0
 40
0.0813606118205117
 50
47.1261608250192765
 51
136.0325127598592019
  0
ARC
  5
23A6D
  8
0
 10
4687.5003642395249699
 20
315.258865417495997
 30
0.0
 40
0.0499553906524613
 50
14.0247204189743204
 51
43.6485214455706725
  0
ARC
  5
23A6E
  8
0
 10
4687.4929535285064048
 20
315.287453863362316
 30
0.0
 40
0.0582572092925923
 50
309.4866654052418085
 51
343.5653390368522082
  0
ARC
  5
23A6F
  8
0
 10
4687.4598184451897396
 20
315.2805908097229235
 30
0.0
 40
0.051621378201068
 50
194.5134189657921979
 51
233.0001630368932979
  0
ARC
  5
23A70
  8
0
 10
4687.4633467418971122
 20
315.2522807882315874
 30
0.0
 40
0.0556672717382415
 50
137.0567329799069967
 51
163.9685431672849063
  0
ARC
  5
23A71
  8
0
 10
4687.4775108277681284
 20
315.2854875607233112
 30
0.0
 40
0.077624677464013
 50
270.5894820910356202
 51
285.7327110217096902
  0
ARC
  5
23A72
  8
0
 10
4687.4791080675759076
 20
315.2854875607233112
 30
0.0
 40
0.077624677464013
 50
254.2672889782901962
 51
269.4105179089643798
  0
ARC
  5
23A73
  8
0
 10
4687.080545615288429
 20
315.2949600791129114
 30
0.0
 40
0.0199743909573314
 50
89.8673035153680075
 51
153.5091345785602073
  0
ARC
  5
23A74
  8
0
 10
4687.073820115968374
 20
315.299349356360608
 30
0.0
 40
0.0120330474472751
 50
157.9345414732950985
 51
204.7808374950382131
  0
ARC
  5
23A75
  8
0
 10
4687.0791712569143783
 20
315.3034044883580123
 30
0.0
 40
0.0186467381479541
 50
209.2062443897883952
 51
257.9806363180700259
  0
ARC
  5
23A76
  8
0
 10
4687.0805053821177353
 20
315.3096706400411904
 30
0.0
 40
0.0250533399753439
 50
257.9806363180700259
 51
303.9710640766826941
  0
ARC
  5
23A77
  8
0
 10
4687.0866021629162788
 20
315.300621936687719
 30
0.0
 40
0.0141423469642897
 50
303.9710640766826941
 51
1.0777982919170981
  0
ARC
  5
23A78
  8
0
 10
4687.0886962869462877
 20
315.3006613341718207
 30
0.0
 40
0.0120478523673216
 50
1.077798291920355
 51
61.3589288293862865
  0
ARC
  5
23A79
  8
0
 10
4687.0820126580365468
 20
315.2923795747802274
 30
0.0
 40
0.0225995466183604
 50
56.5459173457879487
 51
93.6044328303080846
  0
ARC
  5
23A7A
  8
0
 10
4687.0932788372501818
 20
315.3103307230546193
 30
0.0
 40
0.0401387031439292
 50
328.0609122715648027
 51
352.3012115673989229
  0
ARC
  5
23A7B
  8
0
 10
4687.0867830689076072
 20
315.3143801337585046
 30
0.0
 40
0.0477932921866574
 50
286.9618252377255203
 51
328.0609122715620174
  0
ARC
  5
23A7C
  8
0
 10
4687.0731848298373734
 20
315.3112643471594083
 30
0.0
 40
0.044525548106371
 50
198.3334167584503973
 51
253.0814924701955135
  0
LINE
  5
23A7D
  8
0
 10
4687.1386785999739004
 20
315.3512412073965265
 30
0.0
 11
4687.133046173211369
 21
315.3048832942483273
 31
0.0
  0
LINE
  5
23A7E
  8
0
 10
4687.0247639642002468
 20
315.3481003974367241
 30
0.0
 11
4687.0309193012381002
 21
315.2972590079472752
 31
0.0
  0
ARC
  5
23A7F
  8
0
 10
4687.0833219523474327
 20
315.2916157873200973
 30
0.0
 40
0.0813606118205117
 50
47.1261608250192765
 51
136.0325127598592019
  0
ARC
  5
23A80
  8
0
 10
4687.1025314991784398
 20
315.3167603698299217
 30
0.0
 40
0.0499553906524613
 50
14.0247204189743204
 51
43.6485214455706725
  0
ARC
  5
23A81
  8
0
 10
4687.0951207881589653
 20
315.3453488156962976
 30
0.0
 40
0.0582572092925923
 50
309.4866654052418085
 51
343.5653390368522082
  0
ARC
  5
23A82
  8
0
 10
4687.0619857048432095
 20
315.3384857620569051
 30
0.0
 40
0.051621378201068
 50
194.5134189657921979
 51
233.0001630368932979
  0
ARC
  5
23A83
  8
0
 10
4687.0655140015496727
 20
315.3101757405656258
 30
0.0
 40
0.0556672717382415
 50
137.0567329799069967
 51
163.9685431672849063
  0
ARC
  5
23A84
  8
0
 10
4687.0796780874206888
 20
315.343382513057179
 30
0.0
 40
0.077624677464013
 50
270.5894820910356202
 51
285.7327110217096902
  0
ARC
  5
23A85
  8
0
 10
4687.0812753272293776
 20
315.343382513057179
 30
0.0
 40
0.077624677464013
 50
254.2672889782901962
 51
269.4105179089643798
  0
ARC
  5
23A86
  8
0
 10
4686.6821853928558994
 20
315.3666285111929142
 30
0.0
 40
0.0199743909573314
 50
89.8673035153680075
 51
153.5091345785602073
  0
ARC
  5
23A87
  8
0
 10
4686.6754598935358445
 20
315.3710177884406107
 30
0.0
 40
0.0120330474472751
 50
157.9345414732950985
 51
204.7808374950382131
  0
ARC
  5
23A88
  8
0
 10
4686.6808110344827583
 20
315.375072920438015
 30
0.0
 40
0.0186467381479541
 50
209.2062443897883952
 51
257.9806363180700259
  0
ARC
  5
23A89
  8
0
 10
4686.6821451596861152
 20
315.3813390721210794
 30
0.0
 40
0.0250533399753439
 50
257.9806363180700259
 51
303.9710640766826941
  0
ARC
  5
23A8A
  8
0
 10
4686.6882419404837492
 20
315.3722903687674943
 30
0.0
 40
0.0141423469642897
 50
303.9710640766826941
 51
1.0777982919170981
  0
ARC
  5
23A8B
  8
0
 10
4686.6903360645137582
 20
315.3723297662517098
 30
0.0
 40
0.0120478523673216
 50
1.077798291920355
 51
61.3589288293862865
  0
ARC
  5
23A8C
  8
0
 10
4686.6836524356049267
 20
315.3640480068601164
 30
0.0
 40
0.0225995466183604
 50
56.5459173457879487
 51
93.6044328303080846
  0
ARC
  5
23A8D
  8
0
 10
4686.6949186148176523
 20
315.3819991551345083
 30
0.0
 40
0.0401387031439292
 50
328.0609122715648027
 51
352.3012115673989229
  0
ARC
  5
23A8E
  8
0
 10
4686.6884228464759872
 20
315.3860485658383936
 30
0.0
 40
0.0477932921866574
 50
286.9618252377255203
 51
328.0609122715620174
  0
ARC
  5
23A8F
  8
0
 10
4686.6748246074039344
 20
315.3829327792392974
 30
0.0
 40
0.044525548106371
 50
198.3334167584503973
 51
253.0814924701955135
  0
LINE
  5
23A90
  8
0
 10
4686.7403183775422804
 20
315.4229096394764156
 30
0.0
 11
4686.734685950779749
 21
315.3765517263281026
 31
0.0
  0
LINE
  5
23A91
  8
0
 10
4686.6264037417677173
 20
315.4197688295167268
 30
0.0
 11
4686.6325590788055706
 21
315.3689274400272211
 31
0.0
  0
ARC
  5
23A92
  8
0
 10
4686.6849617299149031
 20
315.3632842193999863
 30
0.0
 40
0.0813606118205117
 50
47.1261608250192765
 51
136.0325127598592019
  0
ARC
  5
23A93
  8
0
 10
4686.7041712767468198
 20
315.3884288019098108
 30
0.0
 40
0.0499553906524613
 50
14.0247204189743204
 51
43.6485214455706725
  0
ARC
  5
23A94
  8
0
 10
4686.6967605657273452
 20
315.417017247776073
 30
0.0
 40
0.0582572092925923
 50
309.4866654052418085
 51
343.5653390368522082
  0
ARC
  5
23A95
  8
0
 10
4686.66362548241068
 20
315.4101541941367941
 30
0.0
 40
0.051621378201068
 50
194.5134189657921979
 51
233.0001630368932979
  0
ARC
  5
23A96
  8
0
 10
4686.6671537791180526
 20
315.3818441726455148
 30
0.0
 40
0.0556672717382415
 50
137.0567329799069967
 51
163.9685431672849063
  0
ARC
  5
23A97
  8
0
 10
4686.6813178649899783
 20
315.4150509451371249
 30
0.0
 40
0.077624677464013
 50
270.5894820910356202
 51
285.7327110217096902
  0
ARC
  5
23A98
  8
0
 10
4686.6829151047977575
 20
315.4150509451371249
 30
0.0
 40
0.077624677464013
 50
254.2672889782901962
 51
269.4105179089643798
  0
ARC
  5
23A99
  8
0
 10
4686.5205832247147555
 20
315.2112664174887868
 30
0.0
 40
0.0199743909573314
 50
89.8673035153680075
 51
153.5091345785602073
  0
ARC
  5
23A9A
  8
0
 10
4686.5138577253947005
 20
315.2156556947364834
 30
0.0
 40
0.0120330474472751
 50
157.9345414732950985
 51
204.7808374950382131
  0
ARC
  5
23A9B
  8
0
 10
4686.5192088663397953
 20
315.2197108267338876
 30
0.0
 40
0.0186467381479541
 50
209.2062443897883952
 51
257.9806363180700259
  0
ARC
  5
23A9C
  8
0
 10
4686.5205429915431523
 20
315.2259769784171226
 30
0.0
 40
0.0250533399753439
 50
257.9806363180700259
 51
303.9710640766826941
  0
ARC
  5
23A9D
  8
0
 10
4686.5266397723416958
 20
315.2169282750635944
 30
0.0
 40
0.0141423469642897
 50
303.9710640766826941
 51
1.0777982919170981
  0
ARC
  5
23A9E
  8
0
 10
4686.5287338963726143
 20
315.2169676725476961
 30
0.0
 40
0.0120478523673216
 50
1.077798291920355
 51
61.3589288293862865
  0
ARC
  5
23A9F
  8
0
 10
4686.5220502674628733
 20
315.2086859131561027
 30
0.0
 40
0.0225995466183604
 50
56.5459173457879487
 51
93.6044328303080846
  0
ARC
  5
23AA0
  8
0
 10
4686.5333164466755989
 20
315.2266370614304947
 30
0.0
 40
0.0401387031439292
 50
328.0609122715648027
 51
352.3012115673989229
  0
ARC
  5
23AA1
  8
0
 10
4686.5268206783330243
 20
315.23068647213438
 30
0.0
 40
0.0477932921866574
 50
286.9618252377255203
 51
328.0609122715620174
  0
ARC
  5
23AA2
  8
0
 10
4686.5132224392627904
 20
315.2275706855352837
 30
0.0
 40
0.044525548106371
 50
198.3334167584503973
 51
253.0814924701955135
  0
LINE
  5
23AA3
  8
0
 10
4686.5787162094002269
 20
315.2675475457722882
 30
0.0
 11
4686.5730837826367861
 21
315.221189632624089
 31
0.0
  0
LINE
  5
23AA4
  8
0
 10
4686.4648015736256639
 20
315.2644067358125994
 30
0.0
 11
4686.4709569106644267
 21
315.2135653463232075
 31
0.0
  0
ARC
  5
23AA5
  8
0
 10
4686.5233595617728497
 20
315.2079221256959727
 30
0.0
 40
0.0813606118205117
 50
47.1261608250192765
 51
136.0325127598592019
  0
ARC
  5
23AA6
  8
0
 10
4686.5425691086038569
 20
315.2330667082057971
 30
0.0
 40
0.0499553906524613
 50
14.0247204189743204
 51
43.6485214455706725
  0
ARC
  5
23AA7
  8
0
 10
4686.5351583975843823
 20
315.2616551540721161
 30
0.0
 40
0.0582572092925923
 50
309.4866654052418085
 51
343.5653390368522082
  0
ARC
  5
23AA8
  8
0
 10
4686.5020233142686266
 20
315.2547921004327236
 30
0.0
 40
0.051621378201068
 50
194.5134189657921979
 51
233.0001630368932979
  0
ARC
  5
23AA9
  8
0
 10
4686.5055516109759992
 20
315.2264820789415012
 30
0.0
 40
0.0556672717382415
 50
137.0567329799069967
 51
163.9685431672849063
  0
ARC
  5
23AAA
  8
0
 10
4686.5197156968479248
 20
315.2596888514331113
 30
0.0
 40
0.077624677464013
 50
270.5894820910356202
 51
285.7327110217096902
  0
ARC
  5
23AAB
  8
0
 10
4686.5213129366557041
 20
315.2596888514331113
 30
0.0
 40
0.077624677464013
 50
254.2672889782901962
 51
269.4105179089643798
  0
ARC
  5
23AAC
  8
0
 10
4686.7658991602784226
 20
314.9933381943857853
 30
0.0
 40
0.0199743909573314
 50
89.8673035153680075
 51
153.5091345785602073
  0
ARC
  5
23AAD
  8
0
 10
4686.7591736609583677
 20
314.9977274716334819
 30
0.0
 40
0.0120330474472751
 50
157.9345414732950985
 51
204.7808374950382131
  0
ARC
  5
23AAE
  8
0
 10
4686.764524801904372
 20
315.0017826036308861
 30
0.0
 40
0.0186467381479541
 50
209.2062443897883952
 51
257.9806363180700259
  0
ARC
  5
23AAF
  8
0
 10
4686.765858927107729
 20
315.0080487553141211
 30
0.0
 40
0.0250533399753439
 50
257.9806363180700259
 51
303.9710640766826941
  0
ARC
  5
23AB0
  8
0
 10
4686.7719557079062724
 20
314.9990000519604791
 30
0.0
 40
0.0141423469642897
 50
303.9710640766826941
 51
1.0777982919170981
  0
ARC
  5
23AB1
  8
0
 10
4686.7740498319362814
 20
314.9990394494446946
 30
0.0
 40
0.0120478523673216
 50
1.077798291920355
 51
61.3589288293862865
  0
ARC
  5
23AB2
  8
0
 10
4686.76736620302745
 20
314.9907576900531012
 30
0.0
 40
0.0225995466183604
 50
56.5459173457879487
 51
93.6044328303080846
  0
ARC
  5
23AB3
  8
0
 10
4686.7786323822401755
 20
315.0087088383274931
 30
0.0
 40
0.0401387031439292
 50
328.0609122715648027
 51
352.3012115673989229
  0
ARC
  5
23AB4
  8
0
 10
4686.7721366138976009
 20
315.0127582490313785
 30
0.0
 40
0.0477932921866574
 50
286.9618252377255203
 51
328.0609122715620174
  0
ARC
  5
23AB5
  8
0
 10
4686.7585383748273671
 20
315.0096424624322822
 30
0.0
 40
0.044525548106371
 50
198.3334167584503973
 51
253.0814924701955135
  0
LINE
  5
23AB6
  8
0
 10
4686.8240321449638941
 20
315.0496193226694004
 30
0.0
 11
4686.8183997182013627
 21
315.0032614095210874
 31
0.0
  0
LINE
  5
23AB7
  8
0
 10
4686.7101175091902405
 20
315.0464785127095979
 30
0.0
 11
4686.7162728462280938
 21
314.9956371232202059
 31
0.0
  0
ARC
  5
23AB8
  8
0
 10
4686.7686754973374263
 20
314.989993902593028
 30
0.0
 40
0.0813606118205117
 50
47.1261608250192765
 51
136.0325127598592019
  0
ARC
  5
23AB9
  8
0
 10
4686.7878850441684335
 20
315.0151384851027956
 30
0.0
 40
0.0499553906524613
 50
14.0247204189743204
 51
43.6485214455706725
  0
ARC
  5
23ABA
  8
0
 10
4686.7804743331498685
 20
315.0437269309691146
 30
0.0
 40
0.0582572092925923
 50
309.4866654052418085
 51
343.5653390368522082
  0
ARC
  5
23ABB
  8
0
 10
4686.7473392498332032
 20
315.0368638773297221
 30
0.0
 40
0.051621378201068
 50
194.5134189657921979
 51
233.0001630368932979
  0
ARC
  5
23ABC
  8
0
 10
4686.7508675465387569
 20
315.0085538558384997
 30
0.0
 40
0.0556672717382415
 50
137.0567329799069967
 51
163.9685431672849063
  0
ARC
  5
23ABD
  8
0
 10
4686.7650316324106825
 20
315.0417606283301097
 30
0.0
 40
0.077624677464013
 50
270.5894820910356202
 51
285.7327110217096902
  0
ARC
  5
23ABE
  8
0
 10
4686.7666288722193713
 20
315.0417606283301097
 30
0.0
 40
0.077624677464013
 50
254.2672889782901962
 51
269.4105179089643798
  0
ARC
  5
23ABF
  8
0
 10
4687.0120595013177081
 20
314.7851266952303035
 30
0.0
 40
0.0199743909573314
 50
89.8673035153680075
 51
153.5091345785602073
  0
ARC
  5
23AC0
  8
0
 10
4687.0053340019985626
 20
314.7895159724780001
 30
0.0
 40
0.0120330474472751
 50
157.9345414732950985
 51
204.7808374950382131
  0
ARC
  5
23AC1
  8
0
 10
4687.0106851429436574
 20
314.7935711044754044
 30
0.0
 40
0.0186467381479541
 50
209.2062443897883952
 51
257.9806363180700259
  0
ARC
  5
23AC2
  8
0
 10
4687.0120192681479239
 20
314.7998372561585825
 30
0.0
 40
0.0250533399753439
 50
257.9806363180700259
 51
303.9710640766826941
  0
ARC
  5
23AC3
  8
0
 10
4687.0181160489455578
 20
314.7907885528049974
 30
0.0
 40
0.0141423469642897
 50
303.9710640766826941
 51
1.0777982919170981
  0
ARC
  5
23AC4
  8
0
 10
4687.0202101729773858
 20
314.7908279502892128
 30
0.0
 40
0.0120478523673216
 50
1.077798291920355
 51
61.3589288293862865
  0
ARC
  5
23AC5
  8
0
 10
4687.0135265440676449
 20
314.7825461908976195
 30
0.0
 40
0.0225995466183604
 50
56.5459173457879487
 51
93.6044328303080846
  0
ARC
  5
23AC6
  8
0
 10
4687.0247927232803704
 20
314.8004973391718977
 30
0.0
 40
0.0401387031439292
 50
328.0609122715648027
 51
352.3012115673989229
  0
ARC
  5
23AC7
  8
0
 10
4687.0182969549377958
 20
314.8045467498758967
 30
0.0
 40
0.0477932921866574
 50
286.9618252377255203
 51
328.0609122715620174
  0
ARC
  5
23AC8
  8
0
 10
4687.0046987158666525
 20
314.8014309632768004
 30
0.0
 40
0.044525548106371
 50
198.3334167584503973
 51
253.0814924701955135
  0
LINE
  5
23AC9
  8
0
 10
4687.0701924860049985
 20
314.8414078235139186
 30
0.0
 11
4687.0645600592415576
 21
314.7950499103656057
 31
0.0
  0
LINE
  5
23ACA
  8
0
 10
4686.9562778502313449
 20
314.8382670135541161
 30
0.0
 11
4686.9624331872691982
 21
314.7874256240647242
 31
0.0
  0
ARC
  5
23ACB
  8
0
 10
4687.0148358383776213
 20
314.7817824034374894
 30
0.0
 40
0.0813606118205117
 50
47.1261608250192765
 51
136.0325127598592019
  0
ARC
  5
23ACC
  8
0
 10
4687.0340453852086284
 20
314.8069269859473138
 30
0.0
 40
0.0499553906524613
 50
14.0247204189743204
 51
43.6485214455706725
  0
ARC
  5
23ACD
  8
0
 10
4687.0266346741900634
 20
314.835515431813576
 30
0.0
 40
0.0582572092925923
 50
309.4866654052418085
 51
343.5653390368522082
  0
ARC
  5
23ACE
  8
0
 10
4686.9934995908743076
 20
314.8286523781742972
 30
0.0
 40
0.051621378201068
 50
194.5134189657921979
 51
233.0001630368932979
  0
ARC
  5
23ACF
  8
0
 10
4686.9970278875798613
 20
314.8003423566830179
 30
0.0
 40
0.0556672717382415
 50
137.0567329799069967
 51
163.9685431672849063
  0
ARC
  5
23AD0
  8
0
 10
4687.0111919734517869
 20
314.833549129174628
 30
0.0
 40
0.077624677464013
 50
270.5894820910356202
 51
285.7327110217096902
  0
ARC
  5
23AD1
  8
0
 10
4687.0127892132586567
 20
314.833549129174628
 30
0.0
 40
0.077624677464013
 50
254.2672889782901962
 51
269.4105179089643798
  0
ARC
  5
23AD2
  8
0
 10
4687.4293633582437906
 20
314.9287432404424862
 30
0.0
 40
0.0199743909573314
 50
89.8673035153680075
 51
153.5091345785602073
  0
ARC
  5
23AD3
  8
0
 10
4687.4226378589246451
 20
314.9331325176901828
 30
0.0
 40
0.0120330474472751
 50
157.9345414732950985
 51
204.7808374950382131
  0
ARC
  5
23AD4
  8
0
 10
4687.4279889998697399
 20
314.9371876496875871
 30
0.0
 40
0.0186467381479541
 50
209.2062443897883952
 51
257.9806363180700259
  0
ARC
  5
23AD5
  8
0
 10
4687.4293231250730969
 20
314.943453801370822
 30
0.0
 40
0.0250533399753439
 50
257.9806363180700259
 51
303.9710640766826941
  0
ARC
  5
23AD6
  8
0
 10
4687.4354199058707309
 20
314.9344050980171801
 30
0.0
 40
0.0141423469642897
 50
303.9710640766826941
 51
1.0777982919170981
  0
ARC
  5
23AD7
  8
0
 10
4687.4375140299025588
 20
314.9344444955012818
 30
0.0
 40
0.0120478523673216
 50
1.077798291920355
 51
61.3589288293862865
  0
ARC
  5
23AD8
  8
0
 10
4687.4308304009928179
 20
314.9261627361096885
 30
0.0
 40
0.0225995466183604
 50
56.5459173457879487
 51
93.6044328303080846
  0
ARC
  5
23AD9
  8
0
 10
4687.4420965802064529
 20
314.9441138843840804
 30
0.0
 40
0.0401387031439292
 50
328.0609122715648027
 51
352.3012115673989229
  0
ARC
  5
23ADA
  8
0
 10
4687.4356008118629688
 20
314.9481632950880794
 30
0.0
 40
0.0477932921866574
 50
286.9618252377255203
 51
328.0609122715620174
  0
ARC
  5
23ADB
  8
0
 10
4687.422002572792735
 20
314.9450475084889263
 30
0.0
 40
0.044525548106371
 50
198.3334167584503973
 51
253.0814924701955135
  0
LINE
  5
23ADC
  8
0
 10
4687.4874963429301715
 20
314.9850243687259876
 30
0.0
 11
4687.4818639161667306
 21
314.9386664555777884
 31
0.0
  0
LINE
  5
23ADD
  8
0
 10
4687.3735817071574274
 20
314.9818835587662988
 30
0.0
 11
4687.3797370441943713
 21
314.9310421692767932
 31
0.0
  0
ARC
  5
23ADE
  8
0
 10
4687.4321396953018848
 20
314.9253989486496721
 30
0.0
 40
0.0813606118205117
 50
47.1261608250192765
 51
136.0325127598592019
  0
ARC
  5
23ADF
  8
0
 10
4687.4513492421347109
 20
314.9505435311593828
 30
0.0
 40
0.0499553906524613
 50
14.0247204189743204
 51
43.6485214455706725
  0
ARC
  5
23AE0
  8
0
 10
4687.4439385311152364
 20
314.9791319770258156
 30
0.0
 40
0.0582572092925923
 50
309.4866654052418085
 51
343.5653390368522082
  0
ARC
  5
23AE1
  8
0
 10
4687.4108034477985711
 20
314.972268923386423
 30
0.0
 40
0.051621378201068
 50
194.5134189657921979
 51
233.0001630368932979
  0
ARC
  5
23AE2
  8
0
 10
4687.4143317445059438
 20
314.9439589018950869
 30
0.0
 40
0.0556672717382415
 50
137.0567329799069967
 51
163.9685431672849063
  0
ARC
  5
23AE3
  8
0
 10
4687.4284958303778694
 20
314.9771656743868107
 30
0.0
 40
0.077624677464013
 50
270.5894820910356202
 51
285.7327110217096902
  0
ARC
  5
23AE4
  8
0
 10
4687.4300930701856487
 20
314.9771656743868107
 30
0.0
 40
0.077624677464013
 50
254.2672889782901962
 51
269.4105179089643798
  0
ARC
  5
23AE5
  8
0
 10
4686.706477923609782
 20
314.5632332379739751
 30
0.0
 40
0.0199743909573314
 50
89.8673035153680075
 51
153.5091345785602073
  0
ARC
  5
23AE6
  8
0
 10
4686.6997524242888176
 20
314.5676225152216716
 30
0.0
 40
0.0120330474472751
 50
157.9345414732950985
 51
204.7808374950382131
  0
ARC
  5
23AE7
  8
0
 10
4686.7051035652357314
 20
314.5716776472190759
 30
0.0
 40
0.0186467381479541
 50
209.2062443897883952
 51
257.9806363180700259
  0
ARC
  5
23AE8
  8
0
 10
4686.7064376904381788
 20
314.5779437989023108
 30
0.0
 40
0.0250533399753439
 50
257.9806363180700259
 51
303.9710640766826941
  0
ARC
  5
23AE9
  8
0
 10
4686.7125344712367223
 20
314.5688950955487257
 30
0.0
 40
0.0141423469642897
 50
303.9710640766826941
 51
1.0777982919170981
  0
ARC
  5
23AEA
  8
0
 10
4686.7146285952667313
 20
314.5689344930328843
 30
0.0
 40
0.0120478523673216
 50
1.077798291920355
 51
61.3589288293862865
  0
ARC
  5
23AEB
  8
0
 10
4686.7079449663569903
 20
314.560652733641291
 30
0.0
 40
0.0225995466183604
 50
56.5459173457879487
 51
93.6044328303080846
  0
ARC
  5
23AEC
  8
0
 10
4686.7192111455706254
 20
314.5786038819156261
 30
0.0
 40
0.0401387031439292
 50
328.0609122715648027
 51
352.3012115673989229
  0
ARC
  5
23AED
  8
0
 10
4686.7127153772280508
 20
314.5826532926196251
 30
0.0
 40
0.0477932921866574
 50
286.9618252377255203
 51
328.0609122715620174
  0
ARC
  5
23AEE
  8
0
 10
4686.6991171381569075
 20
314.5795375060204719
 30
0.0
 40
0.044525548106371
 50
198.3334167584503973
 51
253.0814924701955135
  0
LINE
  5
23AEF
  8
0
 10
4686.7646109082952535
 20
314.6195143662575902
 30
0.0
 11
4686.7589784815327221
 21
314.5731564531092772
 31
0.0
  0
LINE
  5
23AF0
  8
0
 10
4686.6506962725206904
 20
314.6163735562977877
 30
0.0
 11
4686.6568516095594532
 21
314.5655321668083957
 31
0.0
  0
ARC
  5
23AF1
  8
0
 10
4686.7092542606678762
 20
314.5598889461812178
 30
0.0
 40
0.0813606118205117
 50
47.1261608250192765
 51
136.0325127598592019
  0
ARC
  5
23AF2
  8
0
 10
4686.7284638074997929
 20
314.5850335286909853
 30
0.0
 40
0.0499553906524613
 50
14.0247204189743204
 51
43.6485214455706725
  0
ARC
  5
23AF3
  8
0
 10
4686.7210530964803183
 20
314.6136219745573044
 30
0.0
 40
0.0582572092925923
 50
309.4866654052418085
 51
343.5653390368522082
  0
ARC
  5
23AF4
  8
0
 10
4686.6879180131645626
 20
314.6067589209179118
 30
0.0
 40
0.051621378201068
 50
194.5134189657921979
 51
233.0001630368932979
  0
ARC
  5
23AF5
  8
0
 10
4686.6914463098710257
 20
314.5784488994266894
 30
0.0
 40
0.0556672717382415
 50
137.0567329799069967
 51
163.9685431672849063
  0
ARC
  5
23AF6
  8
0
 10
4686.7056103957429514
 20
314.6116556719182995
 30
0.0
 40
0.077624677464013
 50
270.5894820910356202
 51
285.7327110217096902
  0
ARC
  5
23AF7
  8
0
 10
4686.7072076355489116
 20
314.6116556719182995
 30
0.0
 40
0.077624677464013
 50
254.2672889782901962
 51
269.4105179089643798
  0
ENDSEC
  0
EOF
