  0
SECTION
  2
HEADER
  9
$ACADVER
  1
AC1009
  9
$INSBASE
 10
4255.9537237051408738
 20
95.5705685726149738
 30
0.0
  9
$EXTMIN
 10
4252.4404755069808743
 20
92.2135886500499851
 30
-0.0000000000000058
  9
$EXTMAX
 10
4259.5751113043306759
 20
98.9262099040593057
 30
0.0000000000000104
  9
$LIMMIN
 10
0.0
 20
0.0
  9
$LIMMAX
 10
11.6929133858000007
 20
8.2677165353999982
  9
$ORTHOMODE
 70
     0
  9
$REGENMODE
 70
     1
  9
$FILLMODE
 70
     1
  9
$QTEXTMODE
 70
     0
  9
$MIRRTEXT
 70
     0
  9
$DRAGMODE
 70
     2
  9
$LTSCALE
 40
0.6431102362
  9
$OSMODE
 70
  4095
  9
$ATTMODE
 70
     1
  9
$TEXTSIZE
 40
0.2
  9
$TRACEWID
 40
0.05
  9
$TEXTSTYLE
  7
STANDARD
  9
$CLAYER
  8
0
  9
$CELTYPE
  6
BYLAYER
  9
$CECOLOR
 62
   256
  9
$DIMSCALE
 40
1.0
  9
$DIMASZ
 40
0.1875
  9
$DIMEXO
 40
0.0625
  9
$DIMDLI
 40
0.4443307087
  9
$DIMRND
 40
0.0
  9
$DIMDLE
 40
0.0
  9
$DIMEXE
 40
0.125
  9
$DIMTP
 40
0.01
  9
$DIMTM
 40
0.01
  9
$DIMTXT
 40
2.0
  9
$DIMCEN
 40
0.1052362205
  9
$DIMTSZ
 40
0.0
  9
$DIMTOL
 70
     1
  9
$DIMLIM
 70
     0
  9
$DIMTIH
 70
     1
  9
$DIMTOH
 70
     1
  9
$DIMSE1
 70
     0
  9
$DIMSE2
 70
     0
  9
$DIMTAD
 70
     0
  9
$DIMZIN
 70
     0
  9
$DIMBLK
  1

  9
$DIMASO
 70
     1
  9
$DIMSHO
 70
     1
  9
$DIMPOST
  1
\X
  9
$DIMAPOST
  1

  9
$DIMALT
 70
     1
  9
$DIMALTD
 70
     2
  9
$DIMALTF
 40
25.3999999999999986
  9
$DIMLFAC
 40
1.0
  9
$DIMTOFL
 70
     0
  9
$DIMTVP
 40
0.0
  9
$DIMTIX
 70
     0
  9
$DIMSOXD
 70
     0
  9
$DIMSAH
 70
     0
  9
$DIMBLK1
  1

  9
$DIMBLK2
  1

  9
$DIMSTYLE
  2
STANDARD
  9
$DIMCLRD
 70
     0
  9
$DIMCLRE
 70
     0
  9
$DIMCLRT
 70
     0
  9
$DIMTFAC
 40
1.0
  9
$DIMGAP
 40
0.09
  9
$LUNITS
 70
     2
  9
$LUPREC
 70
     4
  9
$SKETCHINC
 40
0.1
  9
$FILLETRAD
 40
0.0
  9
$AUNITS
 70
     0
  9
$AUPREC
 70
     0
  9
$MENU
  1
.
  9
$ELEVATION
 40
0.0
  9
$PELEVATION
 40
0.0
  9
$THICKNESS
 40
0.0
  9
$LIMCHECK
 70
     0
  9
$BLIPMODE
 70
     0
  9
$CHAMFERA
 40
0.0
  9
$CHAMFERB
 40
0.0
  9
$SKPOLY
 70
     0
  9
$TDCREATE
 40
2458060.468368056230247
  9
$TDUPDATE
 40
2459433.666157407220453
  9
$TDINDWG
 40
0.3421251157
  9
$TDUSRTIMER
 40
0.3421251157
  9
$USRTIMER
 70
     1
  9
$ANGBASE
 50
0.0
  9
$ANGDIR
 70
     0
  9
$PDMODE
 70
     0
  9
$PDSIZE
 40
0.3125
  9
$PLINEWID
 40
0.0
  9
$COORDS
 70
     1
  9
$SPLFRAME
 70
     0
  9
$SPLINETYPE
 70
     6
  9
$SPLINESEGS
 70
     8
  9
$ATTDIA
 70
     1
  9
$ATTREQ
 70
     1
  9
$HANDLING
 70
     1
  9
$HANDSEED
  5
A844
  9
$SURFTAB1
 70
     6
  9
$SURFTAB2
 70
     6
  9
$SURFTYPE
 70
     6
  9
$SURFU
 70
     6
  9
$SURFV
 70
     6
  9
$UCSNAME
  2

  9
$UCSORG
 10
0.0
 20
0.0
 30
0.0
  9
$UCSXDIR
 10
1.0
 20
0.0
 30
0.0
  9
$UCSYDIR
 10
0.0
 20
1.0
 30
0.0
  9
$PUCSNAME
  2

  9
$PUCSORG
 10
0.0
 20
0.0
 30
0.0
  9
$PUCSXDIR
 10
1.0
 20
0.0
 30
0.0
  9
$PUCSYDIR
 10
0.0
 20
1.0
 30
0.0
  9
$USERI1
 70
     0
  9
$USERI2
 70
     0
  9
$USERI3
 70
     0
  9
$USERI4
 70
     0
  9
$USERI5
 70
     0
  9
$USERR1
 40
0.0
  9
$USERR2
 40
0.0
  9
$USERR3
 40
0.0
  9
$USERR4
 40
0.0
  9
$USERR5
 40
0.0
  9
$WORLDVIEW
 70
     1
  9
$SHADEDGE
 70
     3
  9
$SHADEDIF
 70
    70
  9
$TILEMODE
 70
     1
  9
$MAXACTVP
 70
    64
  9
$PLIMCHECK
 70
     0
  9
$PEXTMIN
 10
1.0000000000000000E+20
 20
1.0000000000000000E+20
 30
1.0000000000000000E+20
  9
$PEXTMAX
 10
-1.0000000000000000E+20
 20
-1.0000000000000000E+20
 30
-1.0000000000000000E+20
  9
$PLIMMIN
 10
0.0
 20
0.0
  9
$PLIMMAX
 10
12.0
 20
9.0
  9
$UNITMODE
 70
     0
  9
$VISRETAIN
 70
     1
  9
$PLINEGEN
 70
     0
  9
$PSLTSCALE
 70
     1
  0
ENDSEC
  0
SECTION
  2
TABLES
  0
TABLE
  2
VPORT
 70
     1
  0
VPORT
  2
*ACTIVE
 70
     0
 10
0.0
 20
0.0
 11
1.0
 21
1.0
 12
-8.9985542505937701
 22
-8.7341130215293372
 13
0.0
 23
0.0
 14
1.0
 24
1.0
 15
0.0
 25
0.0
 16
0.0
 26
0.0
 36
122.0237731519760018
 17
4265.00634765625
 27
104.3040122985839986
 37
0.0
 40
6.7729142592848532
 41
2.8440779610194902
 42
50.0
 43
0.0
 44
0.0
 50
0.0
 51
0.0
 71
     0
 72
   100
 73
     1
 74
     1
 75
     0
 76
     0
 77
     0
 78
     0
  0
ENDTAB
  0
TABLE
  2
LTYPE
 70
     2
  0
LTYPE
  2
CONTINUOUS
 70
     0
  3
Solid line
 72
    65
 73
     0
 40
0.0
  0
LTYPE
  2
PHANTOM2
 70
     0
  3
___ _ _ ___ _ _ ___ _ _ ___ _ _
 72
    65
 73
     6
 40
1.25
 49
0.625
 49
-0.125
 49
0.125
 49
-0.125
 49
0.125
 49
-0.125
  0
ENDTAB
  0
TABLE
  2
LAYER
 70
     2
  0
LAYER
  2
0
 70
     0
 62
   255
  6
CONTINUOUS
  0
LAYER
  2
DEFPOINTS
 70
     0
 62
     7
  6
CONTINUOUS
  0
ENDTAB
  0
TABLE
  2
STYLE
 70
     1
  0
STYLE
  2
STANDARD
 70
     0
 40
0.0
 41
0.8
 50
0.0
 71
     0
 42
0.2
  3
txt
  4

  0
ENDTAB
  0
TABLE
  2
VIEW
 70
     0
  0
ENDTAB
  0
TABLE
  2
UCS
 70
     0
  0
ENDTAB
  0
TABLE
  2
APPID
 70
    10
  0
APPID
  2
ACAD
 70
     0
  0
APPID
  2
ACAD_MLEADERVER
 70
     0
  0
APPID
  2
ACAD_EXEMPT_FROM_CAD_STANDARDS
 70
     0
  0
APPID
  2
ACAD_NAV_VCDISPLAY
 70
     0
  0
APPID
  2
ACAECLAYERSTANDARD
 70
     0
  0
APPID
  2
ACCMTRANSPARENCY
 70
     0
  0
APPID
  2
ACAD_DSTYLE_DIMJAG
 70
     0
  0
APPID
  2
ACAD_DSTYLE_DIMTALN
 70
     0
  0
APPID
  2
ACDBATTR
 70
     0
  0
APPID
  2
DCO15
 70
     0
  0
ENDTAB
  0
TABLE
  2
DIMSTYLE
 70
     1
  0
DIMSTYLE
  2
STANDARD
 70
     0
  3

  4

  5

  6

  7

 40
1.0
 41
0.1875
 42
0.0625
 43
0.38
 44
0.125
 45
0.0
 46
0.0
 47
0.01
 48
0.01
140
0.15625
141
0.09
142
0.0
143
25.3999999999999986
144
1.0
145
0.0
146
1.0
147
0.09
 71
     1
 72
     0
 73
     1
 74
     1
 75
     0
 76
     0
 77
     0
 78
     4
170
     0
171
     2
172
     0
173
     0
174
     0
175
     0
176
     0
177
     0
178
     0
  0
ENDTAB
  0
ENDSEC
  0
SECTION
  2
BLOCKS
  0
BLOCK
  8
0
  2
$MODEL_SPACE
 70
     0
 10
0.0
 20
0.0
 30
0.0
  3
$MODEL_SPACE
  1

  0
ENDBLK
  5
21
  8
0
  0
BLOCK
 67
     1
  8
0
  2
$PAPER_SPACE
 70
     0
 10
0.0
 20
0.0
 30
0.0
  3
$PAPER_SPACE
  1

  0
ENDBLK
  5
1D
 67
     1
  8
0
  0
ENDSEC
  0
SECTION
  2
ENTITIES
  0
ATTDEF
  5
9852
  8
DEFPOINTS
 10
4255.9500995448861431
 20
95.5792037516197439
 30
0.0
 40
0.001
  1
P25022-CR
  3

  2
MODELNUMBER
 70
     0
1001
ACDBATTR
1070
     0
1070
     1
  0
ATTDEF
  5
9853
  8
DEFPOINTS
 10
4255.9500995448861431
 20
95.577537084953093
 30
0.0
 40
0.001
  1
SCRIPT
  3

  2
TRADENAME
 70
     0
1001
ACDBATTR
1070
     0
1070
     1
  0
ATTDEF
  5
9854
  8
DEFPOINTS
 10
4255.9500995448861431
 20
95.5758704182864278
 30
0.0
 40
0.001
  1
VALVE TRIM
  3

  2
PRODUCT
 70
     0
1001
ACDBATTR
1070
     0
1070
     1
  0
CIRCLE
  5
A6DF
  8
0
 10
4255.9537237051408738
 20
95.5705685726149738
 30
0.0
 40
3.3501081438428062
  0
CIRCLE
  5
A6E0
  8
0
 10
4255.9537237051408738
 20
95.5705685726149738
 30
0.0
 40
2.7195866347999891
  0
CIRCLE
  5
A6E1
  8
0
 10
4255.9537237051408738
 20
95.5705685726149738
 30
0.0
 40
2.7646283833788861
  0
LINE
  5
A6E2
  8
0
 10
4255.5211298679805623
 20
94.0283495906032556
 30
0.0
 11
4255.5689073798475874
 21
94.950886352558058
 31
0.0
  0
ARC
  5
A6E3
  8
0
 10
4255.9537237051408738
 20
97.9152002034057034
 30
0.0
 40
3.9730508898941319
 50
264.6475807893461933
 51
275.3524192106538067
  0
ARC
  5
A6E4
  8
0
 10
4255.5921570154650908
 20
94.0299394569645841
 30
0.0
 40
0.0710449389803678
 50
181.2822903158117072
 51
262.6851539621383154
  0
LINE
  5
A6E5
  8
0
 10
4254.4104381744136845
 20
95.1379684259548242
 30
0.0
 11
4255.3340539983082635
 21
95.185752294381814
 31
0.0
  0
ARC
  5
A6E6
  8
0
 10
4254.4120606865562877
 20
95.2078123780985379
 30
0.0
 40
0.0698627955116745
 50
186.4220279322912006
 51
268.6692279322638797
  0
ARC
  5
A6E7
  8
0
 10
4255.345606640036749
 20
94.9624509364166585
 30
0.0
 40
0.2236
 50
357.0353416455338902
 51
92.9615941788647433
  0
LINE
  5
A6E8
  8
0
 10
4254.4104381744136845
 20
96.0031624097751575
 30
0.0
 11
4255.3340539983082635
 21
95.9553848508481622
 31
0.0
  0
ARC
  5
A6E9
  8
0
 10
4258.2969827880087905
 20
95.5705685726150023
 30
0.0
 40
3.9716720324707491
 50
174.6463232193964927
 51
185.3536767806043031
  0
ARC
  5
A6EA
  8
0
 10
4254.4120485208168247
 20
95.9333309615608556
 30
0.0
 40
0.0698500134233385
 50
91.3210337851476339
 51
173.5819050996734916
  0
ARC
  5
A6EB
  8
0
 10
4255.345606640036749
 20
96.1786862088133034
 30
0.0
 40
0.2236
 50
267.0384058211351999
 51
2.96465835446614
  0
LINE
  5
A6EC
  8
0
 10
4255.5211298679805623
 20
97.1127875546267347
 30
0.0
 11
4255.5689073798475874
 21
96.1902507926719466
 31
0.0
  0
ARC
  5
A6ED
  8
0
 10
4255.9537237051408738
 20
93.2244893581313079
 30
0.0
 40
3.9744921640871169
 50
84.6495274054216367
 51
95.3504725945783633
  0
ARC
  5
A6EE
  8
0
 10
4255.5921570154650908
 20
97.1111976882654204
 30
0.0
 40
0.0710449389803678
 50
97.3148460378616846
 51
178.7177096841882076
  0
LINE
  5
A6EF
  8
0
 10
4256.3863238518024446
 20
94.0283495906032556
 30
0.0
 11
4256.3385400304341601
 21
94.950886352558058
 31
0.0
  0
ARC
  5
A6F0
  8
0
 10
4256.3152839366339322
 20
94.0299517759741548
 30
0.0
 40
0.0710579801623595
 50
277.3187463464500979
 51
358.708009436687405
  0
LINE
  5
A6F1
  8
0
 10
4257.4970092358680631
 20
95.1379684259548242
 30
0.0
 11
4256.5733934119743935
 21
95.185752294381814
 31
0.0
  0
ARC
  5
A6F2
  8
0
 10
4257.4953867237245504
 20
95.2078123780985379
 30
0.0
 40
0.0698627955116745
 50
271.3307720677361203
 51
353.5779720677086857
  0
ARC
  5
A6F3
  8
0
 10
4256.5618407702449986
 20
94.9624509364166585
 30
0.0
 40
0.2236
 50
87.0384058211352567
 51
182.9646583544661098
  0
LINE
  5
A6F4
  8
0
 10
4257.4970092358680631
 20
96.0031624097751575
 30
0.0
 11
4256.5733934119743935
 21
95.9553848508481622
 31
0.0
  0
ARC
  5
A6F5
  8
0
 10
4253.6119104752378917
 20
95.5705685726150023
 30
0.0
 40
3.9702324890053031
 50
354.6443763886740044
 51
5.3556236113260649
  0
ARC
  5
A6F6
  8
0
 10
4257.4953988894649228
 20
95.9333309615608556
 30
0.0
 40
0.0698500134233385
 50
6.4180949003264951
 51
88.6789662148523661
  0
ARC
  5
A6F7
  8
0
 10
4256.5618407702449986
 20
96.1786862088133034
 30
0.0
 40
0.2236
 50
177.0353416455338049
 51
272.9615941788646865
  0
LINE
  5
A6F8
  8
0
 10
4256.3863238518024446
 20
97.1127875546267347
 30
0.0
 11
4256.3385400304341601
 21
96.1902507926719466
 31
0.0
  0
ARC
  5
A6F9
  8
0
 10
4256.3152839366339322
 20
97.1111853692558213
 30
0.0
 40
0.0710579801623608
 50
1.2919905633142561
 51
82.6812536535499447
  0
LINE
  5
A6FA
  8
0
 10
4255.5037199440857876
 20
96.0205813604295457
 30
0.0
 11
4256.4037274661950505
 21
95.1205557848004162
 31
0.0
  0
LINE
  5
A6FB
  8
0
 10
4255.5037199440857876
 20
95.1205557848004162
 30
0.0
 11
4256.4037274661950505
 21
96.0205813604295457
 31
0.0
  0
ENDSEC
  0
EOF
