  0
SECTION
  2
HEADER
  9
$ACADVER
  1
AC1009
  9
$INSBASE
 10
2791.5565962479568043
 20
81.215146302580564
 30
0.0
  9
$EXTMIN
 10
2787.9296306421970257
 20
78.1650288995347751
 30
-0.0000000000112498
  9
$EXTMAX
 10
2795.1800868807331426
 20
81.2198509281001577
 30
0.0000000000002956
  9
$LIMMIN
 10
0.0
 20
0.0
  9
$LIMMAX
 10
11.6929133858000007
 20
8.2677165353999982
  9
$ORTHOMODE
 70
     1
  9
$REGENMODE
 70
     1
  9
$FILLMODE
 70
     1
  9
$QTEXTMODE
 70
     0
  9
$MIRRTEXT
 70
     0
  9
$DRAGMODE
 70
     2
  9
$LTSCALE
 40
0.6431102362
  9
$OSMODE
 70
  4095
  9
$ATTMODE
 70
     1
  9
$TEXTSIZE
 40
0.2
  9
$TRACEWID
 40
0.05
  9
$TEXTSTYLE
  7
STANDARD
  9
$CLAYER
  8
0
  9
$CELTYPE
  6
BYLAYER
  9
$CECOLOR
 62
   256
  9
$DIMSCALE
 40
1.0
  9
$DIMASZ
 40
0.1875
  9
$DIMEXO
 40
0.0625
  9
$DIMDLI
 40
0.4443307087
  9
$DIMRND
 40
0.0
  9
$DIMDLE
 40
0.0
  9
$DIMEXE
 40
0.125
  9
$DIMTP
 40
0.01
  9
$DIMTM
 40
0.01
  9
$DIMTXT
 40
2.0
  9
$DIMCEN
 40
0.1052362205
  9
$DIMTSZ
 40
0.0
  9
$DIMTOL
 70
     1
  9
$DIMLIM
 70
     0
  9
$DIMTIH
 70
     1
  9
$DIMTOH
 70
     1
  9
$DIMSE1
 70
     0
  9
$DIMSE2
 70
     0
  9
$DIMTAD
 70
     0
  9
$DIMZIN
 70
     0
  9
$DIMBLK
  1

  9
$DIMASO
 70
     1
  9
$DIMSHO
 70
     1
  9
$DIMPOST
  1
\X
  9
$DIMAPOST
  1

  9
$DIMALT
 70
     1
  9
$DIMALTD
 70
     2
  9
$DIMALTF
 40
25.3999999999999986
  9
$DIMLFAC
 40
1.0
  9
$DIMTOFL
 70
     0
  9
$DIMTVP
 40
0.0
  9
$DIMTIX
 70
     0
  9
$DIMSOXD
 70
     0
  9
$DIMSAH
 70
     0
  9
$DIMBLK1
  1

  9
$DIMBLK2
  1

  9
$DIMSTYLE
  2
STANDARD
  9
$DIMCLRD
 70
     0
  9
$DIMCLRE
 70
     0
  9
$DIMCLRT
 70
     0
  9
$DIMTFAC
 40
1.0
  9
$DIMGAP
 40
0.09
  9
$LUNITS
 70
     2
  9
$LUPREC
 70
     4
  9
$SKETCHINC
 40
0.1
  9
$FILLETRAD
 40
0.0
  9
$AUNITS
 70
     0
  9
$AUPREC
 70
     0
  9
$MENU
  1
.
  9
$ELEVATION
 40
0.0
  9
$PELEVATION
 40
0.0
  9
$THICKNESS
 40
0.0
  9
$LIMCHECK
 70
     0
  9
$BLIPMODE
 70
     0
  9
$CHAMFERA
 40
0.0
  9
$CHAMFERB
 40
0.0
  9
$SKPOLY
 70
     0
  9
$TDCREATE
 40
2458060.468368056230247
  9
$TDUPDATE
 40
2459691.5667013889178634
  9
$TDINDWG
 40
0.499972338
  9
$TDUSRTIMER
 40
0.499972338
  9
$USRTIMER
 70
     1
  9
$ANGBASE
 50
0.0
  9
$ANGDIR
 70
     0
  9
$PDMODE
 70
     0
  9
$PDSIZE
 40
0.3125
  9
$PLINEWID
 40
0.0
  9
$COORDS
 70
     1
  9
$SPLFRAME
 70
     0
  9
$SPLINETYPE
 70
     6
  9
$SPLINESEGS
 70
     8
  9
$ATTDIA
 70
     1
  9
$ATTREQ
 70
     1
  9
$HANDLING
 70
     1
  9
$HANDSEED
  5
41192
  9
$SURFTAB1
 70
     6
  9
$SURFTAB2
 70
     6
  9
$SURFTYPE
 70
     6
  9
$SURFU
 70
     6
  9
$SURFV
 70
     6
  9
$UCSNAME
  2

  9
$UCSORG
 10
0.0
 20
0.0
 30
0.0
  9
$UCSXDIR
 10
1.0
 20
0.0
 30
0.0
  9
$UCSYDIR
 10
0.0
 20
1.0
 30
0.0
  9
$PUCSNAME
  2

  9
$PUCSORG
 10
0.0
 20
0.0
 30
0.0
  9
$PUCSXDIR
 10
1.0
 20
0.0
 30
0.0
  9
$PUCSYDIR
 10
0.0
 20
1.0
 30
0.0
  9
$USERI1
 70
     0
  9
$USERI2
 70
     0
  9
$USERI3
 70
     0
  9
$USERI4
 70
     0
  9
$USERI5
 70
     0
  9
$USERR1
 40
0.0
  9
$USERR2
 40
0.0
  9
$USERR3
 40
0.0
  9
$USERR4
 40
0.0
  9
$USERR5
 40
0.0
  9
$WORLDVIEW
 70
     1
  9
$SHADEDGE
 70
     3
  9
$SHADEDIF
 70
    70
  9
$TILEMODE
 70
     1
  9
$MAXACTVP
 70
    64
  9
$PLIMCHECK
 70
     0
  9
$PEXTMIN
 10
1.0000000000000000E+20
 20
1.0000000000000000E+20
 30
1.0000000000000000E+20
  9
$PEXTMAX
 10
-1.0000000000000000E+20
 20
-1.0000000000000000E+20
 30
-1.0000000000000000E+20
  9
$PLIMMIN
 10
0.0
 20
0.0
  9
$PLIMMAX
 10
12.0
 20
9.0
  9
$UNITMODE
 70
     0
  9
$VISRETAIN
 70
     1
  9
$PLINEGEN
 70
     0
  9
$PSLTSCALE
 70
     1
  0
ENDSEC
  0
SECTION
  2
TABLES
  0
TABLE
  2
VPORT
 70
     1
  0
VPORT
  2
*ACTIVE
 70
     0
 10
0.0
 20
0.0
 11
1.0
 21
1.0
 12
-1011.9892086213479843
 22
-46.3028222829324534
 13
0.0
 23
0.0
 14
1.0
 24
1.0
 15
0.0
 25
0.0
 16
0.0
 26
0.0
 36
17.1152628219792007
 17
3803.5440673828129547
 27
125.9952621967499056
 37
0.0
 40
3.18559022693481
 41
2.2831541218637992
 42
50.0
 43
0.0
 44
0.0
 50
0.0
 51
0.0
 71
     0
 72
   100
 73
     1
 74
     1
 75
     0
 76
     0
 77
     0
 78
     0
  0
ENDTAB
  0
TABLE
  2
LTYPE
 70
     2
  0
LTYPE
  2
CONTINUOUS
 70
     0
  3
Solid line
 72
    65
 73
     0
 40
0.0
  0
LTYPE
  2
PHANTOM2
 70
     0
  3
___ _ _ ___ _ _ ___ _ _ ___ _ _
 72
    65
 73
     6
 40
1.25
 49
0.625
 49
-0.125
 49
0.125
 49
-0.125
 49
0.125
 49
-0.125
  0
ENDTAB
  0
TABLE
  2
LAYER
 70
     2
  0
LAYER
  2
0
 70
     0
 62
   255
  6
CONTINUOUS
  0
LAYER
  2
DEFPOINTS
 70
     0
 62
     7
  6
CONTINUOUS
  0
ENDTAB
  0
TABLE
  2
STYLE
 70
     1
  0
STYLE
  2
STANDARD
 70
     0
 40
0.0
 41
0.8
 50
0.0
 71
     0
 42
0.2
  3
txt
  4

  0
ENDTAB
  0
TABLE
  2
VIEW
 70
     0
  0
ENDTAB
  0
TABLE
  2
UCS
 70
     0
  0
ENDTAB
  0
TABLE
  2
APPID
 70
     9
  0
APPID
  2
ACAD
 70
     0
  0
APPID
  2
ACAD_MLEADERVER
 70
     0
  0
APPID
  2
ACAD_EXEMPT_FROM_CAD_STANDARDS
 70
     0
  0
APPID
  2
ACAD_NAV_VCDISPLAY
 70
     0
  0
APPID
  2
ACAECLAYERSTANDARD
 70
     0
  0
APPID
  2
ACCMTRANSPARENCY
 70
     0
  0
APPID
  2
ACAD_DSTYLE_DIMJAG
 70
     0
  0
APPID
  2
ACAD_DSTYLE_DIMTALN
 70
     0
  0
APPID
  2
ACDBATTR
 70
     0
  0
ENDTAB
  0
TABLE
  2
DIMSTYLE
 70
     1
  0
DIMSTYLE
  2
STANDARD
 70
     0
  3

  4

  5

  6

  7

 40
1.0
 41
0.1875
 42
0.0625
 43
0.38
 44
0.125
 45
0.0
 46
0.0
 47
0.01
 48
0.01
140
0.15625
141
0.09
142
0.0
143
25.3999999999999986
144
1.0
145
0.0
146
1.0
147
0.09
 71
     1
 72
     0
 73
     1
 74
     1
 75
     0
 76
     0
 77
     0
 78
     4
170
     0
171
     2
172
     0
173
     0
174
     0
175
     0
176
     0
177
     0
178
     0
  0
ENDTAB
  0
ENDSEC
  0
SECTION
  2
BLOCKS
  0
BLOCK
  8
0
  2
$MODEL_SPACE
 70
     0
 10
0.0
 20
0.0
 30
0.0
  3
$MODEL_SPACE
  1

  0
ENDBLK
  5
21
  8
0
  0
BLOCK
 67
     1
  8
0
  2
$PAPER_SPACE
 70
     0
 10
0.0
 20
0.0
 30
0.0
  3
$PAPER_SPACE
  1

  0
ENDBLK
  5
1D
 67
     1
  8
0
  0
BLOCK
  8
0
  2
_FILLED
 70
     0
 10
0.0
 20
0.0
 30
0.0
  3
_FILLED
  1

  0
SOLID
  5
40DFB
  8
0
  6
BYBLOCK
 62
     0
 10
0.0
 20
0.0
 30
0.0
 11
-1.0
 21
0.1666666667
 31
0.0
 12
-1.0
 22
-0.1666666667
 32
0.0
 13
-1.0
 23
-0.1666666667
 33
0.0
  0
ENDBLK
  5
40DFC
  8
0
  6
BYBLOCK
 62
     0
  0
ENDSEC
  0
SECTION
  2
ENTITIES
  0
LINE
  5
40F1C
  8
0
 10
2788.2540289687121913
 20
78.1685279382805618
 30
0.0
 11
2794.8591635272009626
 21
78.1685279382805618
 31
0.0
  0
LINE
  5
40F1D
  8
0
 10
2790.949983225647884
 20
78.9185279382805618
 30
0.0
 11
2788.2540289687121913
 21
78.9185279382805618
 31
0.0
  0
LINE
  5
40F1E
  8
0
 10
2790.4983117991569088
 20
81.215146302580564
 30
0.0
 11
2792.6148806967571545
 21
81.215146302580564
 31
0.0
  0
LINE
  5
40F1F
  8
0
 10
2790.4562572856320912
 20
81.1542131553805461
 30
0.0
 11
2792.6569352100368633
 21
81.1542131553805461
 31
0.0
  0
LINE
  5
40F20
  8
0
 10
2790.4447862910569711
 20
81.0562561574805613
 30
0.0
 11
2792.6684062048561827
 21
81.0562561574805613
 31
0.0
  0
LINE
  5
40F21
  8
0
 10
2790.6337501604612044
 20
80.9236779382805622
 30
0.0
 11
2792.4794423354519495
 21
80.9236779382805622
 31
0.0
  0
LINE
  5
40F22
  8
0
 10
2790.4983117991569088
 20
81.215146302580564
 30
0.0
 11
2790.4983117991569088
 21
81.211466622580545
 31
0.0
  0
ARC
  5
40F23
  8
0
 10
2790.4383117991569634
 20
81.211466622580545
 30
0.0
 40
0.0600000000000005
 50
287.4030414043148767
 51
0.0
  0
ARC
  5
40F24
  8
0
 10
2790.4830178421962046
 20
81.0688359985747979
 30
0.0
 40
0.0894728242474843
 50
107.4030414043148056
 51
126.9545556246131071
  0
ARC
  5
40F25
  8
0
 10
2790.4533935552908588
 20
81.1082136987739233
 30
0.0
 40
0.0401960381549757
 50
126.9545556246131071
 51
182.4779867110322016
  0
ARC
  5
40F26
  8
0
 10
2790.4660897304379432
 20
81.1087631386092767
 30
0.0
 40
0.0529040965240823
 50
182.4779867110322016
 51
218.0458916513165946
  0
ARC
  5
40F27
  8
0
 10
2790.5091459669802134
 20
81.1424579291913233
 30
0.0
 40
0.1075774759467965
 50
218.0458916513159977
 51
233.2543699362005043
  0
LINE
  5
40F28
  8
0
 10
2790.4447862910569711
 20
81.0562561574805613
 30
0.0
 11
2790.6220097760569843
 21
80.9274975983805547
 31
0.0
  0
ARC
  5
40F29
  8
0
 10
2790.6337565547091799
 20
80.9436504707990849
 30
0.0
 40
0.0199725335420993
 50
233.9744012729653093
 51
270.0183433601931142
  0
ARC
  5
40F2A
  8
0
 10
2790.6961546877560068
 20
80.9036770579805591
 30
0.0
 40
0.0200014868999981
 50
91.4226272342950068
 51
237.0754471830067871
  0
ARC
  5
40F2B
  8
0
 10
2789.9894313075319587
 20
79.8122748363736747
 30
0.0
 40
1.2802357012637759
 50
45.2082074248812873
 51
57.0754471830068084
  0
ARC
  5
40F2C
  8
0
 10
2790.294007426285134
 20
80.1190726397143749
 30
0.0
 40
0.8479262007326243
 50
21.197555519703549
 51
45.2082074248812873
  0
ARC
  5
40F2D
  8
0
 10
2789.6575027093708741
 20
79.8722199715857641
 30
0.0
 40
1.530622688505324
 50
7.0282206464158632
 51
21.1975555197043093
  0
ARC
  5
40F2E
  8
0
 10
2786.4645654399550949
 20
79.5847067430948272
 30
0.0
 40
4.7359192773860492
 50
1.494185015470239
 51
5.7538289058514493
  0
ARC
  5
40F2F
  8
0
 10
2775.0408756171591449
 20
78.7966394119804647
 30
0.0
 40
16.1836912918996987
 50
1.7776724398994399
 51
3.2289373768186151
  0
ARC
  5
40F30
  8
0
 10
2790.8109860593358462
 20
79.2646966174237519
 30
0.0
 40
0.407212363737974
 50
320.1141964892527199
 51
4.7868165418110973
  0
ARC
  5
40F31
  8
0
 10
2790.9412079156318214
 20
79.1558690568930814
 30
0.0
 40
0.2375032897669519
 50
272.1174557075249254
 51
320.1141964892527199
  0
ARC
  5
40F32
  8
0
 10
2788.2540289687121913
 20
78.8397877807805543
 30
0.0
 40
0.0787401575000004
 50
90.0000000001042082
 51
152.7927598802365878
  0
ARC
  5
40F33
  8
0
 10
2788.8303091456450602
 20
78.5435279382805618
 30
0.0
 40
0.7267129475186714
 50
152.7927598802365878
 51
207.2072401197634122
  0
ARC
  5
40F34
  8
0
 10
2788.2540289687121913
 20
78.2472680957805551
 30
0.0
 40
0.0787401574999982
 50
207.2072401197634122
 51
270.0
  0
LINE
  5
40F35
  8
0
 10
2790.9010823684561728
 20
78.9185279382805618
 30
0.0
 11
2790.9161880511837808
 21
78.6302943414637525
 31
0.0
  0
ARC
  5
40F36
  8
0
 10
2791.0160510034038452
 20
78.6355279370233404
 30
0.0
 40
0.0999999987427867
 50
183.0000000006245955
 51
270.0000006606272223
  0
LINE
  5
40F37
  8
0
 10
2791.016051004556175
 20
78.535527938280552
 30
0.0
 11
2792.0971414913569788
 21
78.5355279507456174
 31
0.0
  0
ARC
  5
40F38
  8
0
 10
2792.0971414902041943
 20
78.6355279526735558
 30
0.0
 40
0.1000000019279375
 50
270.0000006606272223
 51
356.9999918139358783
  0
LINE
  5
40F39
  8
0
 10
2792.1970044448571571
 20
78.630294342680557
 30
0.0
 11
2792.2121101686971087
 21
78.9185279361192045
 31
0.0
  0
LINE
  5
40F3A
  8
0
 10
2792.2041102479561232
 20
78.9185279382805618
 30
0.0
 11
2792.1883931566558203
 21
78.628564267880563
 31
0.0
  0
ARC
  5
40F3B
  8
0
 10
2792.0896180752051805
 20
78.6434263278544421
 30
0.0
 40
0.0998869237806817
 50
274.3195704499362932
 51
351.4432551435086225
  0
LINE
  5
40F3C
  8
0
 10
2792.0971414913569788
 20
78.5438231363805528
 30
0.0
 11
2791.016051004556175
 21
78.543815681053303
 31
0.0
  0
ARC
  5
40F3D
  8
0
 10
2791.0235143782620071
 20
78.6433967439529908
 30
0.0
 40
0.0998241299712915
 50
188.5449734463188065
 51
265.7122670890009886
  0
LINE
  5
40F3E
  8
0
 10
2790.9247983422569632
 20
78.6285643078805663
 30
0.0
 11
2790.9090822479561211
 21
78.9185279382805618
 31
0.0
  0
LINE
  5
40F3F
  8
0
 10
2792.1632092702648151
 20
78.9185279382805618
 30
0.0
 11
2794.8591635272009626
 21
78.9185279382805618
 31
0.0
  0
LINE
  5
40F40
  8
0
 10
2792.6148806967571545
 20
81.215146302580564
 30
0.0
 11
2792.6148806967571545
 21
81.211466622580545
 31
0.0
  0
ARC
  5
40F41
  8
0
 10
2792.6748806967561904
 20
81.211466622580545
 30
0.0
 40
0.0600000000000005
 50
180.0
 51
252.5969585956850949
  0
ARC
  5
40F42
  8
0
 10
2792.6301746537169493
 20
81.0688359985747979
 30
0.0
 40
0.0894728242474843
 50
53.0454443753869
 51
72.5969585956851233
  0
ARC
  5
40F43
  8
0
 10
2792.6597989406218403
 20
81.1082136987739233
 30
0.0
 40
0.0401960381549757
 50
357.5220132889676847
 51
53.0454443753869
  0
ARC
  5
40F44
  8
0
 10
2792.6471027654738464
 20
81.1087631386092767
 30
0.0
 40
0.0529040965240823
 50
321.9541083486834054
 51
357.5220132889676847
  0
ARC
  5
40F45
  8
0
 10
2792.6040465289329404
 20
81.1424579291913233
 30
0.0
 40
0.1075774759467965
 50
306.7456300637995241
 51
321.9541083486834054
  0
LINE
  5
40F46
  8
0
 10
2792.6684062048561827
 20
81.0562561574805613
 30
0.0
 11
2792.4911827198570791
 21
80.9274975983805547
 31
0.0
  0
ARC
  5
40F47
  8
0
 10
2792.4794359412039739
 20
80.9436504707990849
 30
0.0
 40
0.0199725335420993
 50
269.9816566398068858
 51
306.0255987270347191
  0
ARC
  5
40F48
  8
0
 10
2792.4170378081557828
 20
80.9036770579805591
 30
0.0
 40
0.0200014868999981
 50
302.9245528169931845
 51
88.5773727657050074
  0
ARC
  5
40F49
  8
0
 10
2793.1237611883811951
 20
79.8122748363736747
 30
0.0
 40
1.2802357012637759
 50
122.9245528169931987
 51
134.7917925751187056
  0
ARC
  5
40F4A
  8
0
 10
2792.8191850696271104
 20
80.1190726397143749
 30
0.0
 40
0.8479262007326243
 50
134.7917925751187056
 51
158.8024444802964013
  0
ARC
  5
40F4B
  8
0
 10
2793.455689786541825
 20
79.8722199715857641
 30
0.0
 40
1.530622688505324
 50
158.8024444802956907
 51
172.971779353584111
  0
ARC
  5
40F4C
  8
0
 10
2796.6486270559580589
 20
79.5847067430948272
 30
0.0
 40
4.7359192773860492
 50
174.246171094148508
 51
178.5058149845297919
  0
ARC
  5
40F4D
  8
0
 10
2808.0723168787540089
 20
78.7966394119804647
 30
0.0
 40
16.1836912918996987
 50
176.7710626231813933
 51
178.2223275601004957
  0
ARC
  5
40F4E
  8
0
 10
2792.3022064365759434
 20
79.2646966174237519
 30
0.0
 40
0.407212363737974
 50
175.2131834581888938
 51
219.8858035107473086
  0
ARC
  5
40F4F
  8
0
 10
2792.1719845802808777
 20
79.1558690568930814
 30
0.0
 40
0.2375032897669519
 50
219.8858035107473086
 51
267.8825442924750746
  0
ARC
  5
40F50
  8
0
 10
2794.8591635272009626
 20
78.8397877807805543
 30
0.0
 40
0.0787401575000004
 50
27.2072401197634015
 51
89.9999999998957776
  0
ARC
  5
40F51
  8
0
 10
2794.2828833502680936
 20
78.5435279382805618
 30
0.0
 40
0.7267129475186714
 50
332.7927598802365878
 51
27.2072401197634015
  0
ARC
  5
40F52
  8
0
 10
2794.8591635272009626
 20
78.2472680957805551
 30
0.0
 40
0.0787401574999982
 50
270.0
 51
332.7927598802365878
  0
ATTDEF
  5
40F5C
  8
DEFPOINTS
 10
2791.5418621523558613
 20
81.2124568999502827
 30
0.0
 40
0.001
  1
P25013-00
  3

  2
MODELNUMBER
 70
     0
1001
ACDBATTR
1070
     0
1070
     1
  0
ATTDEF
  5
40F5D
  8
DEFPOINTS
 10
2791.5418621523558613
 20
81.2107902332836034
 30
0.0
 40
0.001
  1
SCRIPT
  3

  2
TRADENAME
 70
     0
1001
ACDBATTR
1070
     0
1070
     1
  0
ATTDEF
  5
40F5E
  8
DEFPOINTS
 10
2791.5418621523558613
 20
81.2091235666169666
 30
0.0
 40
0.001
  1
TOWEL RING
  3

  2
PRODUCT
 70
     0
1001
ACDBATTR
1070
     0
1070
     1
  0
ENDSEC
  0
EOF
