  0
SECTION
  2
HEADER
  9
$ACADVER
  1
AC1009
  9
$INSBASE
 10
2791.5432048782117818
 20
75.7199911977315026
 30
0.0
  9
$EXTMIN
 10
2788.0579067186631619
 20
71.5133262174572053
 30
-0.0015258207003583
  9
$EXTMAX
 10
2795.0948996794090817
 20
76.8679110473616447
 30
0.0000000349246037
  9
$LIMMIN
 10
0.0
 20
0.0
  9
$LIMMAX
 10
11.6929133858000007
 20
8.2677165353999982
  9
$ORTHOMODE
 70
     1
  9
$REGENMODE
 70
     1
  9
$FILLMODE
 70
     1
  9
$QTEXTMODE
 70
     0
  9
$MIRRTEXT
 70
     0
  9
$DRAGMODE
 70
     2
  9
$LTSCALE
 40
0.6431102362
  9
$OSMODE
 70
  4095
  9
$ATTMODE
 70
     1
  9
$TEXTSIZE
 40
0.2
  9
$TRACEWID
 40
0.05
  9
$TEXTSTYLE
  7
STANDARD
  9
$CLAYER
  8
0
  9
$CELTYPE
  6
BYLAYER
  9
$CECOLOR
 62
   256
  9
$DIMSCALE
 40
1.0
  9
$DIMASZ
 40
0.1875
  9
$DIMEXO
 40
0.0625
  9
$DIMDLI
 40
0.4443307087
  9
$DIMRND
 40
0.0
  9
$DIMDLE
 40
0.0
  9
$DIMEXE
 40
0.125
  9
$DIMTP
 40
0.01
  9
$DIMTM
 40
0.01
  9
$DIMTXT
 40
2.0
  9
$DIMCEN
 40
0.1052362205
  9
$DIMTSZ
 40
0.0
  9
$DIMTOL
 70
     1
  9
$DIMLIM
 70
     0
  9
$DIMTIH
 70
     1
  9
$DIMTOH
 70
     1
  9
$DIMSE1
 70
     0
  9
$DIMSE2
 70
     0
  9
$DIMTAD
 70
     0
  9
$DIMZIN
 70
     0
  9
$DIMBLK
  1

  9
$DIMASO
 70
     1
  9
$DIMSHO
 70
     1
  9
$DIMPOST
  1
\X
  9
$DIMAPOST
  1

  9
$DIMALT
 70
     1
  9
$DIMALTD
 70
     2
  9
$DIMALTF
 40
25.3999999999999986
  9
$DIMLFAC
 40
1.0
  9
$DIMTOFL
 70
     0
  9
$DIMTVP
 40
0.0
  9
$DIMTIX
 70
     0
  9
$DIMSOXD
 70
     0
  9
$DIMSAH
 70
     0
  9
$DIMBLK1
  1

  9
$DIMBLK2
  1

  9
$DIMSTYLE
  2
STANDARD
  9
$DIMCLRD
 70
     0
  9
$DIMCLRE
 70
     0
  9
$DIMCLRT
 70
     0
  9
$DIMTFAC
 40
1.0
  9
$DIMGAP
 40
0.09
  9
$LUNITS
 70
     2
  9
$LUPREC
 70
     4
  9
$SKETCHINC
 40
0.1
  9
$FILLETRAD
 40
0.0
  9
$AUNITS
 70
     0
  9
$AUPREC
 70
     0
  9
$MENU
  1
.
  9
$ELEVATION
 40
0.0
  9
$PELEVATION
 40
0.0
  9
$THICKNESS
 40
0.0
  9
$LIMCHECK
 70
     0
  9
$BLIPMODE
 70
     0
  9
$CHAMFERA
 40
0.0
  9
$CHAMFERB
 40
0.0
  9
$SKPOLY
 70
     0
  9
$TDCREATE
 40
2458060.468368056230247
  9
$TDUPDATE
 40
2459691.5670370371080935
  9
$TDINDWG
 40
0.5007015046
  9
$TDUSRTIMER
 40
0.5007015046
  9
$USRTIMER
 70
     1
  9
$ANGBASE
 50
0.0
  9
$ANGDIR
 70
     0
  9
$PDMODE
 70
     0
  9
$PDSIZE
 40
0.3125
  9
$PLINEWID
 40
0.0
  9
$COORDS
 70
     1
  9
$SPLFRAME
 70
     0
  9
$SPLINETYPE
 70
     6
  9
$SPLINESEGS
 70
     8
  9
$ATTDIA
 70
     1
  9
$ATTREQ
 70
     1
  9
$HANDLING
 70
     1
  9
$HANDSEED
  5
411C8
  9
$SURFTAB1
 70
     6
  9
$SURFTAB2
 70
     6
  9
$SURFTYPE
 70
     6
  9
$SURFU
 70
     6
  9
$SURFV
 70
     6
  9
$UCSNAME
  2

  9
$UCSORG
 10
0.0
 20
0.0
 30
0.0
  9
$UCSXDIR
 10
1.0
 20
0.0
 30
0.0
  9
$UCSYDIR
 10
0.0
 20
1.0
 30
0.0
  9
$PUCSNAME
  2

  9
$PUCSORG
 10
0.0
 20
0.0
 30
0.0
  9
$PUCSXDIR
 10
1.0
 20
0.0
 30
0.0
  9
$PUCSYDIR
 10
0.0
 20
1.0
 30
0.0
  9
$USERI1
 70
     0
  9
$USERI2
 70
     0
  9
$USERI3
 70
     0
  9
$USERI4
 70
     0
  9
$USERI5
 70
     0
  9
$USERR1
 40
0.0
  9
$USERR2
 40
0.0
  9
$USERR3
 40
0.0
  9
$USERR4
 40
0.0
  9
$USERR5
 40
0.0
  9
$WORLDVIEW
 70
     1
  9
$SHADEDGE
 70
     3
  9
$SHADEDIF
 70
    70
  9
$TILEMODE
 70
     1
  9
$MAXACTVP
 70
    64
  9
$PLIMCHECK
 70
     0
  9
$PEXTMIN
 10
1.0000000000000000E+20
 20
1.0000000000000000E+20
 30
1.0000000000000000E+20
  9
$PEXTMAX
 10
-1.0000000000000000E+20
 20
-1.0000000000000000E+20
 30
-1.0000000000000000E+20
  9
$PLIMMIN
 10
0.0
 20
0.0
  9
$PLIMMAX
 10
12.0
 20
9.0
  9
$UNITMODE
 70
     0
  9
$VISRETAIN
 70
     1
  9
$PLINEGEN
 70
     0
  9
$PSLTSCALE
 70
     1
  0
ENDSEC
  0
SECTION
  2
TABLES
  0
TABLE
  2
VPORT
 70
     1
  0
VPORT
  2
*ACTIVE
 70
     0
 10
0.0
 20
0.0
 11
1.0
 21
1.0
 12
-1011.9676641837769466
 22
-51.8046435643405019
 13
0.0
 23
0.0
 14
1.0
 24
1.0
 15
0.0
 25
0.0
 16
0.0
 26
0.0
 36
17.1152628219792007
 17
3803.5440673828129547
 27
125.9952621967499056
 37
0.0
 40
5.3929231461090117
 41
2.2831541218637992
 42
50.0
 43
0.0
 44
0.0
 50
0.0
 51
0.0
 71
     0
 72
   100
 73
     1
 74
     1
 75
     0
 76
     0
 77
     0
 78
     0
  0
ENDTAB
  0
TABLE
  2
LTYPE
 70
     2
  0
LTYPE
  2
CONTINUOUS
 70
     0
  3
Solid line
 72
    65
 73
     0
 40
0.0
  0
LTYPE
  2
PHANTOM2
 70
     0
  3
___ _ _ ___ _ _ ___ _ _ ___ _ _
 72
    65
 73
     6
 40
1.25
 49
0.625
 49
-0.125
 49
0.125
 49
-0.125
 49
0.125
 49
-0.125
  0
ENDTAB
  0
TABLE
  2
LAYER
 70
     2
  0
LAYER
  2
0
 70
     0
 62
   255
  6
CONTINUOUS
  0
LAYER
  2
DEFPOINTS
 70
     0
 62
     7
  6
CONTINUOUS
  0
ENDTAB
  0
TABLE
  2
STYLE
 70
     1
  0
STYLE
  2
STANDARD
 70
     0
 40
0.0
 41
0.8
 50
0.0
 71
     0
 42
0.2
  3
txt
  4

  0
ENDTAB
  0
TABLE
  2
VIEW
 70
     0
  0
ENDTAB
  0
TABLE
  2
UCS
 70
     0
  0
ENDTAB
  0
TABLE
  2
APPID
 70
     9
  0
APPID
  2
ACAD
 70
     0
  0
APPID
  2
ACAD_MLEADERVER
 70
     0
  0
APPID
  2
ACAD_EXEMPT_FROM_CAD_STANDARDS
 70
     0
  0
APPID
  2
ACAD_NAV_VCDISPLAY
 70
     0
  0
APPID
  2
ACAECLAYERSTANDARD
 70
     0
  0
APPID
  2
ACCMTRANSPARENCY
 70
     0
  0
APPID
  2
ACAD_DSTYLE_DIMJAG
 70
     0
  0
APPID
  2
ACAD_DSTYLE_DIMTALN
 70
     0
  0
APPID
  2
ACDBATTR
 70
     0
  0
ENDTAB
  0
TABLE
  2
DIMSTYLE
 70
     1
  0
DIMSTYLE
  2
STANDARD
 70
     0
  3

  4

  5

  6

  7

 40
1.0
 41
0.1875
 42
0.0625
 43
0.38
 44
0.125
 45
0.0
 46
0.0
 47
0.01
 48
0.01
140
0.15625
141
0.09
142
0.0
143
25.3999999999999986
144
1.0
145
0.0
146
1.0
147
0.09
 71
     1
 72
     0
 73
     1
 74
     1
 75
     0
 76
     0
 77
     0
 78
     4
170
     0
171
     2
172
     0
173
     0
174
     0
175
     0
176
     0
177
     0
178
     0
  0
ENDTAB
  0
ENDSEC
  0
SECTION
  2
BLOCKS
  0
BLOCK
  8
0
  2
$MODEL_SPACE
 70
     0
 10
0.0
 20
0.0
 30
0.0
  3
$MODEL_SPACE
  1

  0
ENDBLK
  5
21
  8
0
  0
BLOCK
 67
     1
  8
0
  2
$PAPER_SPACE
 70
     0
 10
0.0
 20
0.0
 30
0.0
  3
$PAPER_SPACE
  1

  0
ENDBLK
  5
1D
 67
     1
  8
0
  0
BLOCK
  8
0
  2
_FILLED
 70
     0
 10
0.0
 20
0.0
 30
0.0
  3
_FILLED
  1

  0
SOLID
  5
41008
  8
0
  6
BYBLOCK
 62
     0
 10
0.0
 20
0.0
 30
0.0
 11
-1.0
 21
0.1666666667
 31
0.0
 12
-1.0
 22
-0.1666666667
 32
0.0
 13
-1.0
 23
-0.1666666667
 33
0.0
  0
ENDBLK
  5
41009
  8
0
  6
BYBLOCK
 62
     0
  0
ENDSEC
  0
SECTION
  2
ENTITIES
  0
ATTDEF
  5
40F59
  8
DEFPOINTS
 10
2791.5437802764449771
 20
75.7237744709722165
 30
0.0
 40
0.001
  1
P25013-00
  3

  2
MODELNUMBER
 70
     0
1001
ACDBATTR
1070
     0
1070
     1
  0
ATTDEF
  5
40F5A
  8
DEFPOINTS
 10
2791.5437802764449771
 20
75.7221078043055513
 30
0.0
 40
0.001
  1
SCRIPT
  3

  2
TRADENAME
 70
     0
1001
ACDBATTR
1070
     0
1070
     1
  0
ATTDEF
  5
40F5B
  8
DEFPOINTS
 10
2791.5437802764449771
 20
75.7204411376388862
 30
0.0
 40
0.001
  1
TOWEL RING
  3

  2
PRODUCT
 70
     0
1001
ACDBATTR
1070
     0
1070
     1
  0
ARC
  5
41047
  8
0
 10
2791.5432048782117818
 20
75.7199911977315026
 30
0.0
 40
0.9345890039999996
 50
192.5450850427681075
 51
347.4549149572318925
  0
ARC
  5
41048
  8
0
 10
2791.5432048782117818
 20
75.7199911977315026
 30
0.0
 40
0.9345890039999996
 50
12.5450850427681093
 51
167.4549149572318925
  0
ARC
  5
41049
  8
0
 10
2791.5432048782117818
 20
75.7199911977315026
 30
0.0
 40
1.1433807965999989
 50
190.2267169384454064
 51
349.7732830615537978
  0
ARC
  5
4104A
  8
0
 10
2791.5432048782117818
 20
75.7199911977315026
 30
0.0
 40
1.1433807965999989
 50
10.2267169384453993
 51
169.7732830615545936
  0
ARC
  5
4104B
  8
0
 10
2791.5432048782117818
 20
75.7199911977315026
 30
0.0
 40
0.8806300061429984
 50
193.3274990878825861
 51
346.6725009121173002
  0
ARC
  5
4104C
  8
0
 10
2791.5432048782117818
 20
75.7199911977315026
 30
0.0
 40
0.8806300061429984
 50
13.3274990878826802
 51
166.6725009121173002
  0
LINE
  5
4104D
  8
0
 10
2788.6432048782107813
 20
75.9229911977315055
 30
0.0
 11
2794.4432048782109632
 21
75.9229911977315055
 31
0.0
  0
LINE
  5
4104E
  8
0
 10
2788.6432048782107813
 20
75.5169911977314996
 30
0.0
 11
2794.4432048782109632
 21
75.5169911977314996
 31
0.0
  0
LINE
  5
4104F
  8
0
 10
2788.6432048782107813
 20
75.6674239682315033
 30
0.0
 11
2794.4432048782109632
 21
75.6674239682315033
 31
0.0
  0
LINE
  5
41050
  8
0
 10
2788.6432048782107813
 20
71.5169911977314996
 30
0.0
 11
2794.4432048782109632
 21
71.5169911977314996
 31
0.0
  0
LINE
  5
41051
  8
0
 10
2788.6432048782107813
 20
71.6674239682315033
 30
0.0
 11
2794.4432048782109632
 21
71.6674239682315033
 31
0.0
  0
LINE
  5
41052
  8
0
 10
2788.6431971654537847
 20
71.7725584273315036
 30
0.0
 11
2794.4432125909688693
 21
71.7725584273315036
 31
0.0
  0
LINE
  5
41053
  8
0
 10
2788.6432048782107813
 20
71.9229911977315055
 30
0.0
 11
2794.4432048782109632
 21
71.9229911977315055
 31
0.0
  0
LINE
  5
41054
  8
0
 10
2788.496204878212211
 20
75.3699911977315082
 30
0.0
 11
2788.496204878212211
 21
72.0699911977314969
 31
0.0
  0
LINE
  5
41055
  8
0
 10
2788.3457721077111273
 20
75.3699911977315082
 30
0.0
 11
2788.3457721077111273
 21
72.0699911977314969
 31
0.0
  0
LINE
  5
41056
  8
0
 10
2788.2406376487119815
 20
75.3699911977315082
 30
0.0
 11
2788.2406376487119815
 21
72.0699911977314969
 31
0.0
  0
LINE
  5
41057
  8
0
 10
2788.0902048782118072
 20
75.3699911977315082
 30
0.0
 11
2788.0902048782118072
 21
72.0699911977314969
 31
0.0
  0
ARC
  5
41058
  8
0
 10
2791.542671364249145
 20
75.3458806525012506
 30
0.0
 40
0.1368399320778085
 50
278.1812774098436876
 51
301.2766009144486929
  0
ARC
  5
41059
  8
0
 10
2791.5431387626831565
 20
75.3426296071710055
 30
0.0
 40
0.1335554599688869
 50
253.2545664627081123
 51
278.1812774098436876
  0
ARC
  5
4105A
  8
0
 10
2791.5443220271840801
 20
75.3465623004035194
 30
0.0
 40
0.1376623068056298
 50
228.8174601686600909
 51
253.2545664627081123
  0
ARC
  5
4105B
  8
0
 10
2791.5182400796579714
 20
75.3167508062667395
 30
0.0
 40
0.0980517883873458
 50
207.2624486845261913
 51
228.8174601686600909
  0
ARC
  5
4105C
  8
0
 10
2791.464724794455833
 20
75.2891739100593611
 30
0.0
 40
0.0378490396568251
 50
177.9918353049822883
 51
207.2624486845269018
  0
ARC
  5
4105D
  8
0
 10
2791.4462032301298677
 20
75.2898233399074854
 30
0.0
 40
0.0193160932042851
 50
139.9848461538688866
 51
177.9918353049831126
  0
ARC
  5
4105E
  8
0
 10
2791.4521248946371088
 20
75.2848518038876335
 30
0.0
 40
0.0270479934191599
 50
107.7891330161042021
 51
139.9848461538682898
  0
ARC
  5
4105F
  8
0
 10
2791.4806890745030614
 20
75.1958267925948718
 30
0.0
 40
0.1205432607168597
 50
95.8823440753714777
 51
107.7891330161042021
  0
ARC
  5
41060
  8
0
 10
2791.4963459121208871
 20
75.0438607276215777
 30
0.0
 40
0.2733137469622893
 50
89.715210369895857
 51
95.8823440753714777
  0
ARC
  5
41061
  8
0
 10
2791.5396535524791943
 20
69.9282346696205366
 30
0.0
 40
5.3890996987208224
 50
89.4207002088535603
 51
90.4459989274741076
  0
ARC
  5
41062
  8
0
 10
2791.5905727089211723
 20
75.0447961256176939
 30
0.0
 40
0.2722861626995429
 50
82.7473503807027839
 51
89.2493036522389787
  0
ARC
  5
41063
  8
0
 10
2791.617709122720953
 20
75.2486870706706981
 30
0.0
 40
0.0666111308964584
 50
62.9952842081612019
 51
83.7616339660844886
  0
ARC
  5
41064
  8
0
 10
2791.6375557264182135
 20
75.2884932769051431
 30
0.0
 40
0.0221368723396016
 50
346.765946720085708
 51
61.98103321920388
  0
ARC
  5
41065
  8
0
 10
2791.5964446180678351
 20
75.2981615821485804
 30
0.0
 40
0.0643695534769742
 50
324.8863562983677866
 51
346.765946720085708
  0
ARC
  5
41066
  8
0
 10
2791.5592239762518147
 20
75.3243339307828137
 30
0.0
 40
0.1098708502743956
 50
299.732499880079672
 51
324.8863562983677866
  0
ARC
  5
41067
  8
0
 10
2788.6432048782107813
 20
75.3699911977315082
 30
0.0
 40
0.5530000000000009
 50
90.0
 51
180.0
  0
ARC
  5
41068
  8
0
 10
2788.6432048782107813
 20
75.3699911977315082
 30
0.0
 40
0.4025672294999989
 50
90.0
 51
180.0
  0
ARC
  5
41069
  8
0
 10
2788.6432048782107813
 20
75.3699911977315082
 30
0.0
 40
0.2974327705000013
 50
90.0000000001042082
 51
180.0
  0
ARC
  5
4106A
  8
0
 10
2788.6432048782107813
 20
75.3699911977315082
 30
0.0
 40
0.1470000000000002
 50
90.0
 51
180.0
  0
LINE
  5
4106B
  8
0
 10
2788.6432048782107813
 20
75.7725584272315018
 30
0.0
 11
2794.4432048782109632
 21
75.7725584272315018
 31
0.0
  0
ARC
  5
4106C
  8
0
 10
2788.6432048782107813
 20
72.0699911977314969
 30
0.0
 40
0.5530000000000009
 50
180.0
 51
270.0
  0
ARC
  5
4106D
  8
0
 10
2788.6432048782107813
 20
72.0699911977314969
 30
0.0
 40
0.4025672294999989
 50
180.0
 51
270.0
  0
ARC
  5
4106E
  8
0
 10
2788.6432048782107813
 20
72.0699911977314969
 30
0.0
 40
0.2974327705000008
 50
180.0
 51
269.9985142577228885
  0
ARC
  5
4106F
  8
0
 10
2788.6432048782107813
 20
72.0699911977314969
 30
0.0
 40
0.1470000000000002
 50
180.0
 51
270.0
  0
LINE
  5
41070
  8
0
 10
2794.5902048782118072
 20
75.3699911977315082
 30
0.0
 11
2794.5902048782118072
 21
72.0699911977314969
 31
0.0
  0
LINE
  5
41071
  8
0
 10
2794.7406376487119815
 20
75.3699911977315082
 30
0.0
 11
2794.7406376487119815
 21
72.0699911977314969
 31
0.0
  0
LINE
  5
41072
  8
0
 10
2794.8457721077120368
 20
75.3699911977315082
 30
0.0
 11
2794.8457721077120368
 21
72.0699911977314969
 31
0.0
  0
LINE
  5
41073
  8
0
 10
2794.9962048782108468
 20
75.3699911977315082
 30
0.0
 11
2794.9962048782108468
 21
72.0699911977314969
 31
0.0
  0
ARC
  5
41074
  8
0
 10
2794.4432048782109632
 20
75.3699911977315082
 30
0.0
 40
0.5530000000000009
 50
0.0
 51
90.0
  0
ARC
  5
41075
  8
0
 10
2794.4432048782109632
 20
75.3699911977315082
 30
0.0
 40
0.4025672294999989
 50
0.0
 51
90.0
  0
ARC
  5
41076
  8
0
 10
2794.4432048782109632
 20
75.3699911977315082
 30
0.0
 40
0.2974327705000013
 50
0.0
 51
89.9999999998957776
  0
ARC
  5
41077
  8
0
 10
2794.4432048782109632
 20
75.3699911977315082
 30
0.0
 40
0.1470000000000002
 50
0.0
 51
90.0
  0
ARC
  5
41078
  8
0
 10
2794.4432048782109632
 20
72.0699911977314969
 30
0.0
 40
0.5530000000000009
 50
270.0
 51
0.0
  0
ARC
  5
41079
  8
0
 10
2794.4432048782109632
 20
72.0699911977314969
 30
0.0
 40
0.4025672294999989
 50
270.0
 51
0.0
  0
ARC
  5
4107A
  8
0
 10
2794.4432048782109632
 20
72.0699911977315111
 30
0.0
 40
0.2974327705000039
 50
270.0014857422771115
 51
359.9999999999992042
  0
ARC
  5
4107B
  8
0
 10
2794.4432048782109632
 20
72.0699911977314969
 30
0.0
 40
0.1470000000000002
 50
270.0
 51
0.0
  0
ENDSEC
  0
EOF
