  0
SECTION
  2
HEADER
  9
$ACADVER
  1
AC1009
  9
$INSBASE
 10
4760.9957093812663516
 20
238.610573580817487
 30
0.0
  9
$EXTMIN
 10
4755.6177093812648309
 20
238.6057865890078062
 30
0.0
  9
$EXTMAX
 10
4766.3737093812660532
 20
249.5049602439590899
 30
0.0
  9
$LIMMIN
 10
0.0
 20
0.0
  9
$LIMMAX
 10
11.6929133858000007
 20
8.2677165353999982
  9
$ORTHOMODE
 70
     1
  9
$REGENMODE
 70
     1
  9
$FILLMODE
 70
     1
  9
$QTEXTMODE
 70
     0
  9
$MIRRTEXT
 70
     0
  9
$DRAGMODE
 70
     2
  9
$LTSCALE
 40
0.6431102362
  9
$OSMODE
 70
  4095
  9
$ATTMODE
 70
     1
  9
$TEXTSIZE
 40
0.2
  9
$TRACEWID
 40
0.05
  9
$TEXTSTYLE
  7
STANDARD
  9
$CLAYER
  8
0
  9
$CELTYPE
  6
BYLAYER
  9
$CECOLOR
 62
   256
  9
$DIMSCALE
 40
1.0
  9
$DIMASZ
 40
0.1875
  9
$DIMEXO
 40
0.0625
  9
$DIMDLI
 40
0.4443307087
  9
$DIMRND
 40
0.0
  9
$DIMDLE
 40
0.0
  9
$DIMEXE
 40
0.125
  9
$DIMTP
 40
0.01
  9
$DIMTM
 40
0.01
  9
$DIMTXT
 40
2.0
  9
$DIMCEN
 40
0.1052362205
  9
$DIMTSZ
 40
0.0
  9
$DIMTOL
 70
     1
  9
$DIMLIM
 70
     0
  9
$DIMTIH
 70
     1
  9
$DIMTOH
 70
     1
  9
$DIMSE1
 70
     0
  9
$DIMSE2
 70
     0
  9
$DIMTAD
 70
     0
  9
$DIMZIN
 70
     0
  9
$DIMBLK
  1

  9
$DIMASO
 70
     1
  9
$DIMSHO
 70
     1
  9
$DIMPOST
  1
\X
  9
$DIMAPOST
  1

  9
$DIMALT
 70
     1
  9
$DIMALTD
 70
     2
  9
$DIMALTF
 40
25.3999999999999986
  9
$DIMLFAC
 40
1.0
  9
$DIMTOFL
 70
     0
  9
$DIMTVP
 40
0.0
  9
$DIMTIX
 70
     0
  9
$DIMSOXD
 70
     0
  9
$DIMSAH
 70
     0
  9
$DIMBLK1
  1

  9
$DIMBLK2
  1

  9
$DIMSTYLE
  2
STANDARD
  9
$DIMCLRD
 70
     0
  9
$DIMCLRE
 70
     0
  9
$DIMCLRT
 70
     0
  9
$DIMTFAC
 40
1.0
  9
$DIMGAP
 40
0.09
  9
$LUNITS
 70
     2
  9
$LUPREC
 70
     4
  9
$SKETCHINC
 40
0.1
  9
$FILLETRAD
 40
0.0
  9
$AUNITS
 70
     0
  9
$AUPREC
 70
     0
  9
$MENU
  1
.
  9
$ELEVATION
 40
0.0
  9
$PELEVATION
 40
0.0
  9
$THICKNESS
 40
0.0
  9
$LIMCHECK
 70
     0
  9
$BLIPMODE
 70
     0
  9
$CHAMFERA
 40
0.0
  9
$CHAMFERB
 40
0.0
  9
$SKPOLY
 70
     0
  9
$TDCREATE
 40
2458060.468368056230247
  9
$TDUPDATE
 40
2459594.5349189820699394
  9
$TDINDWG
 40
0.3972408565
  9
$TDUSRTIMER
 40
0.3972408565
  9
$USRTIMER
 70
     1
  9
$ANGBASE
 50
0.0
  9
$ANGDIR
 70
     0
  9
$PDMODE
 70
     0
  9
$PDSIZE
 40
0.3125
  9
$PLINEWID
 40
0.0
  9
$COORDS
 70
     1
  9
$SPLFRAME
 70
     0
  9
$SPLINETYPE
 70
     6
  9
$SPLINESEGS
 70
     8
  9
$ATTDIA
 70
     1
  9
$ATTREQ
 70
     1
  9
$HANDLING
 70
     1
  9
$HANDSEED
  5
DEE5
  9
$SURFTAB1
 70
     6
  9
$SURFTAB2
 70
     6
  9
$SURFTYPE
 70
     6
  9
$SURFU
 70
     6
  9
$SURFV
 70
     6
  9
$UCSNAME
  2

  9
$UCSORG
 10
0.0
 20
0.0
 30
0.0
  9
$UCSXDIR
 10
1.0
 20
0.0
 30
0.0
  9
$UCSYDIR
 10
0.0
 20
1.0
 30
0.0
  9
$PUCSNAME
  2

  9
$PUCSORG
 10
0.0
 20
0.0
 30
0.0
  9
$PUCSXDIR
 10
1.0
 20
0.0
 30
0.0
  9
$PUCSYDIR
 10
0.0
 20
1.0
 30
0.0
  9
$USERI1
 70
     0
  9
$USERI2
 70
     0
  9
$USERI3
 70
     0
  9
$USERI4
 70
     0
  9
$USERI5
 70
     0
  9
$USERR1
 40
0.0
  9
$USERR2
 40
0.0
  9
$USERR3
 40
0.0
  9
$USERR4
 40
0.0
  9
$USERR5
 40
0.0
  9
$WORLDVIEW
 70
     1
  9
$SHADEDGE
 70
     3
  9
$SHADEDIF
 70
    70
  9
$TILEMODE
 70
     1
  9
$MAXACTVP
 70
    64
  9
$PLIMCHECK
 70
     0
  9
$PEXTMIN
 10
1.0000000000000000E+20
 20
1.0000000000000000E+20
 30
1.0000000000000000E+20
  9
$PEXTMAX
 10
-1.0000000000000000E+20
 20
-1.0000000000000000E+20
 30
-1.0000000000000000E+20
  9
$PLIMMIN
 10
0.0
 20
0.0
  9
$PLIMMAX
 10
12.0
 20
9.0
  9
$UNITMODE
 70
     0
  9
$VISRETAIN
 70
     1
  9
$PLINEGEN
 70
     0
  9
$PSLTSCALE
 70
     1
  0
ENDSEC
  0
SECTION
  2
TABLES
  0
TABLE
  2
VPORT
 70
     1
  0
VPORT
  2
*ACTIVE
 70
     0
 10
0.0
 20
0.0
 11
1.0
 21
1.0
 12
0.0
 22
0.0
 13
0.0
 23
0.0
 14
1.0
 24
1.0
 15
0.0
 25
0.0
 16
0.0
 26
0.0
 36
49.6053790046691603
 17
4760.99560546875
 27
244.055372847726602
 37
0.0
 40
15.3127552210449807
 41
2.4956629491945468
 42
50.0
 43
0.0
 44
0.0
 50
0.0
 51
0.0
 71
     0
 72
   100
 73
     1
 74
     1
 75
     0
 76
     0
 77
     0
 78
     0
  0
ENDTAB
  0
TABLE
  2
LTYPE
 70
     2
  0
LTYPE
  2
CONTINUOUS
 70
     0
  3
Solid line
 72
    65
 73
     0
 40
0.0
  0
LTYPE
  2
PHANTOM2
 70
     0
  3
___ _ _ ___ _ _ ___ _ _ ___ _ _
 72
    65
 73
     6
 40
1.25
 49
0.625
 49
-0.125
 49
0.125
 49
-0.125
 49
0.125
 49
-0.125
  0
ENDTAB
  0
TABLE
  2
LAYER
 70
     2
  0
LAYER
  2
0
 70
     0
 62
   255
  6
CONTINUOUS
  0
LAYER
  2
DEFPOINTS
 70
     0
 62
     7
  6
CONTINUOUS
  0
ENDTAB
  0
TABLE
  2
STYLE
 70
     1
  0
STYLE
  2
STANDARD
 70
     0
 40
0.0
 41
0.8
 50
0.0
 71
     0
 42
0.2
  3
txt
  4

  0
ENDTAB
  0
TABLE
  2
VIEW
 70
     0
  0
ENDTAB
  0
TABLE
  2
UCS
 70
     0
  0
ENDTAB
  0
TABLE
  2
APPID
 70
     9
  0
APPID
  2
ACAD
 70
     0
  0
APPID
  2
ACAD_MLEADERVER
 70
     0
  0
APPID
  2
ACAD_EXEMPT_FROM_CAD_STANDARDS
 70
     0
  0
APPID
  2
ACAD_NAV_VCDISPLAY
 70
     0
  0
APPID
  2
ACAECLAYERSTANDARD
 70
     0
  0
APPID
  2
ACCMTRANSPARENCY
 70
     0
  0
APPID
  2
ACAD_DSTYLE_DIMJAG
 70
     0
  0
APPID
  2
ACAD_DSTYLE_DIMTALN
 70
     0
  0
APPID
  2
ACDBATTR
 70
     0
  0
ENDTAB
  0
TABLE
  2
DIMSTYLE
 70
     1
  0
DIMSTYLE
  2
STANDARD
 70
     0
  3

  4

  5

  6

  7

 40
1.0
 41
0.1875
 42
0.0625
 43
0.38
 44
0.125
 45
0.0
 46
0.0
 47
0.01
 48
0.01
140
0.15625
141
0.09
142
0.0
143
25.3999999999999986
144
1.0
145
0.0
146
1.0
147
0.09
 71
     1
 72
     0
 73
     1
 74
     1
 75
     0
 76
     0
 77
     0
 78
     4
170
     0
171
     2
172
     0
173
     0
174
     0
175
     0
176
     0
177
     0
178
     0
  0
ENDTAB
  0
ENDSEC
  0
SECTION
  2
BLOCKS
  0
BLOCK
  8
0
  2
$MODEL_SPACE
 70
     0
 10
0.0
 20
0.0
 30
0.0
  3
$MODEL_SPACE
  1

  0
ENDBLK
  5
21
  8
0
  0
BLOCK
 67
     1
  8
0
  2
$PAPER_SPACE
 70
     0
 10
0.0
 20
0.0
 30
0.0
  3
$PAPER_SPACE
  1

  0
ENDBLK
  5
1D
 67
     1
  8
0
  0
BLOCK
  8
0
  2
_FILLED
 70
     0
 10
0.0
 20
0.0
 30
0.0
  3
_FILLED
  1

  0
SOLID
  5
CBC1
  8
0
  6
BYBLOCK
 62
     0
 10
0.0
 20
0.0
 30
0.0
 11
-1.0
 21
0.1666666667
 31
0.0
 12
-1.0
 22
-0.1666666667
 32
0.0
 13
-1.0
 23
-0.1666666667
 33
0.0
  0
ENDBLK
  5
CBC2
  8
0
  6
BYBLOCK
 62
     0
  0
ENDSEC
  0
SECTION
  2
ENTITIES
  0
ATTDEF
  5
3930
  8
DEFPOINTS
 10
4760.9958291416851353
 20
238.6091199223411081
 30
0.0
 40
0.001
  1
P25009-CMC
  3

  2
MODELNUMBER
 70
     0
1001
ACDBATTR
1070
     0
1070
     1
  0
ATTDEF
  5
3931
  8
DEFPOINTS
 10
4760.9958291416851353
 20
238.6074532556744998
 30
0.0
 40
0.001
  1
SCRIPT
  3

  2
TRADENAME
 70
     0
1001
ACDBATTR
1070
     0
1070
     1
  0
ATTDEF
  5
3932
  8
DEFPOINTS
 10
4760.9958291416851353
 20
238.6057865890078062
 30
0.0
 40
0.001
  1
DECK MOUNT BATH FAUCET TRIM
  3

  2
PRODUCT
 70
     0
1001
ACDBATTR
1070
     0
1070
     1
  0
LINE
  5
D5DA
  8
0
 10
4758.2878307888659037
 20
238.610573580817487
 30
0.0
 11
4755.7035879736649804
 21
238.610573580817487
 31
0.0
  0
LINE
  5
D5DB
  8
0
 10
4759.692709381264649
 20
238.610573580817487
 30
0.0
 11
4762.2987093812662351
 21
238.610573580817487
 31
0.0
  0
LINE
  5
D5DD
  8
0
 10
4758.3737093812660532
 20
238.8055577804175016
 30
0.0
 11
4758.3737093812660532
 21
238.6988576791175092
 31
0.0
  0
LINE
  5
D5DE
  8
0
 10
4758.1339741258434515
 20
241.2116403476767061
 30
0.0
 11
4758.1339741258434515
 21
239.3143104735653139
 31
0.0
  0
LINE
  5
D5DF
  8
0
 10
4758.360674468200159
 20
238.6801096775174926
 30
0.0
 11
4755.6307442943307251
 21
238.6801096775174926
 31
0.0
  0
LINE
  5
D5E0
  8
0
 10
4758.3594808207308233
 20
238.8247069445174873
 30
0.0
 11
4755.6319379418018798
 21
238.8247069445174873
 31
0.0
  0
LINE
  5
D5E1
  8
0
 10
4758.1215696359649883
 20
238.9805735808174916
 30
0.0
 11
4755.8698491266632118
 21
238.9805735808174916
 31
0.0
  0
LINE
  5
D5E2
  8
0
 10
4758.0615483644651249
 20
239.0005735808175018
 30
0.0
 11
4755.9298703980675782
 21
239.0005735808175018
 31
0.0
  0
LINE
  5
D5E3
  8
0
 10
4758.1082462651556853
 20
239.0405735808174938
 30
0.0
 11
4755.8831724973751989
 21
239.0405735808174938
 31
0.0
  0
LINE
  5
D5E4
  8
0
 10
4758.0903334373952021
 20
239.1855735808175041
 30
0.0
 11
4755.9010853251356821
 21
239.1855735808175041
 31
0.0
  0
LINE
  5
D5E5
  8
0
 10
4758.1129993687700335
 20
239.297378222748705
 30
0.0
 11
4755.8784193937617601
 21
239.297378222748705
 31
0.0
  0
LINE
  5
D5E6
  8
0
 10
4758.0474031821331664
 20
241.2981527918175004
 30
0.0
 11
4755.9440155803986272
 21
241.2981527918175004
 31
0.0
  0
LINE
  5
D5E7
  8
0
 10
4758.1281085842147149
 20
241.2252651125174907
 30
0.0
 11
4755.8633101783161692
 21
241.2252651125174907
 31
0.0
  0
ARC
  5
D5E8
  8
0
 10
4758.0874617101571857
 20
239.1653436416331999
 30
0.0
 40
0.0204327496125283
 50
10.4410572356885201
 51
81.9205974854376535
  0
LINE
  5
D5E9
  8
0
 10
4758.1075561314655715
 20
239.1690465444175118
 30
0.0
 11
4758.1260704644719226
 21
239.0640465443837002
 31
0.0
  0
ARC
  5
D5EA
  8
0
 10
4758.1062295944229845
 20
239.0606088264605944
 30
0.0
 40
0.0201364850167093
 50
275.7478132391336203
 51
9.8297336780738025
  0
ARC
  5
D5EB
  8
0
 10
4758.046899463464797
 20
241.278052111298706
 30
0.0
 40
0.0201069910681914
 50
45.1149863655903616
 51
88.5644807156513849
  0
ARC
  5
D5EC
  8
0
 10
4591.5539132923368015
 20
74.7513885906450071
 30
0.0
 40
235.5005607240809979
 50
44.9827417047727494
 51
45.0058034853667976
  0
ARC
  5
D5ED
  8
0
 10
4758.1137943913236086
 20
241.2110278104933911
 30
0.0
 40
0.0201890288780825
 50
1.7386265702798669
 51
44.8456994456975835
  0
ARC
  5
D5EE
  8
0
 10
4757.9906753914992805
 20
241.278052111298706
 30
0.0
 40
0.0201069910681914
 50
45.1149863655903616
 51
88.5644807156513849
  0
ARC
  5
D5EF
  8
0
 10
4758.9078033149462499
 20
241.8797291543847905
 30
0.0
 40
1.0772061885921851
 50
213.0470841550782097
 51
217.4130590783057073
  0
LINE
  5
D5F0
  8
0
 10
4758.1339741258434515
 20
241.2011738909675103
 30
0.0
 11
4755.8574446366883421
 21
241.2011738909675103
 31
0.0
  0
LINE
  5
D5F1
  8
0
 10
4758.1339741258434515
 20
241.0412146479175135
 30
0.0
 11
4755.8574446366883421
 21
241.0412146479175135
 31
0.0
  0
ARC
  5
D5F2
  8
0
 10
4758.1123458294241573
 20
239.319645115029914
 30
0.0
 40
0.0222764809953871
 50
271.6811640863318758
 51
346.1444933416111098
  0
LINE
  5
D5F3
  8
0
 10
4757.8627766948029603
 20
241.2010612228258992
 30
0.0
 11
4757.7787373731662228
 21
241.1802963451175117
 31
0.0
  0
LINE
  5
D5F4
  8
0
 10
4757.7787373731662228
 20
241.1802963451175117
 30
0.0
 11
4757.7757760920158034
 21
241.2011734531787965
 31
0.0
  0
LINE
  5
D5F5
  8
0
 10
4757.7757760920158034
 20
241.2011734531787965
 30
0.0
 11
4757.6950644824646588
 21
241.1802943738175031
 31
0.0
  0
LINE
  5
D5F6
  8
0
 10
4757.6950644824646588
 20
241.1802943738175031
 30
0.0
 11
4757.6872522368366845
 21
241.2011734455174974
 31
0.0
  0
LINE
  5
D5F7
  8
0
 10
4757.6872522368366845
 20
241.2011734455174974
 30
0.0
 11
4757.610110700758014
 21
241.1802906229247014
 31
0.0
  0
LINE
  5
D5F8
  8
0
 10
4757.610110700758014
 20
241.1802906229247014
 30
0.0
 11
4757.5974006624446702
 21
241.2011721333389005
 31
0.0
  0
LINE
  5
D5F9
  8
0
 10
4757.5974006624446702
 20
241.2011721333389005
 30
0.0
 11
4757.524031204120547
 21
241.1802906453170863
 31
0.0
  0
LINE
  5
D5FA
  8
0
 10
4757.524031204120547
 20
241.1802906453170863
 30
0.0
 11
4757.5063752089481568
 21
241.201173429863303
 31
0.0
  0
LINE
  5
D5FB
  8
0
 10
4757.5063752089481568
 20
241.201173429863303
 30
0.0
 11
4757.4369841051648109
 21
241.1802966566390865
 31
0.0
  0
LINE
  5
D5FC
  8
0
 10
4757.4369841051648109
 20
241.1802966566390865
 30
0.0
 11
4757.4143595855111926
 21
241.2011734218997105
 31
0.0
  0
LINE
  5
D5FD
  8
0
 10
4757.4143595855111926
 20
241.2011734218997105
 30
0.0
 11
4757.3491286991657034
 21
241.1803015423070917
 31
0.0
  0
LINE
  5
D5FE
  8
0
 10
4757.3491286991657034
 20
241.1803015423070917
 30
0.0
 11
4757.3215342163475725
 21
241.201173413866087
 31
0.0
  0
LINE
  5
D5FF
  8
0
 10
4757.3215342163475725
 20
241.201173413866087
 30
0.0
 11
4757.2606259182657595
 21
241.1803027856807091
 31
0.0
  0
LINE
  5
D600
  8
0
 10
4757.2606259182657595
 20
241.1803027856807091
 30
0.0
 11
4757.2280776622874328
 21
241.2011734057778938
 31
0.0
  0
LINE
  5
D601
  8
0
 10
4757.2280776622874328
 20
241.2011734057778938
 30
0.0
 11
4757.1716378844648716
 21
241.1802990505175046
 31
0.0
  0
LINE
  5
D602
  8
0
 10
4757.1716378844648716
 20
241.1802990505175046
 30
0.0
 11
4757.1341697382185885
 21
241.201173397650507
 31
0.0
  0
LINE
  5
D603
  8
0
 10
4757.1341697382185885
 20
241.201173397650507
 30
0.0
 11
4757.082327587171676
 21
241.1802930411828072
 31
0.0
  0
LINE
  5
D604
  8
0
 10
4757.082327587171676
 20
241.1802930411828072
 30
0.0
 11
4757.0399868166432498
 21
241.2011733894993881
 31
0.0
  0
LINE
  5
D605
  8
0
 10
4757.0399868166432498
 20
241.2011733894993881
 30
0.0
 11
4756.9957093812663516
 21
241.180289892807707
 31
0.0
  0
LINE
  5
D606
  8
0
 10
4758.1339741258434515
 20
241.2005431690305102
 30
0.0
 11
4758.0888599759309727
 21
241.1870902656903013
 31
0.0
  0
LINE
  5
D607
  8
0
 10
4758.0888599759309727
 20
241.0412146479175135
 30
0.0
 11
4758.0888599759309727
 21
241.2011738909675103
 31
0.0
  0
LINE
  5
D608
  8
0
 10
4758.0888595838378023
 20
241.2011738909675103
 30
0.0
 11
4758.0315920958955758
 21
241.1839432137691119
 31
0.0
  0
LINE
  5
D609
  8
0
 10
4758.0315920958955758
 20
241.0412146479175135
 30
0.0
 11
4758.0315920958955758
 21
241.2011738909675103
 31
0.0
  0
LINE
  5
D60A
  8
0
 10
4757.9481072172020504
 20
241.1817209754730129
 30
0.0
 11
4758.0315920958955758
 21
241.2010531974252956
 31
0.0
  0
LINE
  5
D60B
  8
0
 10
4757.9481072172020504
 20
241.0412146479175135
 30
0.0
 11
4757.9481072172020504
 21
241.2011738909675103
 31
0.0
  0
LINE
  5
D60C
  8
0
 10
4757.8627766948029603
 20
241.180637879911103
 30
0.0
 11
4757.9481072172020504
 21
241.2010584175492909
 31
0.0
  0
LINE
  5
D60D
  8
0
 10
4757.8627766948029603
 20
241.0412146479175135
 30
0.0
 11
4757.8627766948029603
 21
241.2011738909675103
 31
0.0
  0
LINE
  5
D60E
  8
0
 10
4757.7787373731662228
 20
241.0620921937675121
 30
0.0
 11
4757.7787373731662228
 21
241.1802963451175117
 31
0.0
  0
LINE
  5
D60F
  8
0
 10
4757.7757697221777562
 20
241.0412146479175135
 30
0.0
 11
4757.7757697221777562
 21
241.2011738909675103
 31
0.0
  0
LINE
  5
D610
  8
0
 10
4757.6950644824646588
 20
241.0620941650674922
 30
0.0
 11
4757.6950644824646588
 21
241.1802943738175031
 31
0.0
  0
LINE
  5
D611
  8
0
 10
4757.6872545546311812
 20
241.0412146479175135
 30
0.0
 11
4757.6872545546311812
 21
241.2011738909675103
 31
0.0
  0
LINE
  5
D612
  8
0
 10
4757.6098581280411963
 20
241.0616829604987004
 30
0.0
 11
4757.6098581280411963
 21
241.180705578386295
 31
0.0
  0
LINE
  5
D613
  8
0
 10
4757.5973993099878498
 20
241.0412146479175135
 30
0.0
 11
4757.5973993099878498
 21
241.2011738909675103
 31
0.0
  0
LINE
  5
D614
  8
0
 10
4757.5240312040759818
 20
241.0620978935145899
 30
0.0
 11
4757.5240312040759818
 21
241.1802906453704054
 31
0.0
  0
LINE
  5
D615
  8
0
 10
4757.5063723156481501
 20
241.0412146479175135
 30
0.0
 11
4757.5063723156481501
 21
241.2011738909675103
 31
0.0
  0
LINE
  5
D616
  8
0
 10
4757.4369841051648109
 20
241.0620918822459089
 30
0.0
 11
4757.4369841051648109
 21
241.1802966566390865
 31
0.0
  0
LINE
  5
D617
  8
0
 10
4757.4143514705683629
 20
241.0412146479175135
 30
0.0
 11
4757.414352194262392
 21
241.2011738909675103
 31
0.0
  0
LINE
  5
D618
  8
0
 10
4757.3215234972749386
 20
241.0412146479175135
 30
0.0
 11
4757.3215234972749386
 21
241.2011738909675103
 31
0.0
  0
LINE
  5
D619
  8
0
 10
4757.3491286991657034
 20
241.0620869965779036
 30
0.0
 11
4757.3491286991657034
 21
241.1803015423070917
 31
0.0
  0
LINE
  5
D61A
  8
0
 10
4757.2606259182657595
 20
241.0620857532042862
 30
0.0
 11
4757.2606259182657595
 21
241.1803027856807091
 31
0.0
  0
LINE
  5
D61B
  8
0
 10
4757.2280677051940074
 20
241.0412146479175135
 30
0.0
 11
4757.2280677051940074
 21
241.2011738909675103
 31
0.0
  0
LINE
  5
D61C
  8
0
 10
4757.1716378844648716
 20
241.0620894883674907
 30
0.0
 11
4757.1716378844648716
 21
241.1802990505175046
 31
0.0
  0
LINE
  5
D61D
  8
0
 10
4757.1341634354803318
 20
241.0412146479175135
 30
0.0
 11
4757.1341634354803318
 21
241.2011738909675103
 31
0.0
  0
LINE
  5
D61E
  8
0
 10
4757.0823275871653095
 20
241.0620954977046893
 30
0.0
 11
4757.0823275871653095
 21
241.1802930411801924
 31
0.0
  0
LINE
  5
D61F
  8
0
 10
4757.0399903889947382
 20
241.0412146479175135
 30
0.0
 11
4757.0399903889947382
 21
241.2011738909675103
 31
0.0
  0
LINE
  5
D620
  8
0
 10
4756.9957097297074142
 20
241.0620984817344947
 30
0.0
 11
4756.9957097297074142
 21
241.1802900571505006
 31
0.0
  0
LINE
  5
D621
  8
0
 10
4757.8627766948029603
 20
241.0413273160592098
 30
0.0
 11
4757.7787373731662228
 21
241.0620921937675121
 31
0.0
  0
LINE
  5
D622
  8
0
 10
4757.7787373731662228
 20
241.0620921937675121
 30
0.0
 11
4757.7757760920158034
 21
241.0412150857061988
 31
0.0
  0
LINE
  5
D623
  8
0
 10
4757.7757760920158034
 20
241.0412150857061988
 30
0.0
 11
4757.6950644824646588
 21
241.0620941650674922
 31
0.0
  0
LINE
  5
D624
  8
0
 10
4757.6950644824646588
 20
241.0620941650674922
 30
0.0
 11
4757.6872522368366845
 21
241.0412150933676116
 31
0.0
  0
LINE
  5
D625
  8
0
 10
4757.6872522368366845
 20
241.0412150933676116
 30
0.0
 11
4757.610110700758014
 21
241.0620979159602086
 31
0.0
  0
LINE
  5
D626
  8
0
 10
4757.610110700758014
 20
241.0620979159602086
 30
0.0
 11
4757.5974006624446702
 21
241.0412164055460948
 31
0.0
  0
LINE
  5
D627
  8
0
 10
4757.5974006624446702
 20
241.0412164055460948
 30
0.0
 11
4757.524031204120547
 21
241.0620978935679091
 31
0.0
  0
LINE
  5
D628
  8
0
 10
4757.524031204120547
 20
241.0620978935679091
 30
0.0
 11
4757.5063752089481568
 21
241.0412151090216923
 31
0.0
  0
LINE
  5
D629
  8
0
 10
4757.5063752089481568
 20
241.0412151090216923
 30
0.0
 11
4757.4369841051648109
 21
241.0620918822459089
 31
0.0
  0
LINE
  5
D62A
  8
0
 10
4757.4369841051648109
 20
241.0620918822459089
 30
0.0
 11
4757.4143595855111926
 21
241.0412151169853132
 31
0.0
  0
LINE
  5
D62B
  8
0
 10
4757.4143595855111926
 20
241.0412151169853132
 30
0.0
 11
4757.3491286991657034
 21
241.0620869965779036
 31
0.0
  0
LINE
  5
D62C
  8
0
 10
4757.3491286991657034
 20
241.0620869965779036
 30
0.0
 11
4757.3215342163475725
 21
241.0412151250189083
 31
0.0
  0
LINE
  5
D62D
  8
0
 10
4757.3215342163475725
 20
241.0412151250189083
 30
0.0
 11
4757.2606259182657595
 21
241.0620857532042862
 31
0.0
  0
LINE
  5
D62E
  8
0
 10
4757.2606259182657595
 20
241.0620857532042862
 30
0.0
 11
4757.2280776622874328
 21
241.0412151331071868
 31
0.0
  0
LINE
  5
D62F
  8
0
 10
4757.2280776622874328
 20
241.0412151331071868
 30
0.0
 11
4757.1716378844648716
 21
241.0620894883674907
 31
0.0
  0
LINE
  5
D630
  8
0
 10
4757.1716378844648716
 20
241.0620894883674907
 30
0.0
 11
4757.1341697382185885
 21
241.0412151412344883
 31
0.0
  0
LINE
  5
D631
  8
0
 10
4757.1341697382185885
 20
241.0412151412344883
 30
0.0
 11
4757.082327587171676
 21
241.0620954977021881
 31
0.0
  0
LINE
  5
D632
  8
0
 10
4757.082327587171676
 20
241.0620954977021881
 30
0.0
 11
4757.0399868166432498
 21
241.0412151493856072
 31
0.0
  0
LINE
  5
D633
  8
0
 10
4757.0399868166432498
 20
241.0412151493856072
 30
0.0
 11
4756.9957093812663516
 21
241.062098646077402
 31
0.0
  0
LINE
  5
D634
  8
0
 10
4758.1339741258434515
 20
241.0418453698545136
 30
0.0
 11
4758.0888599759309727
 21
241.0552982731946088
 31
0.0
  0
LINE
  5
D635
  8
0
 10
4758.0888595838378023
 20
241.0412146479175135
 30
0.0
 11
4758.0315920958955758
 21
241.0584453251159118
 31
0.0
  0
LINE
  5
D636
  8
0
 10
4757.9481072172020504
 20
241.0606675634120961
 30
0.0
 11
4758.0315920958955758
 21
241.0413353414596997
 31
0.0
  0
LINE
  5
D637
  8
0
 10
4757.8627766948029603
 20
241.0617506589738923
 30
0.0
 11
4757.9481072172020504
 21
241.0413301213357045
 31
0.0
  0
LINE
  5
D638
  8
0
 10
4757.8627766948029603
 20
241.0411019797759025
 30
0.0
 11
4757.7787373731662228
 21
241.0203371020674865
 31
0.0
  0
LINE
  5
D639
  8
0
 10
4757.7787373731662228
 20
241.0203371020674865
 30
0.0
 11
4757.7757760920158034
 21
241.0412142101287998
 31
0.0
  0
LINE
  5
D63A
  8
0
 10
4757.7757760920158034
 20
241.0412142101287998
 30
0.0
 11
4757.6950644824646588
 21
241.0203351307675064
 31
0.0
  0
LINE
  5
D63B
  8
0
 10
4757.6950644824646588
 20
241.0203351307675064
 30
0.0
 11
4757.6872522368366845
 21
241.0412142024675006
 31
0.0
  0
LINE
  5
D63C
  8
0
 10
4757.6872522368366845
 20
241.0412142024675006
 30
0.0
 11
4757.610110700758014
 21
241.0203313798747047
 31
0.0
  0
LINE
  5
D63D
  8
0
 10
4757.610110700758014
 20
241.0203313798747047
 30
0.0
 11
4757.5974006624446702
 21
241.0412128902889037
 31
0.0
  0
LINE
  5
D63E
  8
0
 10
4757.5974006624446702
 20
241.0412128902889037
 30
0.0
 11
4757.524031204120547
 21
241.0203314022670895
 31
0.0
  0
LINE
  5
D63F
  8
0
 10
4757.524031204120547
 20
241.0203314022670895
 30
0.0
 11
4757.5063752089481568
 21
241.0412141868133062
 31
0.0
  0
LINE
  5
D640
  8
0
 10
4757.5063752089481568
 20
241.0412141868133062
 30
0.0
 11
4757.4369841051648109
 21
241.0203374135890897
 31
0.0
  0
LINE
  5
D641
  8
0
 10
4757.4369841051648109
 20
241.0203374135890897
 30
0.0
 11
4757.4143595855111926
 21
241.0412141788497138
 31
0.0
  0
LINE
  5
D642
  8
0
 10
4757.4143595855111926
 20
241.0412141788497138
 30
0.0
 11
4757.3491286991657034
 21
241.020342299257095
 31
0.0
  0
LINE
  5
D643
  8
0
 10
4757.3491286991657034
 20
241.020342299257095
 30
0.0
 11
4757.3215342163475725
 21
241.0412141708160902
 31
0.0
  0
LINE
  5
D644
  8
0
 10
4757.3215342163475725
 20
241.0412141708160902
 30
0.0
 11
4757.2606259182657595
 21
241.0203435426307124
 31
0.0
  0
LINE
  5
D645
  8
0
 10
4757.2606259182657595
 20
241.0203435426307124
 30
0.0
 11
4757.2280776622874328
 21
241.0412141627278118
 31
0.0
  0
LINE
  5
D646
  8
0
 10
4757.2280776622874328
 20
241.0412141627278118
 30
0.0
 11
4757.1716378844648716
 21
241.0203398074675079
 31
0.0
  0
LINE
  5
D647
  8
0
 10
4757.1716378844648716
 20
241.0203398074675079
 30
0.0
 11
4757.1341697382185885
 21
241.0412141546005955
 31
0.0
  0
LINE
  5
D648
  8
0
 10
4757.1341697382185885
 20
241.0412141546005955
 30
0.0
 11
4757.082327587171676
 21
241.0203337981328104
 31
0.0
  0
LINE
  5
D649
  8
0
 10
4757.082327587171676
 20
241.0203337981328104
 30
0.0
 11
4757.0399868166432498
 21
241.0412141464493914
 31
0.0
  0
LINE
  5
D64A
  8
0
 10
4757.0399868166432498
 20
241.0412141464493914
 30
0.0
 11
4756.9957093812663516
 21
241.0203306497577103
 31
0.0
  0
LINE
  5
D64B
  8
0
 10
4758.1339741258434515
 20
241.0405839259805134
 30
0.0
 11
4758.0888599759309727
 21
241.0271310226403045
 31
0.0
  0
LINE
  5
D64C
  8
0
 10
4758.0888599759309727
 20
240.8812554048674883
 30
0.0
 11
4758.0888599759309727
 21
241.0412146479175135
 31
0.0
  0
LINE
  5
D64D
  8
0
 10
4758.0888595838378023
 20
241.0412146479175135
 30
0.0
 11
4758.0315920958955758
 21
241.0239839707190868
 31
0.0
  0
LINE
  5
D64E
  8
0
 10
4758.0315920958955758
 20
240.8812554048674883
 30
0.0
 11
4758.0315920958955758
 21
241.0412146479175135
 31
0.0
  0
LINE
  5
D64F
  8
0
 10
4757.9481072172020504
 20
241.0217617324229025
 30
0.0
 11
4758.0315920958955758
 21
241.0410939543752988
 31
0.0
  0
LINE
  5
D650
  8
0
 10
4757.9481072172020504
 20
240.8812554048674883
 30
0.0
 11
4757.9481072172020504
 21
241.0412146479175135
 31
0.0
  0
LINE
  5
D651
  8
0
 10
4757.8627766948029603
 20
241.0206786368611063
 30
0.0
 11
4757.9481072172020504
 21
241.0410991744992941
 31
0.0
  0
LINE
  5
D652
  8
0
 10
4757.8627766948029603
 20
240.8812554048674883
 30
0.0
 11
4757.8627766948029603
 21
241.0412146479175135
 31
0.0
  0
LINE
  5
D653
  8
0
 10
4757.7787373731662228
 20
240.9021329507174869
 30
0.0
 11
4757.7787373731662228
 21
241.0203371020674865
 31
0.0
  0
LINE
  5
D654
  8
0
 10
4757.7757697221777562
 20
240.8812554048674883
 30
0.0
 11
4757.7757697221777562
 21
241.0412146479175135
 31
0.0
  0
LINE
  5
D655
  8
0
 10
4757.6950644824646588
 20
240.9021349220174955
 30
0.0
 11
4757.6950644824646588
 21
241.0203351307675064
 31
0.0
  0
LINE
  5
D656
  8
0
 10
4757.6872545546311812
 20
240.8812554048674883
 30
0.0
 11
4757.6872545546311812
 21
241.0412146479175135
 31
0.0
  0
LINE
  5
D657
  8
0
 10
4757.6098581280411963
 20
240.9017237174487889
 30
0.0
 11
4757.6098581280411963
 21
241.020746335336213
 31
0.0
  0
LINE
  5
D658
  8
0
 10
4757.5973993099878498
 20
240.8812554048674883
 30
0.0
 11
4757.5973993099878498
 21
241.0412146479175135
 31
0.0
  0
LINE
  5
D659
  8
0
 10
4757.5240312040759818
 20
240.9021386504645932
 30
0.0
 11
4757.5240312040759818
 21
241.0203314023204086
 31
0.0
  0
LINE
  5
D65A
  8
0
 10
4757.5063723156481501
 20
240.8812554048674883
 30
0.0
 11
4757.5063723156481501
 21
241.0412146479175135
 31
0.0
  0
LINE
  5
D65B
  8
0
 10
4757.4369841051648109
 20
240.9021326391959121
 30
0.0
 11
4757.4369841051648109
 21
241.0203374135890897
 31
0.0
  0
LINE
  5
D65C
  8
0
 10
4757.4143514705683629
 20
240.8812554048674883
 30
0.0
 11
4757.414352194262392
 21
241.0412146479175135
 31
0.0
  0
LINE
  5
D65D
  8
0
 10
4757.3215234972749386
 20
240.8812554048674883
 30
0.0
 11
4757.3215234972749386
 21
241.0412146479175135
 31
0.0
  0
LINE
  5
D65E
  8
0
 10
4757.3491286991657034
 20
240.9021277535279069
 30
0.0
 11
4757.3491286991657034
 21
241.020342299257095
 31
0.0
  0
LINE
  5
D65F
  8
0
 10
4757.2606259182657595
 20
240.9021265101542895
 30
0.0
 11
4757.2606259182657595
 21
241.0203435426307124
 31
0.0
  0
LINE
  5
D660
  8
0
 10
4757.2280677051940074
 20
240.8812554048674883
 30
0.0
 11
4757.2280677051940074
 21
241.0412146479175135
 31
0.0
  0
LINE
  5
D661
  8
0
 10
4757.1716378844648716
 20
240.902130245317494
 30
0.0
 11
4757.1716378844648716
 21
241.0203398074675079
 31
0.0
  0
LINE
  5
D662
  8
0
 10
4757.1341634354803318
 20
240.8812554048674883
 30
0.0
 11
4757.1341634354803318
 21
241.0412146479175135
 31
0.0
  0
LINE
  5
D663
  8
0
 10
4757.0823275871653095
 20
240.9021362546546925
 30
0.0
 11
4757.0823275871653095
 21
241.0203337981303093
 31
0.0
  0
LINE
  5
D664
  8
0
 10
4757.0399903889947382
 20
240.8812554048674883
 30
0.0
 11
4757.0399903889947382
 21
241.0412146479175135
 31
0.0
  0
LINE
  5
D665
  8
0
 10
4756.9957097297074142
 20
240.902139238684498
 30
0.0
 11
4756.9957097297074142
 21
241.0203308141005039
 31
0.0
  0
LINE
  5
D666
  8
0
 10
4757.8627766948029603
 20
240.8813680730090994
 30
0.0
 11
4757.7787373731662228
 21
240.9021329507174869
 31
0.0
  0
LINE
  5
D667
  8
0
 10
4757.7787373731662228
 20
240.9021329507174869
 30
0.0
 11
4757.7757760920158034
 21
240.881255842656202
 31
0.0
  0
LINE
  5
D668
  8
0
 10
4757.7757760920158034
 20
240.881255842656202
 30
0.0
 11
4757.6950644824646588
 21
240.9021349220174955
 31
0.0
  0
LINE
  5
D669
  8
0
 10
4757.6950644824646588
 20
240.9021349220174955
 30
0.0
 11
4757.6872522368366845
 21
240.8812558503175012
 31
0.0
  0
LINE
  5
D66A
  8
0
 10
4757.6872522368366845
 20
240.8812558503175012
 30
0.0
 11
4757.610110700758014
 21
240.9021386729102971
 31
0.0
  0
LINE
  5
D66B
  8
0
 10
4757.610110700758014
 20
240.9021386729102971
 30
0.0
 11
4757.5974006624446702
 21
240.8812571624960981
 31
0.0
  0
LINE
  5
D66C
  8
0
 10
4757.5974006624446702
 20
240.8812571624960981
 30
0.0
 11
4757.524031204120547
 21
240.9021386505179123
 31
0.0
  0
LINE
  5
D66D
  8
0
 10
4757.524031204120547
 20
240.9021386505179123
 30
0.0
 11
4757.5063752089481568
 21
240.8812558659716956
 31
0.0
  0
LINE
  5
D66E
  8
0
 10
4757.5063752089481568
 20
240.8812558659716956
 30
0.0
 11
4757.4369841051648109
 21
240.9021326391959121
 31
0.0
  0
LINE
  5
D66F
  8
0
 10
4757.4369841051648109
 20
240.9021326391959121
 30
0.0
 11
4757.4143595855111926
 21
240.881255873935288
 31
0.0
  0
LINE
  5
D670
  8
0
 10
4757.4143595855111926
 20
240.881255873935288
 30
0.0
 11
4757.3491286991657034
 21
240.9021277535279069
 31
0.0
  0
LINE
  5
D671
  8
0
 10
4757.3491286991657034
 20
240.9021277535279069
 30
0.0
 11
4757.3215342163475725
 21
240.8812558819689116
 31
0.0
  0
LINE
  5
D672
  8
0
 10
4757.3215342163475725
 20
240.8812558819689116
 30
0.0
 11
4757.2606259182657595
 21
240.9021265101542895
 31
0.0
  0
LINE
  5
D673
  8
0
 10
4757.2606259182657595
 20
240.9021265101542895
 30
0.0
 11
4757.2280776622874328
 21
240.8812558900571901
 31
0.0
  0
LINE
  5
D674
  8
0
 10
4757.2280776622874328
 20
240.8812558900571901
 30
0.0
 11
4757.1716378844648716
 21
240.902130245317494
 31
0.0
  0
LINE
  5
D675
  8
0
 10
4757.1716378844648716
 20
240.902130245317494
 30
0.0
 11
4757.1341697382185885
 21
240.8812558981844063
 31
0.0
  0
LINE
  5
D676
  8
0
 10
4757.1341697382185885
 20
240.8812558981844063
 30
0.0
 11
4757.082327587171676
 21
240.9021362546521914
 31
0.0
  0
LINE
  5
D677
  8
0
 10
4757.082327587171676
 20
240.9021362546521914
 30
0.0
 11
4757.0399868166432498
 21
240.8812559063356105
 31
0.0
  0
LINE
  5
D678
  8
0
 10
4757.0399868166432498
 20
240.8812559063356105
 30
0.0
 11
4756.9957093812663516
 21
240.9021394030272916
 31
0.0
  0
LINE
  5
D679
  8
0
 10
4758.1339741258434515
 20
240.8818861268044884
 30
0.0
 11
4758.0888599759309727
 21
240.8953390301446973
 31
0.0
  0
LINE
  5
D67A
  8
0
 10
4758.0888595838378023
 20
240.8812554048674883
 30
0.0
 11
4758.0315920958955758
 21
240.8984860820658866
 31
0.0
  0
LINE
  5
D67B
  8
0
 10
4757.9481072172020504
 20
240.9007083203620994
 30
0.0
 11
4758.0315920958955758
 21
240.881376098409703
 31
0.0
  0
LINE
  5
D67C
  8
0
 10
4757.8627766948029603
 20
240.9017914159238956
 30
0.0
 11
4757.9481072172020504
 21
240.8813708782857077
 31
0.0
  0
LINE
  5
D67D
  8
0
 10
4758.1339741258434515
 20
240.8812554048674883
 30
0.0
 11
4755.8574446366883421
 21
240.8812554048674883
 31
0.0
  0
LINE
  5
D67E
  8
0
 10
4758.1339741258434515
 20
239.8551828797754126
 30
0.0
 11
4755.8574446366883421
 21
239.8551828797754126
 31
0.0
  0
LINE
  5
D67F
  8
0
 10
4757.8627765034680124
 20
239.8550702116338016
 30
0.0
 11
4757.7787371818303654
 21
239.8343053339254141
 31
0.0
  0
LINE
  5
D680
  8
0
 10
4757.7787371818303654
 20
239.8343053339254141
 30
0.0
 11
4757.7757759006799461
 21
239.8551824419866989
 31
0.0
  0
LINE
  5
D681
  8
0
 10
4757.7757759006799461
 20
239.8551824419866989
 30
0.0
 11
4757.6950642911288014
 21
239.8343033626254055
 31
0.0
  0
LINE
  5
D682
  8
0
 10
4757.6950642911288014
 20
239.8343033626254055
 30
0.0
 11
4757.6872520455017366
 21
239.8551824343253998
 31
0.0
  0
LINE
  5
D683
  8
0
 10
4757.6872520455017366
 20
239.8551824343253998
 30
0.0
 11
4757.6101105094221566
 21
239.8342996117326891
 31
0.0
  0
LINE
  5
D684
  8
0
 10
4757.6101105094221566
 20
239.8342996117326891
 30
0.0
 11
4757.5974004711088128
 21
239.8551811221468029
 31
0.0
  0
LINE
  5
D685
  8
0
 10
4757.5974004711088128
 20
239.8551811221468029
 30
0.0
 11
4757.5240310127837802
 21
239.8342996341249886
 31
0.0
  0
LINE
  5
D686
  8
0
 10
4757.5240310127837802
 20
239.8342996341249886
 30
0.0
 11
4757.5063750176113899
 21
239.8551824186712054
 31
0.0
  0
LINE
  5
D687
  8
0
 10
4757.5063750176113899
 20
239.8551824186712054
 30
0.0
 11
4757.4369839138289535
 21
239.8343056454469888
 31
0.0
  0
LINE
  5
D688
  8
0
 10
4757.4369839138289535
 20
239.8343056454469888
 30
0.0
 11
4757.4143593941753352
 21
239.8551824107076982
 31
0.0
  0
LINE
  5
D689
  8
0
 10
4757.4143593941753352
 20
239.8551824107076982
 30
0.0
 11
4757.3491285078289366
 21
239.8343105311149941
 31
0.0
  0
LINE
  5
D68A
  8
0
 10
4757.3491285078289366
 20
239.8343105311149941
 30
0.0
 11
4757.3215340250117151
 21
239.8551824026739894
 31
0.0
  0
LINE
  5
D68B
  8
0
 10
4757.3215340250117151
 20
239.8551824026739894
 30
0.0
 11
4757.2606257269299022
 21
239.8343117744886115
 31
0.0
  0
LINE
  5
D68C
  8
0
 10
4757.2606257269299022
 20
239.8343117744886115
 30
0.0
 11
4757.2280774709506659
 21
239.8551823945857961
 31
0.0
  0
LINE
  5
D68D
  8
0
 10
4757.2280774709506659
 20
239.8551823945857961
 30
0.0
 11
4757.1716376931290142
 21
239.834308039325407
 31
0.0
  0
LINE
  5
D68E
  8
0
 10
4757.1716376931290142
 20
239.834308039325407
 30
0.0
 11
4757.1341695468827311
 21
239.8551823864584946
 31
0.0
  0
LINE
  5
D68F
  8
0
 10
4757.1341695468827311
 20
239.8551823864584946
 30
0.0
 11
4757.0823273958367281
 21
239.8343020299907096
 31
0.0
  0
LINE
  5
D690
  8
0
 10
4757.0823273958367281
 20
239.8343020299907096
 30
0.0
 11
4757.0399866253073924
 21
239.8551823783074042
 31
0.0
  0
LINE
  5
D691
  8
0
 10
4757.0399866253073924
 20
239.8551823783074042
 30
0.0
 11
4756.9957091899295847
 21
239.8342988816156094
 31
0.0
  0
LINE
  5
D692
  8
0
 10
4758.1339739345075941
 20
239.8545521578384125
 30
0.0
 11
4758.0888597845951153
 21
239.8410992544982889
 31
0.0
  0
LINE
  5
D693
  8
0
 10
4758.0888597845951153
 20
239.5717071309258017
 30
0.0
 11
4758.0888597845951153
 21
239.8551828797754126
 31
0.0
  0
LINE
  5
D694
  8
0
 10
4758.0888593925010355
 20
239.8551828797754126
 30
0.0
 11
4758.0315919045597184
 21
239.8379522025769859
 31
0.0
  0
LINE
  5
D695
  8
0
 10
4758.0315919045597184
 20
239.5718278290823093
 30
0.0
 11
4758.0315919045597184
 21
239.8551828797754126
 31
0.0
  0
LINE
  5
D696
  8
0
 10
4757.9481070258652835
 20
239.8357299642808869
 30
0.0
 11
4758.0315919045597184
 21
239.855062186233198
 31
0.0
  0
LINE
  5
D697
  8
0
 10
4757.9481070258652835
 20
239.5718226091125871
 30
0.0
 11
4757.9481070258652835
 21
239.8551828797754126
 31
0.0
  0
LINE
  5
D698
  8
0
 10
4757.8627765034680124
 20
239.8346468687190054
 30
0.0
 11
4757.9481070258652835
 21
239.8550674063573069
 31
0.0
  0
LINE
  5
D699
  8
0
 10
4757.8627765034680124
 20
239.5718198039909907
 30
0.0
 11
4757.8627765034680124
 21
239.8551828797754126
 31
0.0
  0
LINE
  5
D69A
  8
0
 10
4757.7787371818303654
 20
239.5925845362953055
 30
0.0
 11
4757.7787371818303654
 21
239.8343053339254141
 31
0.0
  0
LINE
  5
D69B
  8
0
 10
4757.7757695308428083
 20
239.5717092216659125
 30
0.0
 11
4757.7757695308428083
 21
239.8551828797754126
 31
0.0
  0
LINE
  5
D69C
  8
0
 10
4757.6950642911288014
 20
239.5925865948208013
 30
0.0
 11
4757.6950642911288014
 21
239.8343033626254055
 31
0.0
  0
LINE
  5
D69D
  8
0
 10
4757.6872543632953239
 20
239.5717137176746121
 30
0.0
 11
4757.6872543632953239
 21
239.8551828797754126
 31
0.0
  0
LINE
  5
D69E
  8
0
 10
4757.6098579367062484
 20
239.5921754107698973
 30
0.0
 11
4757.6098579367062484
 21
239.8347145671941973
 31
0.0
  0
LINE
  5
D69F
  8
0
 10
4757.5973991186519925
 20
239.5717092791448124
 30
0.0
 11
4757.5973991186519925
 21
239.8551828797754126
 31
0.0
  0
LINE
  5
D6A0
  8
0
 10
4757.5240310127401244
 20
239.5925903529549998
 30
0.0
 11
4757.5240310127401244
 21
239.8342996341783078
 31
0.0
  0
LINE
  5
D6A1
  8
0
 10
4757.5063721243122927
 20
239.571708468493398
 30
0.0
 11
4757.5063721243122927
 21
239.8551828797754126
 31
0.0
  0
LINE
  5
D6A2
  8
0
 10
4757.4369839138289535
 20
239.5925843468673122
 30
0.0
 11
4757.4369839138289535
 21
239.8343056454469888
 31
0.0
  0
LINE
  5
D6A3
  8
0
 10
4757.4143507204280468
 20
239.5717103817019051
 30
0.0
 11
4757.4143520029274441
 21
239.8551828797754126
 31
0.0
  0
LINE
  5
D6A4
  8
0
 10
4757.3215233059399907
 20
239.5717112878155888
 30
0.0
 11
4757.3215233059399907
 21
239.8551828797754126
 31
0.0
  0
LINE
  5
D6A5
  8
0
 10
4757.3491285078289366
 20
239.5925794645145004
 30
0.0
 11
4757.3491285078289366
 21
239.8343105311149941
 31
0.0
  0
LINE
  5
D6A6
  8
0
 10
4757.2606257269299022
 20
239.592578223435595
 30
0.0
 11
4757.2606257269299022
 21
239.8343117744886115
 31
0.0
  0
LINE
  5
D6A7
  8
0
 10
4757.2280675138581501
 20
239.5717113061344037
 30
0.0
 11
4757.2280675138581501
 21
239.8551828797754126
 31
0.0
  0
LINE
  5
D6A8
  8
0
 10
4757.1716376931290142
 20
239.5925819602744866
 30
0.0
 11
4757.1716376931290142
 21
239.834308039325407
 31
0.0
  0
LINE
  5
D6A9
  8
0
 10
4757.1341632441453839
 20
239.5717101708098085
 30
0.0
 11
4757.1341632441453839
 21
239.8551828797754126
 31
0.0
  0
LINE
  5
D6AA
  8
0
 10
4757.0823273958303616
 20
239.5925879708807997
 30
0.0
 11
4757.0823273958303616
 21
239.8343020299882085
 31
0.0
  0
LINE
  5
D6AB
  8
0
 10
4757.0399901976588808
 20
239.5717093842721113
 30
0.0
 11
4757.0399901976588808
 21
239.8551828797754126
 31
0.0
  0
LINE
  5
D6AC
  8
0
 10
4756.9957095383706474
 20
239.5925909741411033
 30
0.0
 11
4756.9957095383706474
 21
239.834299045958403
 31
0.0
  0
LINE
  5
D6AD
  8
0
 10
4757.8627765233941318
 20
239.5718197990674128
 30
0.0
 11
4757.7787372017555754
 21
239.5925846767758003
 31
0.0
  0
LINE
  5
D6AE
  8
0
 10
4757.7787372017555754
 20
239.5925846767758003
 30
0.0
 11
4757.775775920605156
 21
239.571707568714487
 31
0.0
  0
LINE
  5
D6AF
  8
0
 10
4757.775775920605156
 20
239.571707568714487
 30
0.0
 11
4757.6950643110558303
 21
239.5925866480758089
 31
0.0
  0
LINE
  5
D6B0
  8
0
 10
4757.6950643110558303
 20
239.5925866480758089
 30
0.0
 11
4757.6872520654269465
 21
239.5717075763758999
 31
0.0
  0
LINE
  5
D6B1
  8
0
 10
4757.6872520654269465
 20
239.5717075763758999
 30
0.0
 11
4757.610110529348276
 21
239.5925903989686105
 31
0.0
  0
LINE
  5
D6B2
  8
0
 10
4757.610110529348276
 20
239.5925903989686105
 30
0.0
 11
4757.5974004910349322
 21
239.5717088885544968
 31
0.0
  0
LINE
  5
D6B3
  8
0
 10
4757.5974004910349322
 20
239.5717088885544968
 30
0.0
 11
4757.5240310327108091
 21
239.5925903765761973
 31
0.0
  0
LINE
  5
D6B4
  8
0
 10
4757.5240310327108091
 20
239.5925903765761973
 30
0.0
 11
4757.5063750375393283
 21
239.5717075920300942
 31
0.0
  0
LINE
  5
D6B5
  8
0
 10
4757.5063750375393283
 20
239.5717075920300942
 30
0.0
 11
4757.4369839337559824
 21
239.5925843652541971
 31
0.0
  0
LINE
  5
D6B6
  8
0
 10
4757.4369839337559824
 20
239.5925843652541971
 30
0.0
 11
4757.4143594141014546
 21
239.5717075999936014
 31
0.0
  0
LINE
  5
D6B7
  8
0
 10
4757.4143594141014546
 20
239.5717075999936014
 30
0.0
 11
4757.3491285277559655
 21
239.5925794795861918
 31
0.0
  0
LINE
  5
D6B8
  8
0
 10
4757.3491285277559655
 20
239.5925794795861918
 30
0.0
 11
4757.321534044938744
 21
239.5717076080271966
 31
0.0
  0
LINE
  5
D6B9
  8
0
 10
4757.321534044938744
 20
239.5717076080271966
 30
0.0
 11
4757.2606257468560216
 21
239.5925782362126881
 31
0.0
  0
LINE
  5
D6BA
  8
0
 10
4757.2606257468560216
 20
239.5925782362126881
 30
0.0
 11
4757.2280774908776948
 21
239.5717076161155035
 31
0.0
  0
LINE
  5
D6BB
  8
0
 10
4757.2280774908776948
 20
239.5717076161155035
 30
0.0
 11
4757.1716377130560431
 21
239.5925819713758074
 31
0.0
  0
LINE
  5
D6BC
  8
0
 10
4757.1716377130560431
 20
239.5925819713758074
 30
0.0
 11
4757.13416956680976
 21
239.571707624242805
 31
0.0
  0
LINE
  5
D6BD
  8
0
 10
4757.13416956680976
 20
239.571707624242805
 30
0.0
 11
4757.0823274157628475
 21
239.5925879807105048
 31
0.0
  0
LINE
  5
D6BE
  8
0
 10
4757.0823274157628475
 20
239.5925879807105048
 30
0.0
 11
4757.0399866452326023
 21
239.5717076323938954
 31
0.0
  0
LINE
  5
D6BF
  8
0
 10
4757.0399866452326023
 20
239.5717076323938954
 30
0.0
 11
4756.9957092098557041
 21
239.5925911290856902
 31
0.0
  0
LINE
  5
D6C0
  8
0
 10
4758.1339739544337135
 20
239.5723378528628871
 30
0.0
 11
4758.0888598045212348
 21
239.5857907562030107
 31
0.0
  0
LINE
  5
D6C1
  8
0
 10
4758.0888594124280644
 20
239.5717071309258017
 30
0.0
 11
4758.0315919244867473
 21
239.5889378081243137
 31
0.0
  0
LINE
  5
D6C2
  8
0
 10
4757.9481070457914029
 20
239.5911600464204128
 30
0.0
 11
4758.0315919244867473
 21
239.5718278244681017
 31
0.0
  0
LINE
  5
D6C3
  8
0
 10
4757.8627765233941318
 20
239.5922431419822942
 30
0.0
 11
4757.9481070457914029
 21
239.5718226043439927
 31
0.0
  0
LINE
  5
D6C4
  8
0
 10
4758.1339741258434515
 20
239.5717071309258017
 30
0.0
 11
4755.8574446366883421
 21
239.5717071309258017
 31
0.0
  0
LINE
  5
D6C5
  8
0
 10
4756.9957093812663516
 20
240.6169631717459936
 30
0.0
 11
4757.6428877347771049
 21
239.8651828608174981
 31
0.0
  0
LINE
  5
D6C6
  8
0
 10
4757.1027430058520622
 20
240.8712554328174917
 30
0.0
 11
4757.1042918811508571
 21
240.7431008892517923
 31
0.0
  0
LINE
  5
D6C7
  8
0
 10
4757.1042918811508571
 20
240.7431008892517923
 30
0.0
 11
4757.1010535805626205
 21
240.6169635448175086
 31
0.0
  0
LINE
  5
D6C8
  8
0
 10
4757.1010535805626205
 20
240.6169635448175086
 30
0.0
 11
4757.1031553390412228
 21
240.4921509695070085
 31
0.0
  0
LINE
  5
D6C9
  8
0
 10
4757.1031553390412228
 20
240.4921509695070085
 30
0.0
 11
4757.1005004358976294
 21
240.3679868857674933
 31
0.0
  0
LINE
  5
D6CA
  8
0
 10
4758.1339741258434515
 20
240.8712554328174917
 30
0.0
 11
4755.8574446366883421
 21
240.8712554328174917
 31
0.0
  0
LINE
  5
D6CB
  8
0
 10
4757.2057053958797042
 20
240.8712554328174917
 30
0.0
 11
4757.2041565205809093
 21
240.7431008892517923
 31
0.0
  0
LINE
  5
D6CC
  8
0
 10
4757.2041565205809093
 20
240.7431008892517923
 30
0.0
 11
4757.2073948211673269
 21
240.6169635448175086
 31
0.0
  0
LINE
  5
D6CD
  8
0
 10
4757.2073948211673269
 20
240.6169635448175086
 30
0.0
 11
4757.2052930626923626
 21
240.4921509695070085
 31
0.0
  0
LINE
  5
D6CE
  8
0
 10
4757.2052930626923626
 20
240.4921509695070085
 30
0.0
 11
4757.207947967545806
 21
240.3679868056821931
 31
0.0
  0
LINE
  5
D6CF
  8
0
 10
4757.3156956462999005
 20
240.8712554328174917
 30
0.0
 11
4757.3203203648836279
 21
240.7430998224625966
 31
0.0
  0
LINE
  5
D6D0
  8
0
 10
4757.3203203648836279
 20
240.7430998224625966
 30
0.0
 11
4757.3106432604608926
 21
240.6169616958183894
 31
0.0
  0
LINE
  5
D6D1
  8
0
 10
4757.3106432604608926
 20
240.6169616958183894
 30
0.0
 11
4757.3169200298762007
 21
240.4921471765325975
 31
0.0
  0
LINE
  5
D6D2
  8
0
 10
4757.3169200298762007
 20
240.4921471765325975
 30
0.0
 11
4757.3089889249422413
 21
240.3679868857674933
 31
0.0
  0
LINE
  5
D6D3
  8
0
 10
4757.431223446527838
 20
240.8712554328174917
 30
0.0
 11
4757.4171772813660937
 21
240.7438298111175072
 31
0.0
  0
LINE
  5
D6D4
  8
0
 10
4757.4171772813660937
 20
240.7438298111175072
 30
0.0
 11
4757.4243642735209505
 21
240.6169607588929011
 31
0.0
  0
LINE
  5
D6D5
  8
0
 10
4757.4243642735209505
 20
240.6169607588929011
 30
0.0
 11
4757.4126865640646429
 21
240.4921467720174917
 31
0.0
  0
LINE
  5
D6D6
  8
0
 10
4757.4126865640646429
 20
240.4921467720174917
 30
0.0
 11
4757.4221170597948003
 21
240.3679868857674933
 31
0.0
  0
LINE
  5
D6D7
  8
0
 10
4757.5141932153728703
 20
240.3679868857674933
 30
0.0
 11
4757.5273153544867455
 21
240.4921465915174963
 31
0.0
  0
LINE
  5
D6D8
  8
0
 10
4757.5273153544867455
 20
240.4921465915174963
 30
0.0
 11
4757.5180512877777801
 21
240.6187033201454142
 31
0.0
  0
LINE
  5
D6D9
  8
0
 10
4757.5180512877777801
 20
240.6187033201454142
 30
0.0
 11
4757.5342067375659099
 21
240.7445605338174914
 31
0.0
  0
LINE
  5
D6DA
  8
0
 10
4757.5342067375659099
 20
240.7445605338174914
 30
0.0
 11
4757.5252978947255542
 21
240.8712554328174917
 31
0.0
  0
LINE
  5
D6DB
  8
0
 10
4757.6432695074727235
 20
240.8712554328174917
 30
0.0
 11
4757.6234788719730204
 21
240.745528131395389
 31
0.0
  0
LINE
  5
D6DC
  8
0
 10
4757.6234788719730204
 20
240.745528131395389
 30
0.0
 11
4757.6355470032804078
 21
240.6198871039092921
 31
0.0
  0
LINE
  5
D6DD
  8
0
 10
4757.6355470032804078
 20
240.6198871039092921
 30
0.0
 11
4757.617511547166032
 21
240.4943749848175116
 31
0.0
  0
LINE
  5
D6DE
  8
0
 10
4757.617511547166032
 20
240.4943749848175116
 30
0.0
 11
4757.6297268666203308
 21
240.3679868857674933
 31
0.0
  0
LINE
  5
D6DF
  8
0
 10
4757.7187405529930402
 20
240.3679868857674933
 30
0.0
 11
4757.735787367566445
 21
240.4965681027175037
 31
0.0
  0
LINE
  5
D6E0
  8
0
 10
4757.735787367566445
 20
240.4965681027175037
 30
0.0
 11
4757.7218538218648973
 21
240.6220940960174914
 31
0.0
  0
LINE
  5
D6E1
  8
0
 10
4757.7218538218648973
 20
240.6220940960174914
 30
0.0
 11
4757.7428192467768895
 21
240.7464954602374974
 31
0.0
  0
LINE
  5
D6E2
  8
0
 10
4757.7428192467768895
 20
240.7464954602374974
 30
0.0
 11
4757.7293376637462643
 21
240.8712554328174917
 31
0.0
  0
LINE
  5
D6E3
  8
0
 10
4757.848525545479788
 20
240.8712554328174917
 30
0.0
 11
4757.8235648986646993
 21
240.7477177251174965
 31
0.0
  0
LINE
  5
D6E4
  8
0
 10
4757.8235648986646993
 20
240.7477177251174965
 30
0.0
 11
4757.8407265772930259
 21
240.6237946463133994
 31
0.0
  0
LINE
  5
D6E5
  8
0
 10
4757.8407265772930259
 20
240.6237946463133994
 30
0.0
 11
4757.8210935947663529
 21
240.4957594831174958
 31
0.0
  0
LINE
  5
D6E6
  8
0
 10
4757.8210935947663529
 20
240.4957594831174958
 30
0.0
 11
4757.8403020027890307
 21
240.3679868857674933
 31
0.0
  0
LINE
  5
D6E7
  8
0
 10
4757.9217745103533161
 20
240.3679868857674933
 30
0.0
 11
4757.9435199128229215
 21
240.4949688712563045
 31
0.0
  0
LINE
  5
D6E8
  8
0
 10
4757.9435199128229215
 20
240.4949688712563045
 30
0.0
 11
4757.921975835264675
 21
240.6216799882174939
 31
0.0
  0
LINE
  5
D6E9
  8
0
 10
4757.921975835264675
 20
240.6216799882174939
 30
0.0
 11
4757.9439518950512138
 21
240.7489409906822004
 31
0.0
  0
LINE
  5
D6EA
  8
0
 10
4757.9439518950512138
 20
240.7489409906822004
 30
0.0
 11
4757.9256937785066839
 21
240.8712554328174917
 31
0.0
  0
LINE
  5
D6EB
  8
0
 10
4758.0448424353307928
 20
240.8712554328174917
 30
0.0
 11
4758.0215078674664255
 21
240.7454382333174863
 31
0.0
  0
LINE
  5
D6EC
  8
0
 10
4758.0215078674664255
 20
240.7454382333174863
 30
0.0
 11
4758.0448426701650533
 21
240.6196214602175019
 31
0.0
  0
LINE
  5
D6ED
  8
0
 10
4758.0448426701650533
 20
240.6196214602175019
 30
0.0
 11
4758.0203310178658285
 21
240.4938038356175127
 31
0.0
  0
LINE
  5
D6EE
  8
0
 10
4758.0203310178658285
 20
240.4938038356175127
 30
0.0
 11
4758.0448425387648967
 21
240.3679868857674933
 31
0.0
  0
LINE
  5
D6EF
  8
0
 10
4758.1339741258434515
 20
240.8657322464092942
 30
0.0
 11
4758.044842649353086
 21
240.6196215724345109
 31
0.0
  0
LINE
  5
D6F0
  8
0
 10
4758.044842649353086
 20
240.6196215724345109
 30
0.0
 11
4758.1339741258434515
 21
240.3723590693076915
 31
0.0
  0
LINE
  5
D6F1
  8
0
 10
4758.0451371148819817
 20
240.3679868857674933
 30
0.0
 11
4758.1339741258434515
 21
240.619836148029691
 31
0.0
  0
LINE
  5
D6F2
  8
0
 10
4758.1339741258434515
 20
240.6159606656879077
 30
0.0
 11
4758.0455886243371424
 21
240.8712554328174917
 31
0.0
  0
LINE
  5
D6F3
  8
0
 10
4758.1339741258434515
 20
240.3679868857674933
 30
0.0
 11
4755.8574446366883421
 21
240.3679868857674933
 31
0.0
  0
LINE
  5
D6F4
  8
0
 10
4757.1027430058520622
 20
239.8647183387174948
 30
0.0
 11
4757.1042918811508571
 21
239.9928728822831943
 31
0.0
  0
LINE
  5
D6F5
  8
0
 10
4757.1042918811508571
 20
239.9928728822831943
 30
0.0
 11
4757.1010535805626205
 21
240.1190102267175064
 31
0.0
  0
LINE
  5
D6F6
  8
0
 10
4757.1010535805626205
 20
240.1190102267175064
 30
0.0
 11
4757.1031553390412228
 21
240.2438228020280064
 31
0.0
  0
LINE
  5
D6F7
  8
0
 10
4757.1031553390412228
 20
240.2438228020280064
 30
0.0
 11
4757.1005004358976294
 21
240.3679868857674933
 31
0.0
  0
LINE
  5
D6F8
  8
0
 10
4758.1339741258434515
 20
239.8647183387174948
 30
0.0
 11
4755.8574446366883421
 21
239.8647183387174948
 31
0.0
  0
LINE
  5
D6F9
  8
0
 10
4757.2057053958797042
 20
239.8647183387174948
 30
0.0
 11
4757.2041565205809093
 21
239.9928728822831943
 31
0.0
  0
LINE
  5
D6FA
  8
0
 10
4757.2041565205809093
 20
239.9928728822831943
 30
0.0
 11
4757.2073948211673269
 21
240.1190102267175064
 31
0.0
  0
LINE
  5
D6FB
  8
0
 10
4757.2073948211673269
 20
240.1190102267175064
 30
0.0
 11
4757.2052930626923626
 21
240.2438228020280064
 31
0.0
  0
LINE
  5
D6FC
  8
0
 10
4757.2052930626923626
 20
240.2438228020280064
 30
0.0
 11
4757.207947967545806
 21
240.3679869658529071
 31
0.0
  0
LINE
  5
D6FD
  8
0
 10
4757.3156956462999005
 20
239.8647183387174948
 30
0.0
 11
4757.3203203648836279
 21
239.9928739490723899
 31
0.0
  0
LINE
  5
D6FE
  8
0
 10
4757.3203203648836279
 20
239.9928739490723899
 30
0.0
 11
4757.3106432604608926
 21
240.1190120757165971
 31
0.0
  0
LINE
  5
D6FF
  8
0
 10
4757.3106432604608926
 20
240.1190120757165971
 30
0.0
 11
4757.3169200298762007
 21
240.243826595002389
 31
0.0
  0
LINE
  5
D700
  8
0
 10
4757.3169200298762007
 20
240.243826595002389
 30
0.0
 11
4757.3089889249422413
 21
240.3679868857674933
 31
0.0
  0
LINE
  5
D701
  8
0
 10
4757.431223446527838
 20
239.8647183387174948
 30
0.0
 11
4757.4171772813660937
 21
239.9921439604175077
 31
0.0
  0
LINE
  5
D702
  8
0
 10
4757.4171772813660937
 20
239.9921439604175077
 30
0.0
 11
4757.4243642735209505
 21
240.1190130126421138
 31
0.0
  0
LINE
  5
D703
  8
0
 10
4757.4243642735209505
 20
240.1190130126421138
 30
0.0
 11
4757.4126865640646429
 21
240.2438269995174949
 31
0.0
  0
LINE
  5
D704
  8
0
 10
4757.4126865640646429
 20
240.2438269995174949
 30
0.0
 11
4757.4221170597948003
 21
240.3679868857674933
 31
0.0
  0
LINE
  5
D705
  8
0
 10
4757.5141932153728703
 20
240.3679868857674933
 30
0.0
 11
4757.5273153544867455
 21
240.2438271800174903
 31
0.0
  0
LINE
  5
D706
  8
0
 10
4757.5273153544867455
 20
240.2438271800174903
 30
0.0
 11
4757.5180512877777801
 21
240.1172704513894871
 31
0.0
  0
LINE
  5
D707
  8
0
 10
4757.5180512877777801
 20
240.1172704513894871
 30
0.0
 11
4757.5342067375659099
 21
239.9914132377174951
 31
0.0
  0
LINE
  5
D708
  8
0
 10
4757.5342067375659099
 20
239.9914132377174951
 30
0.0
 11
4757.5252978947255542
 21
239.8647183387174948
 31
0.0
  0
LINE
  5
D709
  8
0
 10
4757.6432695074727235
 20
239.8647183387174948
 30
0.0
 11
4757.6234788719730204
 21
239.9904456401395976
 31
0.0
  0
LINE
  5
D70A
  8
0
 10
4757.6234788719730204
 20
239.9904456401395976
 30
0.0
 11
4757.6355470032804078
 21
240.1160866676256944
 31
0.0
  0
LINE
  5
D70B
  8
0
 10
4757.6355470032804078
 20
240.1160866676256944
 30
0.0
 11
4757.617511547166032
 21
240.2415987867175033
 31
0.0
  0
LINE
  5
D70C
  8
0
 10
4757.617511547166032
 20
240.2415987867175033
 30
0.0
 11
4757.6297268666203308
 21
240.3679868857674933
 31
0.0
  0
LINE
  5
D70D
  8
0
 10
4757.7187405529930402
 20
240.3679868857674933
 30
0.0
 11
4757.735787367566445
 21
240.2394056688175112
 31
0.0
  0
LINE
  5
D70E
  8
0
 10
4757.735787367566445
 20
240.2394056688175112
 30
0.0
 11
4757.7218538218648973
 21
240.1138796755174951
 31
0.0
  0
LINE
  5
D70F
  8
0
 10
4757.7218538218648973
 20
240.1138796755174951
 30
0.0
 11
4757.7428192467768895
 21
239.9894783112974892
 31
0.0
  0
LINE
  5
D710
  8
0
 10
4757.7428192467768895
 20
239.9894783112974892
 30
0.0
 11
4757.7293376637462643
 21
239.8647183387174948
 31
0.0
  0
LINE
  5
D711
  8
0
 10
4757.848525545479788
 20
239.8647183387174948
 30
0.0
 11
4757.8235648986646993
 21
239.9882560464174901
 31
0.0
  0
LINE
  5
D712
  8
0
 10
4757.8235648986646993
 20
239.9882560464174901
 30
0.0
 11
4757.8407265772930259
 21
240.1121791252215871
 31
0.0
  0
LINE
  5
D713
  8
0
 10
4757.8407265772930259
 20
240.1121791252215871
 30
0.0
 11
4757.8210935947663529
 21
240.2402142884174907
 31
0.0
  0
LINE
  5
D714
  8
0
 10
4757.8210935947663529
 20
240.2402142884174907
 30
0.0
 11
4757.8403020027890307
 21
240.3679868857674933
 31
0.0
  0
LINE
  5
D715
  8
0
 10
4757.9217745103533161
 20
240.3679868857674933
 30
0.0
 11
4757.9435199128229215
 21
240.2410049002787105
 31
0.0
  0
LINE
  5
D716
  8
0
 10
4757.9435199128229215
 20
240.2410049002787105
 30
0.0
 11
4757.921975835264675
 21
240.1142937833174926
 31
0.0
  0
LINE
  5
D717
  8
0
 10
4757.921975835264675
 20
240.1142937833174926
 30
0.0
 11
4757.9439518950512138
 21
239.9870327808527861
 31
0.0
  0
LINE
  5
D718
  8
0
 10
4757.9439518950512138
 20
239.9870327808527861
 30
0.0
 11
4757.9256937785066839
 21
239.8647183387174948
 31
0.0
  0
LINE
  5
D719
  8
0
 10
4758.0448424353307928
 20
239.8647183387174948
 30
0.0
 11
4758.0215078674664255
 21
239.9905355382175003
 31
0.0
  0
LINE
  5
D71A
  8
0
 10
4758.0215078674664255
 20
239.9905355382175003
 30
0.0
 11
4758.0448426701650533
 21
240.1163523113175131
 31
0.0
  0
LINE
  5
D71B
  8
0
 10
4758.0448426701650533
 20
240.1163523113175131
 30
0.0
 11
4758.0203310178658285
 21
240.2421699359175022
 31
0.0
  0
LINE
  5
D71C
  8
0
 10
4758.0203310178658285
 20
240.2421699359175022
 30
0.0
 11
4758.0448425387648967
 21
240.3679868857674933
 31
0.0
  0
LINE
  5
D71D
  8
0
 10
4758.1339741258434515
 20
239.8702415251256923
 30
0.0
 11
4758.044842649353086
 21
240.1163521991005041
 31
0.0
  0
LINE
  5
D71E
  8
0
 10
4758.044842649353086
 20
240.1163521991005041
 30
0.0
 11
4758.1339741258434515
 21
240.3636147022272951
 31
0.0
  0
LINE
  5
D71F
  8
0
 10
4758.0451371148819817
 20
240.3679868857674933
 30
0.0
 11
4758.1339741258434515
 21
240.1161376235052103
 31
0.0
  0
LINE
  5
D720
  8
0
 10
4758.1339741258434515
 20
240.1200131058471072
 30
0.0
 11
4758.0455886243371424
 21
239.8647183387174948
 31
0.0
  0
LINE
  5
D721
  8
0
 10
4757.8485135455448471
 20
239.8647183387174948
 30
0.0
 11
4756.9957093812663516
 21
240.871256275348486
 31
0.0
  0
LINE
  5
D722
  8
0
 10
4757.2146134462818736
 20
240.8712554328174917
 30
0.0
 11
4758.0448322176725924
 21
239.8647183387174948
 31
0.0
  0
LINE
  5
D723
  8
0
 10
4757.4312234433073172
 20
240.8712554328174917
 30
0.0
 11
4758.0448426380589808
 21
240.1163521382011936
 31
0.0
  0
LINE
  5
D724
  8
0
 10
4758.044842494524346
 20
240.3679868857674933
 30
0.0
 11
4757.6432696261226738
 21
240.8712554328174917
 31
0.0
  0
LINE
  5
D725
  8
0
 10
4757.8485248987171872
 20
240.8712554328174917
 30
0.0
 11
4758.0448425870881692
 21
240.6196210337874959
 31
0.0
  0
LINE
  5
D726
  8
0
 10
4757.8485397148788252
 20
239.8647183387174948
 30
0.0
 11
4758.044841698536402
 21
240.1163572986656902
 31
0.0
  0
LINE
  5
D727
  8
0
 10
4757.6432823451295917
 20
239.8647183387174948
 30
0.0
 11
4758.044842278733995
 21
240.3679882204982903
 31
0.0
  0
LINE
  5
D728
  8
0
 10
4757.4312365917121497
 20
239.8647183387174948
 30
0.0
 11
4758.0448424951891866
 21
240.6196224036580986
 31
0.0
  0
LINE
  5
D729
  8
0
 10
4757.2146257011318085
 20
239.8647183387174948
 30
0.0
 11
4758.0448406644027273
 21
240.8712554328174917
 31
0.0
  0
LINE
  5
D72A
  8
0
 10
4756.9957234378925932
 20
239.8647183387174948
 30
0.0
 11
4757.848524244642249
 21
240.8712554328174917
 31
0.0
  0
LINE
  5
D72B
  8
0
 10
4756.9957093812663516
 20
240.1190086530600922
 30
0.0
 11
4757.643269218738169
 21
240.8712554328174917
 31
0.0
  0
LINE
  5
D72C
  8
0
 10
4756.9957093812663516
 20
240.3679866341335867
 30
0.0
 11
4757.4312234269364126
 21
240.8712554328174917
 31
0.0
  0
LINE
  5
D72D
  8
0
 10
4756.9957093812663516
 20
240.6169640174695132
 30
0.0
 11
4757.2055785516577089
 21
240.8607602926647928
 31
0.0
  0
LINE
  5
D72E
  8
0
 10
4756.9957093812663516
 20
240.3679890549346112
 30
0.0
 11
4757.4312081733105515
 21
239.8647183387174948
 31
0.0
  0
LINE
  5
D72F
  8
0
 10
4756.9957093812663516
 20
240.1189999155531041
 30
0.0
 11
4757.2055781318258596
 21
239.8752482159272859
 31
0.0
  0
ARC
  5
D730
  8
0
 10
4758.0842526474134502
 20
239.2781926247322986
 30
0.0
 40
0.0191876986760554
 50
90.8478284562534242
 51
177.9377549392949902
  0
LINE
  5
D731
  8
0
 10
4758.0650773761663004
 20
239.2788830978174985
 30
0.0
 11
4758.0650773761663004
 21
239.235573580817487
 31
0.0
  0
ARC
  5
D732
  8
0
 10
4758.0143608268472235
 20
239.2358463087965106
 30
0.0
 40
0.0507172826102282
 50
277.5917159642534102
 51
359.6918952148453741
  0
ARC
  5
D733
  8
0
 10
4758.1007896124965555
 20
239.0105403479533948
 30
0.0
 40
0.0300802495892614
 50
93.2039054044177391
 51
179.9366992206055897
  0
ARC
  5
D734
  8
0
 10
4758.0606588426071539
 20
239.0105846847276894
 30
0.0
 40
0.0100505447929983
 50
275.0775974585791914
 51
359.9366992206055897
  0
LINE
  5
D735
  8
0
 10
4758.030709381266206
 20
239.0005735808175018
 30
0.0
 11
4758.030709381266206
 21
238.9805735808174916
 31
0.0
  0
ARC
  5
D736
  8
0
 10
4758.1215731528145625
 20
238.950585625213904
 30
0.0
 40
0.029987955809819
 50
24.8761137684104092
 51
90.0067193833941985
  0
ARC
  5
D737
  8
0
 10
4758.4310047345434214
 20
239.1630488682586986
 30
0.0
 40
0.3458192123177379
 50
215.3029054713258859
 51
258.0636708010898133
  0
ARC
  5
D738
  8
0
 10
4758.3537093813147294
 20
238.8055577804339009
 30
0.0
 40
0.0199999999506231
 50
359.9999999532017796
 51
73.227518660439074
  0
ARC
  5
D739
  8
0
 10
4758.3537093812656167
 20
238.6988576791175092
 30
0.0
 40
0.0199999999999985
 50
290.3805802773281926
 51
0.0
  0
ARC
  5
D73A
  8
0
 10
4758.3857131065578869
 20
238.5912367845820086
 30
0.0
 40
0.0923326838638251
 50
105.7344062714048931
 51
162.3027571440200916
  0
ARC
  5
D73B
  8
0
 10
4758.2878307888659037
 20
238.6205735808175064
 30
0.0
 40
0.0099999999999998
 50
270.0000000000521254
 51
352.7104290858637228
  0
LINE
  5
D73C
  8
0
 10
4758.1339741258434515
 20
240.7440438065787873
 30
0.0
 11
4755.8574446366883421
 21
240.7440438065787873
 31
0.0
  0
LINE
  5
D73D
  8
0
 10
4758.1339741258434515
 20
240.6192952066674877
 30
0.0
 11
4755.8574446366883421
 21
240.6192952066674877
 31
0.0
  0
LINE
  5
D73E
  8
0
 10
4758.1339741258434515
 20
240.4953641147675114
 30
0.0
 11
4755.8574446366883421
 21
240.4953641147675114
 31
0.0
  0
LINE
  5
D73F
  8
0
 10
4758.1339741258434515
 20
240.2406091863674931
 30
0.0
 11
4755.8574446366883421
 21
240.2406091863674931
 31
0.0
  0
LINE
  5
D740
  8
0
 10
4758.1339741258434515
 20
240.1153229885674989
 30
0.0
 11
4755.8574446366883421
 21
240.1153229885674989
 31
0.0
  0
LINE
  5
D741
  8
0
 10
4758.1339741258434515
 20
239.9899359657175069
 30
0.0
 11
4755.8574446366883421
 21
239.9899359657175069
 31
0.0
  0
LINE
  5
D742
  8
0
 10
4757.1003892675826137
 20
239.5631636740716885
 30
0.0
 11
4757.3196978511077759
 21
239.3084087456716986
 31
0.0
  0
LINE
  5
D743
  8
0
 10
4757.1031553390412228
 20
239.5599505288112141
 30
0.0
 11
4757.1005004358976294
 21
239.4357864450716988
 31
0.0
  0
LINE
  5
D744
  8
0
 10
4757.2052243585294491
 20
239.5631636740716885
 30
0.0
 11
4757.207947967545806
 21
239.4357863649863134
 31
0.0
  0
LINE
  5
D745
  8
0
 10
4757.3169200298762007
 20
239.5599467358366894
 30
0.0
 11
4757.3089889249422413
 21
239.4357864450716988
 31
0.0
  0
LINE
  5
D746
  8
0
 10
4757.4124421925698698
 20
239.5631636740716885
 30
0.0
 11
4757.4221170597948003
 21
239.4357864450716988
 31
0.0
  0
LINE
  5
D747
  8
0
 10
4757.5141932153728703
 20
239.4357864450716988
 30
0.0
 11
4757.5273153544867455
 21
239.5599461508217018
 31
0.0
  0
LINE
  5
D748
  8
0
 10
4757.6174159484626216
 20
239.5631636740716885
 30
0.0
 11
4757.6297268666203308
 21
239.4357864450716988
 31
0.0
  0
LINE
  5
D749
  8
0
 10
4757.7187405529930402
 20
239.4357864450716988
 30
0.0
 11
4757.7356277473681985
 21
239.5631636740716885
 31
0.0
  0
LINE
  5
D74A
  8
0
 10
4757.8210935947663529
 20
239.5635590424217014
 30
0.0
 11
4757.8403020027890307
 21
239.4357864450716988
 31
0.0
  0
LINE
  5
D74B
  8
0
 10
4757.9217745103533161
 20
239.4357864450716988
 30
0.0
 11
4757.9435199128229215
 21
239.5627684305605101
 31
0.0
  0
LINE
  5
D74C
  8
0
 10
4758.0200270459854437
 20
239.5631636740716885
 30
0.0
 11
4758.0448425387648967
 21
239.4357864450716988
 31
0.0
  0
LINE
  5
D74D
  8
0
 10
4758.0451371148819817
 20
239.4357864450716988
 30
0.0
 11
4758.0900680080167149
 21
239.5631636740716885
 31
0.0
  0
LINE
  5
D74E
  8
0
 10
4758.1339741258434515
 20
239.4357864450716988
 30
0.0
 11
4755.8574446366883421
 21
239.4357864450716988
 31
0.0
  0
LINE
  5
D74F
  8
0
 10
4757.1031553390412228
 20
239.311622361332212
 30
0.0
 11
4757.1005004358976294
 21
239.4357864450716988
 31
0.0
  0
LINE
  5
D750
  8
0
 10
4757.2052243484704377
 20
239.3084087456716986
 30
0.0
 11
4757.207947967545806
 21
239.435786525156999
 31
0.0
  0
LINE
  5
D751
  8
0
 10
4757.3169200298762007
 20
239.3116261543065946
 30
0.0
 11
4757.3089889249422413
 21
239.4357864450716988
 31
0.0
  0
LINE
  5
D752
  8
0
 10
4757.4124421568412799
 20
239.3084087456716986
 30
0.0
 11
4757.4221170597948003
 21
239.4357864450716988
 31
0.0
  0
LINE
  5
D753
  8
0
 10
4757.5141932153728703
 20
239.4357864450716988
 30
0.0
 11
4757.5273153544867455
 21
239.3116267393216958
 31
0.0
  0
LINE
  5
D754
  8
0
 10
4757.6174159029988004
 20
239.3084087456716986
 30
0.0
 11
4757.6297268666203308
 21
239.4357864450716988
 31
0.0
  0
LINE
  5
D755
  8
0
 10
4757.7187405529930402
 20
239.4357864450716988
 30
0.0
 11
4757.7356278097313407
 21
239.3084087456716986
 31
0.0
  0
LINE
  5
D756
  8
0
 10
4757.8210935947663529
 20
239.3080138477216963
 30
0.0
 11
4757.8403020027890307
 21
239.4357864450716988
 31
0.0
  0
LINE
  5
D757
  8
0
 10
4757.9217745103533161
 20
239.4357864450716988
 30
0.0
 11
4757.9435199128229215
 21
239.3088044595828876
 31
0.0
  0
LINE
  5
D758
  8
0
 10
4758.0200269543411196
 20
239.3084087456716986
 30
0.0
 11
4758.0448425387648967
 21
239.4357864450716988
 31
0.0
  0
LINE
  5
D759
  8
0
 10
4758.0896339484752389
 20
239.3084087456716986
 30
0.0
 11
4758.1339741258434515
 21
239.431414261531387
 31
0.0
  0
LINE
  5
D75A
  8
0
 10
4758.0451371148819817
 20
239.4357864450716988
 30
0.0
 11
4758.0900681739449283
 21
239.3084087456716986
 31
0.0
  0
LINE
  5
D75B
  8
0
 10
4757.5300344614252026
 20
239.3084087456716986
 30
0.0
 11
4757.3141895777862374
 21
239.5631636740716885
 31
0.0
  0
LINE
  5
D75C
  8
0
 10
4757.5246586796638439
 20
239.5631636740716885
 30
0.0
 11
4757.7347873722892473
 21
239.3084087456716986
 31
0.0
  0
LINE
  5
D75D
  8
0
 10
4757.7367647352066342
 20
239.5631636740716885
 30
0.0
 11
4757.9438409463418793
 21
239.3084087456716986
 31
0.0
  0
LINE
  5
D75E
  8
0
 10
4758.044842494524346
 20
239.4357864450716988
 30
0.0
 11
4757.94320443365541
 21
239.5631636740716885
 31
0.0
  0
LINE
  5
D75F
  8
0
 10
4757.9432063208905674
 20
239.3084087456716986
 30
0.0
 11
4758.044842278733995
 21
239.4357877798024958
 31
0.0
  0
LINE
  5
D760
  8
0
 10
4757.7367705713168107
 20
239.3084087456716986
 30
0.0
 11
4757.9438420857859455
 21
239.5631636740716885
 31
0.0
  0
LINE
  5
D761
  8
0
 10
4757.5246691243746682
 20
239.3084087456716986
 30
0.0
 11
4757.7347968531639708
 21
239.5631636740716885
 31
0.0
  0
LINE
  5
D762
  8
0
 10
4757.3142015347320921
 20
239.3084087456716986
 30
0.0
 11
4757.5300457492521673
 21
239.5631636740716885
 31
0.0
  0
LINE
  5
D763
  8
0
 10
4757.1003872924302414
 20
239.3084087456716986
 30
0.0
 11
4757.3196890753933985
 21
239.5631636740716885
 31
0.0
  0
LINE
  5
D764
  8
0
 10
4756.9957093812663516
 20
239.435786193437707
 30
0.0
 11
4757.1059381140294136
 21
239.5631636740716885
 31
0.0
  0
LINE
  5
D765
  8
0
 10
4756.9957093812663516
 20
239.4357886142387031
 30
0.0
 11
4757.1059358997272284
 21
239.3084087456716986
 31
0.0
  0
LINE
  5
D766
  8
0
 10
4758.1339741258434515
 20
239.5631636740716885
 30
0.0
 11
4755.8574446366883421
 21
239.5631636740716885
 31
0.0
  0
LINE
  5
D767
  8
0
 10
4758.1315808394101623
 20
239.3084087456716986
 30
0.0
 11
4755.8598379231207218
 21
239.3084087456716986
 31
0.0
  0
LINE
  5
D768
  8
0
 10
4758.0900680080167149
 20
239.5631636740716885
 30
0.0
 11
4758.1339741258434515
 21
239.4357864450716988
 31
0.0
  0
LINE
  5
D769
  8
0
 10
4755.6177093812648309
 20
238.8055577804175016
 30
0.0
 11
4755.6177093812648309
 21
238.6988576791175092
 31
0.0
  0
LINE
  5
D76A
  8
0
 10
4755.8574446366883421
 20
241.2116403476767061
 30
0.0
 11
4755.8574446366883421
 21
239.3143104735653139
 31
0.0
  0
ARC
  5
D76B
  8
0
 10
4755.9039570523736984
 20
239.1653436416331999
 30
0.0
 40
0.0204327496125283
 50
98.0794025145623465
 51
169.5589427643114959
  0
LINE
  5
D76C
  8
0
 10
4755.8838626310653126
 20
239.1690465444175118
 30
0.0
 11
4755.865348298059871
 21
239.0640465443837002
 31
0.0
  0
ARC
  5
D76D
  8
0
 10
4755.8851891681078996
 20
239.0606088264605944
 30
0.0
 40
0.0201364850167093
 50
170.1702663219261922
 51
264.2521867608663797
  0
ARC
  5
D76E
  8
0
 10
4755.9445192990660871
 20
241.278052111298706
 30
0.0
 40
0.0201069910681914
 50
91.4355192843486151
 51
134.8850136344096029
  0
ARC
  5
D76F
  8
0
 10
4922.4375054701949921
 20
74.7513885906450071
 30
0.0
 40
235.5005607240809979
 50
134.9941965146331881
 51
135.017258295227208
  0
ARC
  5
D770
  8
0
 10
4755.8776243712072755
 20
241.2110278104933911
 30
0.0
 40
0.0201890288780825
 50
135.1543005543024094
 51
178.2613734297200949
  0
ARC
  5
D771
  8
0
 10
4756.0007433710316036
 20
241.278052111298706
 30
0.0
 40
0.0201069910681914
 50
91.4355192843486151
 51
134.8850136344096029
  0
ARC
  5
D772
  8
0
 10
4755.0836154475837247
 20
241.8797291543847905
 30
0.0
 40
1.0772061885921851
 50
322.586940921694179
 51
326.9529158449216766
  0
ARC
  5
D773
  8
0
 10
4755.8790729331067269
 20
239.319645115029914
 30
0.0
 40
0.0222764809953871
 50
193.8555066583888902
 51
268.3188359136681242
  0
LINE
  5
D774
  8
0
 10
4756.1286420677279239
 20
241.2010612228258992
 30
0.0
 11
4756.2126813893646613
 21
241.1802963451175117
 31
0.0
  0
LINE
  5
D775
  8
0
 10
4756.2126813893646613
 20
241.1802963451175117
 30
0.0
 11
4756.2156426705150807
 21
241.2011734531787965
 31
0.0
  0
LINE
  5
D776
  8
0
 10
4756.2156426705150807
 20
241.2011734531787965
 30
0.0
 11
4756.2963542800662253
 21
241.1802943738175031
 31
0.0
  0
LINE
  5
D777
  8
0
 10
4756.2963542800662253
 20
241.1802943738175031
 30
0.0
 11
4756.3041665256932902
 21
241.2011734455174974
 31
0.0
  0
LINE
  5
D778
  8
0
 10
4756.3041665256932902
 20
241.2011734455174974
 30
0.0
 11
4756.3813080617737796
 21
241.1802906229247014
 31
0.0
  0
LINE
  5
D779
  8
0
 10
4756.3813080617737796
 20
241.1802906229247014
 30
0.0
 11
4756.3940181000871235
 21
241.2011721333389005
 31
0.0
  0
LINE
  5
D77A
  8
0
 10
4756.3940181000871235
 20
241.2011721333389005
 30
0.0
 11
4756.4673875584112466
 21
241.1802906453170863
 31
0.0
  0
LINE
  5
D77B
  8
0
 10
4756.4673875584112466
 20
241.1802906453170863
 30
0.0
 11
4756.4850435535836368
 21
241.201173429863303
 31
0.0
  0
LINE
  5
D77C
  8
0
 10
4756.4850435535836368
 20
241.201173429863303
 30
0.0
 11
4756.5544346573660732
 21
241.1802966566390865
 31
0.0
  0
LINE
  5
D77D
  8
0
 10
4756.5544346573660732
 20
241.1802966566390865
 30
0.0
 11
4756.5770591770206011
 21
241.2011734218997105
 31
0.0
  0
LINE
  5
D77E
  8
0
 10
4756.5770591770206011
 20
241.2011734218997105
 30
0.0
 11
4756.6422900633660902
 21
241.1803015423070917
 31
0.0
  0
LINE
  5
D77F
  8
0
 10
4756.6422900633660902
 20
241.1803015423070917
 30
0.0
 11
4756.6698845461833116
 21
241.201173413866087
 31
0.0
  0
LINE
  5
D780
  8
0
 10
4756.6698845461833116
 20
241.201173413866087
 30
0.0
 11
4756.7307928442651246
 21
241.1803027856807091
 31
0.0
  0
LINE
  5
D781
  8
0
 10
4756.7307928442651246
 20
241.1803027856807091
 30
0.0
 11
4756.7633411002452704
 21
241.2011734057778938
 31
0.0
  0
LINE
  5
D782
  8
0
 10
4756.7633411002452704
 20
241.2011734057778938
 30
0.0
 11
4756.8197808780660125
 21
241.1802990505175046
 31
0.0
  0
LINE
  5
D783
  8
0
 10
4756.8197808780660125
 20
241.1802990505175046
 30
0.0
 11
4756.8572490243122957
 21
241.201173397650507
 31
0.0
  0
LINE
  5
D784
  8
0
 10
4756.8572490243122957
 20
241.201173397650507
 30
0.0
 11
4756.9090911753601176
 21
241.1802930411828072
 31
0.0
  0
LINE
  5
D785
  8
0
 10
4756.9090911753601176
 20
241.1802930411828072
 30
0.0
 11
4756.9514319458894533
 21
241.2011733894993881
 31
0.0
  0
LINE
  5
D786
  8
0
 10
4756.9514319458894533
 20
241.2011733894993881
 30
0.0
 11
4756.9957093812663516
 21
241.180289892807707
 31
0.0
  0
LINE
  5
D787
  8
0
 10
4755.8574446366883421
 20
241.2005431690305102
 30
0.0
 11
4755.9025587865999114
 21
241.1870902656903013
 31
0.0
  0
LINE
  5
D788
  8
0
 10
4755.9025587865999114
 20
241.0412146479175135
 30
0.0
 11
4755.9025587865999114
 21
241.2011738909675103
 31
0.0
  0
LINE
  5
D789
  8
0
 10
4755.9025591786939913
 20
241.2011738909675103
 30
0.0
 11
4755.9598266666362179
 21
241.1839432137691119
 31
0.0
  0
LINE
  5
D78A
  8
0
 10
4755.9598266666362179
 20
241.0412146479175135
 30
0.0
 11
4755.9598266666362179
 21
241.2011738909675103
 31
0.0
  0
LINE
  5
D78B
  8
0
 10
4756.0433115453297432
 20
241.1817209754730129
 30
0.0
 11
4755.9598266666362179
 21
241.2010531974252956
 31
0.0
  0
LINE
  5
D78C
  8
0
 10
4756.0433115453297432
 20
241.0412146479175135
 30
0.0
 11
4756.0433115453297432
 21
241.2011738909675103
 31
0.0
  0
LINE
  5
D78D
  8
0
 10
4756.1286420677279239
 20
241.180637879911103
 30
0.0
 11
4756.0433115453297432
 21
241.2010584175492909
 31
0.0
  0
LINE
  5
D78E
  8
0
 10
4756.1286420677279239
 20
241.0412146479175135
 30
0.0
 11
4756.1286420677279239
 21
241.2011738909675103
 31
0.0
  0
LINE
  5
D78F
  8
0
 10
4756.2126813893646613
 20
241.0620921937675121
 30
0.0
 11
4756.2126813893646613
 21
241.1802963451175117
 31
0.0
  0
LINE
  5
D790
  8
0
 10
4756.2156490403531279
 20
241.0412146479175135
 30
0.0
 11
4756.2156490403531279
 21
241.2011738909675103
 31
0.0
  0
LINE
  5
D791
  8
0
 10
4756.2963542800662253
 20
241.0620941650674922
 30
0.0
 11
4756.2963542800662253
 21
241.1802943738175031
 31
0.0
  0
LINE
  5
D792
  8
0
 10
4756.3041642079006124
 20
241.0412146479175135
 30
0.0
 11
4756.3041642079006124
 21
241.2011738909675103
 31
0.0
  0
LINE
  5
D793
  8
0
 10
4756.3815606344905973
 20
241.0616829604987004
 30
0.0
 11
4756.3815606344905973
 21
241.180705578386295
 31
0.0
  0
LINE
  5
D794
  8
0
 10
4756.3940194525448533
 20
241.0412146479175135
 30
0.0
 11
4756.3940194525448533
 21
241.2011738909675103
 31
0.0
  0
LINE
  5
D795
  8
0
 10
4756.4673875584558118
 20
241.0620978935145899
 30
0.0
 11
4756.4673875584558118
 21
241.1802906453704054
 31
0.0
  0
LINE
  5
D796
  8
0
 10
4756.485046446884553
 20
241.0412146479175135
 30
0.0
 11
4756.485046446884553
 21
241.2011738909675103
 31
0.0
  0
LINE
  5
D797
  8
0
 10
4756.5544346573660732
 20
241.0620918822459089
 30
0.0
 11
4756.5544346573660732
 21
241.1802966566390865
 31
0.0
  0
LINE
  5
D798
  8
0
 10
4756.5770672919634308
 20
241.0412146479175135
 30
0.0
 11
4756.5770665682675826
 21
241.2011738909675103
 31
0.0
  0
LINE
  5
D799
  8
0
 10
4756.6698952652559456
 20
241.0412146479175135
 30
0.0
 11
4756.6698952652559456
 21
241.2011738909675103
 31
0.0
  0
LINE
  5
D79A
  8
0
 10
4756.6422900633660902
 20
241.0620869965779036
 30
0.0
 11
4756.6422900633660902
 21
241.1803015423070917
 31
0.0
  0
LINE
  5
D79B
  8
0
 10
4756.7307928442651246
 20
241.0620857532042862
 30
0.0
 11
4756.7307928442651246
 21
241.1803027856807091
 31
0.0
  0
LINE
  5
D79C
  8
0
 10
4756.7633510573377862
 20
241.0412146479175135
 30
0.0
 11
4756.7633510573377862
 21
241.2011738909675103
 31
0.0
  0
LINE
  5
D79D
  8
0
 10
4756.8197808780660125
 20
241.0620894883674907
 30
0.0
 11
4756.8197808780660125
 21
241.1802990505175046
 31
0.0
  0
LINE
  5
D79E
  8
0
 10
4756.8572553270505523
 20
241.0412146479175135
 30
0.0
 11
4756.8572553270505523
 21
241.2011738909675103
 31
0.0
  0
LINE
  5
D79F
  8
0
 10
4756.9090911753646651
 20
241.0620954977046893
 30
0.0
 11
4756.9090911753646651
 21
241.1802930411801924
 31
0.0
  0
LINE
  5
D7A0
  8
0
 10
4756.9514283735379649
 20
241.0412146479175135
 30
0.0
 11
4756.9514283735379649
 21
241.2011738909675103
 31
0.0
  0
LINE
  5
D7A1
  8
0
 10
4756.1286420677279239
 20
241.0413273160592098
 30
0.0
 11
4756.2126813893646613
 21
241.0620921937675121
 31
0.0
  0
LINE
  5
D7A2
  8
0
 10
4756.2126813893646613
 20
241.0620921937675121
 30
0.0
 11
4756.2156426705150807
 21
241.0412150857061988
 31
0.0
  0
LINE
  5
D7A3
  8
0
 10
4756.2156426705150807
 20
241.0412150857061988
 30
0.0
 11
4756.2963542800662253
 21
241.0620941650674922
 31
0.0
  0
LINE
  5
D7A4
  8
0
 10
4756.2963542800662253
 20
241.0620941650674922
 30
0.0
 11
4756.3041665256932902
 21
241.0412150933676116
 31
0.0
  0
LINE
  5
D7A5
  8
0
 10
4756.3041665256932902
 20
241.0412150933676116
 30
0.0
 11
4756.3813080617737796
 21
241.0620979159602086
 31
0.0
  0
LINE
  5
D7A6
  8
0
 10
4756.3813080617737796
 20
241.0620979159602086
 30
0.0
 11
4756.3940181000871235
 21
241.0412164055460948
 31
0.0
  0
LINE
  5
D7A7
  8
0
 10
4756.3940181000871235
 20
241.0412164055460948
 30
0.0
 11
4756.4673875584112466
 21
241.0620978935679091
 31
0.0
  0
LINE
  5
D7A8
  8
0
 10
4756.4673875584112466
 20
241.0620978935679091
 30
0.0
 11
4756.4850435535836368
 21
241.0412151090216923
 31
0.0
  0
LINE
  5
D7A9
  8
0
 10
4756.4850435535836368
 20
241.0412151090216923
 30
0.0
 11
4756.5544346573660732
 21
241.0620918822459089
 31
0.0
  0
LINE
  5
D7AA
  8
0
 10
4756.5544346573660732
 20
241.0620918822459089
 30
0.0
 11
4756.5770591770206011
 21
241.0412151169853132
 31
0.0
  0
LINE
  5
D7AB
  8
0
 10
4756.5770591770206011
 20
241.0412151169853132
 30
0.0
 11
4756.6422900633660902
 21
241.0620869965779036
 31
0.0
  0
LINE
  5
D7AC
  8
0
 10
4756.6422900633660902
 20
241.0620869965779036
 30
0.0
 11
4756.6698845461833116
 21
241.0412151250189083
 31
0.0
  0
LINE
  5
D7AD
  8
0
 10
4756.6698845461833116
 20
241.0412151250189083
 30
0.0
 11
4756.7307928442651246
 21
241.0620857532042862
 31
0.0
  0
LINE
  5
D7AE
  8
0
 10
4756.7307928442651246
 20
241.0620857532042862
 30
0.0
 11
4756.7633411002452704
 21
241.0412151331071868
 31
0.0
  0
LINE
  5
D7AF
  8
0
 10
4756.7633411002452704
 20
241.0412151331071868
 30
0.0
 11
4756.8197808780660125
 21
241.0620894883674907
 31
0.0
  0
LINE
  5
D7B0
  8
0
 10
4756.8197808780660125
 20
241.0620894883674907
 30
0.0
 11
4756.8572490243122957
 21
241.0412151412344883
 31
0.0
  0
LINE
  5
D7B1
  8
0
 10
4756.8572490243122957
 20
241.0412151412344883
 30
0.0
 11
4756.9090911753601176
 21
241.0620954977021881
 31
0.0
  0
LINE
  5
D7B2
  8
0
 10
4756.9090911753601176
 20
241.0620954977021881
 30
0.0
 11
4756.9514319458894533
 21
241.0412151493856072
 31
0.0
  0
LINE
  5
D7B3
  8
0
 10
4756.9514319458894533
 20
241.0412151493856072
 30
0.0
 11
4756.9957093812663516
 21
241.062098646077402
 31
0.0
  0
LINE
  5
D7B4
  8
0
 10
4755.8574446366883421
 20
241.0418453698545136
 30
0.0
 11
4755.9025587865999114
 21
241.0552982731946088
 31
0.0
  0
LINE
  5
D7B5
  8
0
 10
4755.9025591786939913
 20
241.0412146479175135
 30
0.0
 11
4755.9598266666362179
 21
241.0584453251159118
 31
0.0
  0
LINE
  5
D7B6
  8
0
 10
4756.0433115453297432
 20
241.0606675634120961
 30
0.0
 11
4755.9598266666362179
 21
241.0413353414596997
 31
0.0
  0
LINE
  5
D7B7
  8
0
 10
4756.1286420677279239
 20
241.0617506589738923
 30
0.0
 11
4756.0433115453297432
 21
241.0413301213357045
 31
0.0
  0
LINE
  5
D7B8
  8
0
 10
4756.1286420677279239
 20
241.0411019797759025
 30
0.0
 11
4756.2126813893646613
 21
241.0203371020674865
 31
0.0
  0
LINE
  5
D7B9
  8
0
 10
4756.2126813893646613
 20
241.0203371020674865
 30
0.0
 11
4756.2156426705150807
 21
241.0412142101287998
 31
0.0
  0
LINE
  5
D7BA
  8
0
 10
4756.2156426705150807
 20
241.0412142101287998
 30
0.0
 11
4756.2963542800662253
 21
241.0203351307675064
 31
0.0
  0
LINE
  5
D7BB
  8
0
 10
4756.2963542800662253
 20
241.0203351307675064
 30
0.0
 11
4756.3041665256932902
 21
241.0412142024675006
 31
0.0
  0
LINE
  5
D7BC
  8
0
 10
4756.3041665256932902
 20
241.0412142024675006
 30
0.0
 11
4756.3813080617737796
 21
241.0203313798747047
 31
0.0
  0
LINE
  5
D7BD
  8
0
 10
4756.3813080617737796
 20
241.0203313798747047
 30
0.0
 11
4756.3940181000871235
 21
241.0412128902889037
 31
0.0
  0
LINE
  5
D7BE
  8
0
 10
4756.3940181000871235
 20
241.0412128902889037
 30
0.0
 11
4756.4673875584112466
 21
241.0203314022670895
 31
0.0
  0
LINE
  5
D7BF
  8
0
 10
4756.4673875584112466
 20
241.0203314022670895
 30
0.0
 11
4756.4850435535836368
 21
241.0412141868133062
 31
0.0
  0
LINE
  5
D7C0
  8
0
 10
4756.4850435535836368
 20
241.0412141868133062
 30
0.0
 11
4756.5544346573660732
 21
241.0203374135890897
 31
0.0
  0
LINE
  5
D7C1
  8
0
 10
4756.5544346573660732
 20
241.0203374135890897
 30
0.0
 11
4756.5770591770206011
 21
241.0412141788497138
 31
0.0
  0
LINE
  5
D7C2
  8
0
 10
4756.5770591770206011
 20
241.0412141788497138
 30
0.0
 11
4756.6422900633660902
 21
241.020342299257095
 31
0.0
  0
LINE
  5
D7C3
  8
0
 10
4756.6422900633660902
 20
241.020342299257095
 30
0.0
 11
4756.6698845461833116
 21
241.0412141708160902
 31
0.0
  0
LINE
  5
D7C4
  8
0
 10
4756.6698845461833116
 20
241.0412141708160902
 30
0.0
 11
4756.7307928442651246
 21
241.0203435426307124
 31
0.0
  0
LINE
  5
D7C5
  8
0
 10
4756.7307928442651246
 20
241.0203435426307124
 30
0.0
 11
4756.7633411002452704
 21
241.0412141627278118
 31
0.0
  0
LINE
  5
D7C6
  8
0
 10
4756.7633411002452704
 20
241.0412141627278118
 30
0.0
 11
4756.8197808780660125
 21
241.0203398074675079
 31
0.0
  0
LINE
  5
D7C7
  8
0
 10
4756.8197808780660125
 20
241.0203398074675079
 30
0.0
 11
4756.8572490243122957
 21
241.0412141546005955
 31
0.0
  0
LINE
  5
D7C8
  8
0
 10
4756.8572490243122957
 20
241.0412141546005955
 30
0.0
 11
4756.9090911753601176
 21
241.0203337981328104
 31
0.0
  0
LINE
  5
D7C9
  8
0
 10
4756.9090911753601176
 20
241.0203337981328104
 30
0.0
 11
4756.9514319458894533
 21
241.0412141464493914
 31
0.0
  0
LINE
  5
D7CA
  8
0
 10
4756.9514319458894533
 20
241.0412141464493914
 30
0.0
 11
4756.9957093812663516
 21
241.0203306497577103
 31
0.0
  0
LINE
  5
D7CB
  8
0
 10
4755.8574446366883421
 20
241.0405839259805134
 30
0.0
 11
4755.9025587865999114
 21
241.0271310226403045
 31
0.0
  0
LINE
  5
D7CC
  8
0
 10
4755.9025587865999114
 20
240.8812554048674883
 30
0.0
 11
4755.9025587865999114
 21
241.0412146479175135
 31
0.0
  0
LINE
  5
D7CD
  8
0
 10
4755.9025591786939913
 20
241.0412146479175135
 30
0.0
 11
4755.9598266666362179
 21
241.0239839707190868
 31
0.0
  0
LINE
  5
D7CE
  8
0
 10
4755.9598266666362179
 20
240.8812554048674883
 30
0.0
 11
4755.9598266666362179
 21
241.0412146479175135
 31
0.0
  0
LINE
  5
D7CF
  8
0
 10
4756.0433115453297432
 20
241.0217617324229025
 30
0.0
 11
4755.9598266666362179
 21
241.0410939543752988
 31
0.0
  0
LINE
  5
D7D0
  8
0
 10
4756.0433115453297432
 20
240.8812554048674883
 30
0.0
 11
4756.0433115453297432
 21
241.0412146479175135
 31
0.0
  0
LINE
  5
D7D1
  8
0
 10
4756.1286420677279239
 20
241.0206786368611063
 30
0.0
 11
4756.0433115453297432
 21
241.0410991744992941
 31
0.0
  0
LINE
  5
D7D2
  8
0
 10
4756.1286420677279239
 20
240.8812554048674883
 30
0.0
 11
4756.1286420677279239
 21
241.0412146479175135
 31
0.0
  0
LINE
  5
D7D3
  8
0
 10
4756.2126813893646613
 20
240.9021329507174869
 30
0.0
 11
4756.2126813893646613
 21
241.0203371020674865
 31
0.0
  0
LINE
  5
D7D4
  8
0
 10
4756.2156490403531279
 20
240.8812554048674883
 30
0.0
 11
4756.2156490403531279
 21
241.0412146479175135
 31
0.0
  0
LINE
  5
D7D5
  8
0
 10
4756.2963542800662253
 20
240.9021349220174955
 30
0.0
 11
4756.2963542800662253
 21
241.0203351307675064
 31
0.0
  0
LINE
  5
D7D6
  8
0
 10
4756.3041642079006124
 20
240.8812554048674883
 30
0.0
 11
4756.3041642079006124
 21
241.0412146479175135
 31
0.0
  0
LINE
  5
D7D7
  8
0
 10
4756.3815606344905973
 20
240.9017237174487889
 30
0.0
 11
4756.3815606344905973
 21
241.020746335336213
 31
0.0
  0
LINE
  5
D7D8
  8
0
 10
4756.3940194525448533
 20
240.8812554048674883
 30
0.0
 11
4756.3940194525448533
 21
241.0412146479175135
 31
0.0
  0
LINE
  5
D7D9
  8
0
 10
4756.4673875584558118
 20
240.9021386504645932
 30
0.0
 11
4756.4673875584558118
 21
241.0203314023204086
 31
0.0
  0
LINE
  5
D7DA
  8
0
 10
4756.485046446884553
 20
240.8812554048674883
 30
0.0
 11
4756.485046446884553
 21
241.0412146479175135
 31
0.0
  0
LINE
  5
D7DB
  8
0
 10
4756.5544346573660732
 20
240.9021326391959121
 30
0.0
 11
4756.5544346573660732
 21
241.0203374135890897
 31
0.0
  0
LINE
  5
D7DC
  8
0
 10
4756.5770672919634308
 20
240.8812554048674883
 30
0.0
 11
4756.5770665682675826
 21
241.0412146479175135
 31
0.0
  0
LINE
  5
D7DD
  8
0
 10
4756.6698952652559456
 20
240.8812554048674883
 30
0.0
 11
4756.6698952652559456
 21
241.0412146479175135
 31
0.0
  0
LINE
  5
D7DE
  8
0
 10
4756.6422900633660902
 20
240.9021277535279069
 30
0.0
 11
4756.6422900633660902
 21
241.020342299257095
 31
0.0
  0
LINE
  5
D7DF
  8
0
 10
4756.7307928442651246
 20
240.9021265101542895
 30
0.0
 11
4756.7307928442651246
 21
241.0203435426307124
 31
0.0
  0
LINE
  5
D7E0
  8
0
 10
4756.7633510573377862
 20
240.8812554048674883
 30
0.0
 11
4756.7633510573377862
 21
241.0412146479175135
 31
0.0
  0
LINE
  5
D7E1
  8
0
 10
4756.8197808780660125
 20
240.902130245317494
 30
0.0
 11
4756.8197808780660125
 21
241.0203398074675079
 31
0.0
  0
LINE
  5
D7E2
  8
0
 10
4756.8572553270505523
 20
240.8812554048674883
 30
0.0
 11
4756.8572553270505523
 21
241.0412146479175135
 31
0.0
  0
LINE
  5
D7E3
  8
0
 10
4756.9090911753646651
 20
240.9021362546546925
 30
0.0
 11
4756.9090911753646651
 21
241.0203337981303093
 31
0.0
  0
LINE
  5
D7E4
  8
0
 10
4756.9514283735379649
 20
240.8812554048674883
 30
0.0
 11
4756.9514283735379649
 21
241.0412146479175135
 31
0.0
  0
LINE
  5
D7E5
  8
0
 10
4756.1286420677279239
 20
240.8813680730090994
 30
0.0
 11
4756.2126813893646613
 21
240.9021329507174869
 31
0.0
  0
LINE
  5
D7E6
  8
0
 10
4756.2126813893646613
 20
240.9021329507174869
 30
0.0
 11
4756.2156426705150807
 21
240.881255842656202
 31
0.0
  0
LINE
  5
D7E7
  8
0
 10
4756.2156426705150807
 20
240.881255842656202
 30
0.0
 11
4756.2963542800662253
 21
240.9021349220174955
 31
0.0
  0
LINE
  5
D7E8
  8
0
 10
4756.2963542800662253
 20
240.9021349220174955
 30
0.0
 11
4756.3041665256932902
 21
240.8812558503175012
 31
0.0
  0
LINE
  5
D7E9
  8
0
 10
4756.3041665256932902
 20
240.8812558503175012
 30
0.0
 11
4756.3813080617737796
 21
240.9021386729102971
 31
0.0
  0
LINE
  5
D7EA
  8
0
 10
4756.3813080617737796
 20
240.9021386729102971
 30
0.0
 11
4756.3940181000871235
 21
240.8812571624960981
 31
0.0
  0
LINE
  5
D7EB
  8
0
 10
4756.3940181000871235
 20
240.8812571624960981
 30
0.0
 11
4756.4673875584112466
 21
240.9021386505179123
 31
0.0
  0
LINE
  5
D7EC
  8
0
 10
4756.4673875584112466
 20
240.9021386505179123
 30
0.0
 11
4756.4850435535836368
 21
240.8812558659716956
 31
0.0
  0
LINE
  5
D7ED
  8
0
 10
4756.4850435535836368
 20
240.8812558659716956
 30
0.0
 11
4756.5544346573660732
 21
240.9021326391959121
 31
0.0
  0
LINE
  5
D7EE
  8
0
 10
4756.5544346573660732
 20
240.9021326391959121
 30
0.0
 11
4756.5770591770206011
 21
240.881255873935288
 31
0.0
  0
LINE
  5
D7EF
  8
0
 10
4756.5770591770206011
 20
240.881255873935288
 30
0.0
 11
4756.6422900633660902
 21
240.9021277535279069
 31
0.0
  0
LINE
  5
D7F0
  8
0
 10
4756.6422900633660902
 20
240.9021277535279069
 30
0.0
 11
4756.6698845461833116
 21
240.8812558819689116
 31
0.0
  0
LINE
  5
D7F1
  8
0
 10
4756.6698845461833116
 20
240.8812558819689116
 30
0.0
 11
4756.7307928442651246
 21
240.9021265101542895
 31
0.0
  0
LINE
  5
D7F2
  8
0
 10
4756.7307928442651246
 20
240.9021265101542895
 30
0.0
 11
4756.7633411002452704
 21
240.8812558900571901
 31
0.0
  0
LINE
  5
D7F3
  8
0
 10
4756.7633411002452704
 20
240.8812558900571901
 30
0.0
 11
4756.8197808780660125
 21
240.902130245317494
 31
0.0
  0
LINE
  5
D7F4
  8
0
 10
4756.8197808780660125
 20
240.902130245317494
 30
0.0
 11
4756.8572490243122957
 21
240.8812558981844063
 31
0.0
  0
LINE
  5
D7F5
  8
0
 10
4756.8572490243122957
 20
240.8812558981844063
 30
0.0
 11
4756.9090911753601176
 21
240.9021362546521914
 31
0.0
  0
LINE
  5
D7F6
  8
0
 10
4756.9090911753601176
 20
240.9021362546521914
 30
0.0
 11
4756.9514319458894533
 21
240.8812559063356105
 31
0.0
  0
LINE
  5
D7F7
  8
0
 10
4756.9514319458894533
 20
240.8812559063356105
 30
0.0
 11
4756.9957093812663516
 21
240.9021394030272916
 31
0.0
  0
LINE
  5
D7F8
  8
0
 10
4755.8574446366883421
 20
240.8818861268044884
 30
0.0
 11
4755.9025587865999114
 21
240.8953390301446973
 31
0.0
  0
LINE
  5
D7F9
  8
0
 10
4755.9025591786939913
 20
240.8812554048674883
 30
0.0
 11
4755.9598266666362179
 21
240.8984860820658866
 31
0.0
  0
LINE
  5
D7FA
  8
0
 10
4756.0433115453297432
 20
240.9007083203620994
 30
0.0
 11
4755.9598266666362179
 21
240.881376098409703
 31
0.0
  0
LINE
  5
D7FB
  8
0
 10
4756.1286420677279239
 20
240.9017914159238956
 30
0.0
 11
4756.0433115453297432
 21
240.8813708782857077
 31
0.0
  0
LINE
  5
D7FC
  8
0
 10
4756.1286422590637812
 20
239.8550702116338016
 30
0.0
 11
4756.2126815807014282
 21
239.8343053339254141
 31
0.0
  0
LINE
  5
D7FD
  8
0
 10
4756.2126815807014282
 20
239.8343053339254141
 30
0.0
 11
4756.2156428618518476
 21
239.8551824419866989
 31
0.0
  0
LINE
  5
D7FE
  8
0
 10
4756.2156428618518476
 20
239.8551824419866989
 30
0.0
 11
4756.2963544714020827
 21
239.8343033626254055
 31
0.0
  0
LINE
  5
D7FF
  8
0
 10
4756.2963544714020827
 20
239.8343033626254055
 30
0.0
 11
4756.304166717030057
 21
239.8551824343253998
 31
0.0
  0
LINE
  5
D800
  8
0
 10
4756.304166717030057
 20
239.8551824343253998
 30
0.0
 11
4756.381308253109637
 21
239.8342996117326891
 31
0.0
  0
LINE
  5
D801
  8
0
 10
4756.381308253109637
 20
239.8342996117326891
 30
0.0
 11
4756.3940182914220713
 21
239.8551811221468029
 31
0.0
  0
LINE
  5
D802
  8
0
 10
4756.3940182914220713
 20
239.8551811221468029
 30
0.0
 11
4756.4673877497461945
 21
239.8342996341249886
 31
0.0
  0
LINE
  5
D803
  8
0
 10
4756.4673877497461945
 20
239.8342996341249886
 30
0.0
 11
4756.4850437449185847
 21
239.8551824186712054
 31
0.0
  0
LINE
  5
D804
  8
0
 10
4756.4850437449185847
 20
239.8551824186712054
 30
0.0
 11
4756.5544348487019306
 21
239.8343056454469888
 31
0.0
  0
LINE
  5
D805
  8
0
 10
4756.5544348487019306
 20
239.8343056454469888
 30
0.0
 11
4756.5770593683573679
 21
239.8551824107076982
 31
0.0
  0
LINE
  5
D806
  8
0
 10
4756.5770593683573679
 20
239.8551824107076982
 30
0.0
 11
4756.6422902547019476
 21
239.8343105311149941
 31
0.0
  0
LINE
  5
D807
  8
0
 10
4756.6422902547019476
 20
239.8343105311149941
 30
0.0
 11
4756.669884737519169
 21
239.8551824026739894
 31
0.0
  0
LINE
  5
D808
  8
0
 10
4756.669884737519169
 20
239.8551824026739894
 30
0.0
 11
4756.7307930356018915
 21
239.8343117744886115
 31
0.0
  0
LINE
  5
D809
  8
0
 10
4756.7307930356018915
 20
239.8343117744886115
 30
0.0
 11
4756.7633412915802182
 21
239.8551823945857961
 31
0.0
  0
LINE
  5
D80A
  8
0
 10
4756.7633412915802182
 20
239.8551823945857961
 30
0.0
 11
4756.8197810694018699
 21
239.834308039325407
 31
0.0
  0
LINE
  5
D80B
  8
0
 10
4756.8197810694018699
 20
239.834308039325407
 30
0.0
 11
4756.857249215648153
 21
239.8551823864584946
 31
0.0
  0
LINE
  5
D80C
  8
0
 10
4756.857249215648153
 20
239.8551823864584946
 30
0.0
 11
4756.909091366695975
 21
239.8343020299907096
 31
0.0
  0
LINE
  5
D80D
  8
0
 10
4756.909091366695975
 20
239.8343020299907096
 30
0.0
 11
4756.9514321372253107
 21
239.8551823783074042
 31
0.0
  0
LINE
  5
D80E
  8
0
 10
4756.9514321372253107
 20
239.8551823783074042
 30
0.0
 11
4756.9957095726022089
 21
239.8342988816156094
 31
0.0
  0
LINE
  5
D80F
  8
0
 10
4755.85744482802329
 20
239.8545521578384125
 30
0.0
 11
4755.9025589779357688
 21
239.8410992544982889
 31
0.0
  0
LINE
  5
D810
  8
0
 10
4755.9025589779357688
 20
239.5717071309258017
 30
0.0
 11
4755.9025589779357688
 21
239.8551828797754126
 31
0.0
  0
LINE
  5
D811
  8
0
 10
4755.9025593700298487
 20
239.8551828797754126
 30
0.0
 11
4755.9598268579720752
 21
239.8379522025769859
 31
0.0
  0
LINE
  5
D812
  8
0
 10
4755.9598268579720752
 20
239.5718278290823093
 30
0.0
 11
4755.9598268579720752
 21
239.8551828797754126
 31
0.0
  0
LINE
  5
D813
  8
0
 10
4756.0433117366656006
 20
239.8357299642808869
 30
0.0
 11
4755.9598268579720752
 21
239.855062186233198
 31
0.0
  0
LINE
  5
D814
  8
0
 10
4756.0433117366656006
 20
239.5718226091125871
 30
0.0
 11
4756.0433117366656006
 21
239.8551828797754126
 31
0.0
  0
LINE
  5
D815
  8
0
 10
4756.1286422590637812
 20
239.8346468687190054
 30
0.0
 11
4756.0433117366656006
 21
239.8550674063573069
 31
0.0
  0
LINE
  5
D816
  8
0
 10
4756.1286422590637812
 20
239.5718198039909907
 30
0.0
 11
4756.1286422590637812
 21
239.8551828797754126
 31
0.0
  0
LINE
  5
D817
  8
0
 10
4756.2126815807014282
 20
239.5925845362953055
 30
0.0
 11
4756.2126815807014282
 21
239.8343053339254141
 31
0.0
  0
LINE
  5
D818
  8
0
 10
4756.2156492316880758
 20
239.5717092216659125
 30
0.0
 11
4756.2156492316880758
 21
239.8551828797754126
 31
0.0
  0
LINE
  5
D819
  8
0
 10
4756.2963544714020827
 20
239.5925865948208013
 30
0.0
 11
4756.2963544714020827
 21
239.8343033626254055
 31
0.0
  0
LINE
  5
D81A
  8
0
 10
4756.3041643992355603
 20
239.5717137176746121
 30
0.0
 11
4756.3041643992355603
 21
239.8551828797754126
 31
0.0
  0
LINE
  5
D81B
  8
0
 10
4756.3815608258264547
 20
239.5921754107698973
 30
0.0
 11
4756.3815608258264547
 21
239.8347145671941973
 31
0.0
  0
LINE
  5
D81C
  8
0
 10
4756.3940196438798012
 20
239.5717092791448124
 30
0.0
 11
4756.3940196438798012
 21
239.8551828797754126
 31
0.0
  0
LINE
  5
D81D
  8
0
 10
4756.4673877497916692
 20
239.5925903529549998
 30
0.0
 11
4756.4673877497916692
 21
239.8342996341783078
 31
0.0
  0
LINE
  5
D81E
  8
0
 10
4756.4850466382204104
 20
239.571708468493398
 30
0.0
 11
4756.4850466382204104
 21
239.8551828797754126
 31
0.0
  0
LINE
  5
D81F
  8
0
 10
4756.5544348487019306
 20
239.5925843468673122
 30
0.0
 11
4756.5544348487019306
 21
239.8343056454469888
 31
0.0
  0
LINE
  5
D820
  8
0
 10
4756.5770680421037468
 20
239.5717103817019051
 30
0.0
 11
4756.5770667596043495
 21
239.8551828797754126
 31
0.0
  0
LINE
  5
D821
  8
0
 10
4756.6698954565918029
 20
239.5717112878155888
 30
0.0
 11
4756.6698954565918029
 21
239.8551828797754126
 31
0.0
  0
LINE
  5
D822
  8
0
 10
4756.6422902547019476
 20
239.5925794645145004
 30
0.0
 11
4756.6422902547019476
 21
239.8343105311149941
 31
0.0
  0
LINE
  5
D823
  8
0
 10
4756.7307930356018915
 20
239.592578223435595
 30
0.0
 11
4756.7307930356018915
 21
239.8343117744886115
 31
0.0
  0
LINE
  5
D824
  8
0
 10
4756.7633512486727341
 20
239.5717113061344037
 30
0.0
 11
4756.7633512486727341
 21
239.8551828797754126
 31
0.0
  0
LINE
  5
D825
  8
0
 10
4756.8197810694018699
 20
239.5925819602744866
 30
0.0
 11
4756.8197810694018699
 21
239.834308039325407
 31
0.0
  0
LINE
  5
D826
  8
0
 10
4756.8572555183873192
 20
239.5717101708098085
 30
0.0
 11
4756.8572555183873192
 21
239.8551828797754126
 31
0.0
  0
LINE
  5
D827
  8
0
 10
4756.9090913667023415
 20
239.5925879708807997
 30
0.0
 11
4756.9090913667023415
 21
239.8343020299882085
 31
0.0
  0
LINE
  5
D828
  8
0
 10
4756.9514285648738223
 20
239.5717093842721113
 30
0.0
 11
4756.9514285648738223
 21
239.8551828797754126
 31
0.0
  0
LINE
  5
D829
  8
0
 10
4756.1286422391367523
 20
239.5718197990674128
 30
0.0
 11
4756.2126815607753088
 21
239.5925846767758003
 31
0.0
  0
LINE
  5
D82A
  8
0
 10
4756.2126815607753088
 20
239.5925846767758003
 30
0.0
 11
4756.2156428419248186
 21
239.571707568714487
 31
0.0
  0
LINE
  5
D82B
  8
0
 10
4756.2156428419248186
 20
239.571707568714487
 30
0.0
 11
4756.2963544514759633
 21
239.5925866480758089
 31
0.0
  0
LINE
  5
D82C
  8
0
 10
4756.2963544514759633
 20
239.5925866480758089
 30
0.0
 11
4756.3041666971039376
 21
239.5717075763758999
 31
0.0
  0
LINE
  5
D82D
  8
0
 10
4756.3041666971039376
 20
239.5717075763758999
 30
0.0
 11
4756.3813082331826081
 21
239.5925903989686105
 31
0.0
  0
LINE
  5
D82E
  8
0
 10
4756.3813082331826081
 20
239.5925903989686105
 30
0.0
 11
4756.3940182714968614
 21
239.5717088885544968
 31
0.0
  0
LINE
  5
D82F
  8
0
 10
4756.3940182714968614
 20
239.5717088885544968
 30
0.0
 11
4756.4673877298209845
 21
239.5925903765761973
 31
0.0
  0
LINE
  5
D830
  8
0
 10
4756.4673877298209845
 20
239.5925903765761973
 30
0.0
 11
4756.4850437249933748
 21
239.5717075920300942
 31
0.0
  0
LINE
  5
D831
  8
0
 10
4756.4850437249933748
 20
239.5717075920300942
 30
0.0
 11
4756.5544348287758112
 21
239.5925843652541971
 31
0.0
  0
LINE
  5
D832
  8
0
 10
4756.5544348287758112
 20
239.5925843652541971
 30
0.0
 11
4756.577059348430339
 21
239.5717075999936014
 31
0.0
  0
LINE
  5
D833
  8
0
 10
4756.577059348430339
 20
239.5717075999936014
 30
0.0
 11
4756.6422902347758281
 21
239.5925794795861918
 31
0.0
  0
LINE
  5
D834
  8
0
 10
4756.6422902347758281
 20
239.5925794795861918
 30
0.0
 11
4756.6698847175921401
 21
239.5717076080271966
 31
0.0
  0
LINE
  5
D835
  8
0
 10
4756.6698847175921401
 20
239.5717076080271966
 30
0.0
 11
4756.730793015675772
 21
239.5925782362126881
 31
0.0
  0
LINE
  5
D836
  8
0
 10
4756.730793015675772
 20
239.5925782362126881
 30
0.0
 11
4756.7633412716531893
 21
239.5717076161155035
 31
0.0
  0
LINE
  5
D837
  8
0
 10
4756.7633412716531893
 20
239.5717076161155035
 30
0.0
 11
4756.819781049474841
 21
239.5925819713758074
 31
0.0
  0
LINE
  5
D838
  8
0
 10
4756.819781049474841
 20
239.5925819713758074
 30
0.0
 11
4756.8572491957211241
 21
239.571707624242805
 31
0.0
  0
LINE
  5
D839
  8
0
 10
4756.8572491957211241
 20
239.571707624242805
 30
0.0
 11
4756.9090913467689461
 21
239.5925879807105048
 31
0.0
  0
LINE
  5
D83A
  8
0
 10
4756.9090913467689461
 20
239.5925879807105048
 30
0.0
 11
4756.9514321172982818
 21
239.5717076323938954
 31
0.0
  0
LINE
  5
D83B
  8
0
 10
4756.9514321172982818
 20
239.5717076323938954
 30
0.0
 11
4756.99570955267518
 21
239.5925911290856902
 31
0.0
  0
LINE
  5
D83C
  8
0
 10
4755.8574448080980801
 20
239.5723378528628871
 30
0.0
 11
4755.9025589580105589
 21
239.5857907562030107
 31
0.0
  0
LINE
  5
D83D
  8
0
 10
4755.9025593501028197
 20
239.5717071309258017
 30
0.0
 11
4755.9598268380441368
 21
239.5889378081243137
 31
0.0
  0
LINE
  5
D83E
  8
0
 10
4756.0433117167403907
 20
239.5911600464204128
 30
0.0
 11
4755.9598268380441368
 21
239.5718278244681017
 31
0.0
  0
LINE
  5
D83F
  8
0
 10
4756.1286422391367523
 20
239.5922431419822942
 30
0.0
 11
4756.0433117167403907
 21
239.5718226043439927
 31
0.0
  0
LINE
  5
D840
  8
0
 10
4756.9957093812663516
 20
240.6169631717459936
 30
0.0
 11
4756.3485310277528697
 21
239.8651828608174981
 31
0.0
  0
LINE
  5
D841
  8
0
 10
4756.8886757566788219
 20
240.8712554328174917
 30
0.0
 11
4756.887126881380027
 21
240.7431008892517923
 31
0.0
  0
LINE
  5
D842
  8
0
 10
4756.887126881380027
 20
240.7431008892517923
 30
0.0
 11
4756.8903651819682636
 21
240.6169635448175086
 31
0.0
  0
LINE
  5
D843
  8
0
 10
4756.8903651819682636
 20
240.6169635448175086
 30
0.0
 11
4756.8882634234923898
 21
240.4921509695070085
 31
0.0
  0
LINE
  5
D844
  8
0
 10
4756.8882634234923898
 20
240.4921509695070085
 30
0.0
 11
4756.8909183266350738
 21
240.3679868857674933
 31
0.0
  0
LINE
  5
D845
  8
0
 10
4756.7857133666520895
 20
240.8712554328174917
 30
0.0
 11
4756.7872622419499749
 21
240.7431008892517923
 31
0.0
  0
LINE
  5
D846
  8
0
 10
4756.7872622419499749
 20
240.7431008892517923
 30
0.0
 11
4756.7840239413626477
 21
240.6169635448175086
 31
0.0
  0
LINE
  5
D847
  8
0
 10
4756.7840239413626477
 20
240.6169635448175086
 30
0.0
 11
4756.7861256998403405
 21
240.4921509695070085
 31
0.0
  0
LINE
  5
D848
  8
0
 10
4756.7861256998403405
 20
240.4921509695070085
 30
0.0
 11
4756.7834707949841686
 21
240.3679868056821931
 31
0.0
  0
LINE
  5
D849
  8
0
 10
4756.6757231162318931
 20
240.8712554328174917
 30
0.0
 11
4756.6710983976472562
 21
240.7430998224625966
 31
0.0
  0
LINE
  5
D84A
  8
0
 10
4756.6710983976472562
 20
240.7430998224625966
 30
0.0
 11
4756.680775502070901
 21
240.6169616958183894
 31
0.0
  0
LINE
  5
D84B
  8
0
 10
4756.680775502070901
 20
240.6169616958183894
 30
0.0
 11
4756.6744987326555929
 21
240.4921471765325975
 31
0.0
  0
LINE
  5
D84C
  8
0
 10
4756.6744987326555929
 20
240.4921471765325975
 30
0.0
 11
4756.6824298375895523
 21
240.3679868857674933
 31
0.0
  0
LINE
  5
D84D
  8
0
 10
4756.5601953160039557
 20
240.8712554328174917
 30
0.0
 11
4756.5742414811657
 21
240.7438298111175072
 31
0.0
  0
LINE
  5
D84E
  8
0
 10
4756.5742414811657
 20
240.7438298111175072
 30
0.0
 11
4756.5670544890108431
 21
240.6169607588929011
 31
0.0
  0
LINE
  5
D84F
  8
0
 10
4756.5670544890108431
 20
240.6169607588929011
 30
0.0
 11
4756.5787321984662412
 21
240.4921467720174917
 31
0.0
  0
LINE
  5
D850
  8
0
 10
4756.5787321984662412
 20
240.4921467720174917
 30
0.0
 11
4756.5693017027369933
 21
240.3679868857674933
 31
0.0
  0
LINE
  5
D851
  8
0
 10
4756.4772255471580138
 20
240.3679868857674933
 30
0.0
 11
4756.4641034080450481
 21
240.4921465915174963
 31
0.0
  0
LINE
  5
D852
  8
0
 10
4756.4641034080450481
 20
240.4921465915174963
 30
0.0
 11
4756.473367474753104
 21
240.6187033201454142
 31
0.0
  0
LINE
  5
D853
  8
0
 10
4756.473367474753104
 20
240.6187033201454142
 30
0.0
 11
4756.4572120249649743
 21
240.7445605338174914
 31
0.0
  0
LINE
  5
D854
  8
0
 10
4756.4572120249649743
 20
240.7445605338174914
 30
0.0
 11
4756.4661208678053299
 21
240.8712554328174917
 31
0.0
  0
LINE
  5
D855
  8
0
 10
4756.3481492550581606
 20
240.8712554328174917
 30
0.0
 11
4756.3679398905587732
 21
240.745528131395389
 31
0.0
  0
LINE
  5
D856
  8
0
 10
4756.3679398905587732
 20
240.745528131395389
 30
0.0
 11
4756.3558717592513858
 21
240.6198871039092921
 31
0.0
  0
LINE
  5
D857
  8
0
 10
4756.3558717592513858
 20
240.6198871039092921
 30
0.0
 11
4756.3739072153648522
 21
240.4943749848175116
 31
0.0
  0
LINE
  5
D858
  8
0
 10
4756.3739072153648522
 20
240.4943749848175116
 30
0.0
 11
4756.3616918959105533
 21
240.3679868857674933
 31
0.0
  0
LINE
  5
D859
  8
0
 10
4756.2726782095396629
 20
240.3679868857674933
 30
0.0
 11
4756.2556313949662581
 21
240.4965681027175037
 31
0.0
  0
LINE
  5
D85A
  8
0
 10
4756.2556313949662581
 20
240.4965681027175037
 30
0.0
 11
4756.2695649406659868
 21
240.6220940960174914
 31
0.0
  0
LINE
  5
D85B
  8
0
 10
4756.2695649406659868
 20
240.6220940960174914
 30
0.0
 11
4756.2485995157549041
 21
240.7464954602374974
 31
0.0
  0
LINE
  5
D85C
  8
0
 10
4756.2485995157549041
 20
240.7464954602374974
 30
0.0
 11
4756.2620810987864388
 21
240.8712554328174917
 31
0.0
  0
LINE
  5
D85D
  8
0
 10
4756.1428932170510961
 20
240.8712554328174917
 30
0.0
 11
4756.1678538638661848
 21
240.7477177251174965
 31
0.0
  0
LINE
  5
D85E
  8
0
 10
4756.1678538638661848
 20
240.7477177251174965
 30
0.0
 11
4756.1506921852387677
 21
240.6237946463133994
 31
0.0
  0
LINE
  5
D85F
  8
0
 10
4756.1506921852387677
 20
240.6237946463133994
 30
0.0
 11
4756.1703251677663502
 21
240.4957594831174958
 31
0.0
  0
LINE
  5
D860
  8
0
 10
4756.1703251677663502
 20
240.4957594831174958
 30
0.0
 11
4756.151116759742763
 21
240.3679868857674933
 31
0.0
  0
LINE
  5
D861
  8
0
 10
4756.069644252179387
 20
240.3679868857674933
 30
0.0
 11
4756.0478988497088721
 21
240.4949688712563045
 31
0.0
  0
LINE
  5
D862
  8
0
 10
4756.0478988497088721
 20
240.4949688712563045
 30
0.0
 11
4756.0694429272662092
 21
240.6216799882174939
 31
0.0
  0
LINE
  5
D863
  8
0
 10
4756.0694429272662092
 20
240.6216799882174939
 30
0.0
 11
4756.0474668674805798
 21
240.7489409906822004
 31
0.0
  0
LINE
  5
D864
  8
0
 10
4756.0474668674805798
 20
240.7489409906822004
 30
0.0
 11
4756.0657249840251097
 21
240.8712554328174917
 31
0.0
  0
LINE
  5
D865
  8
0
 10
4755.9465763272019103
 20
240.8712554328174917
 30
0.0
 11
4755.9699108950662776
 21
240.7454382333174863
 31
0.0
  0
LINE
  5
D866
  8
0
 10
4755.9699108950662776
 20
240.7454382333174863
 30
0.0
 11
4755.9465760923649214
 21
240.6196214602175019
 31
0.0
  0
LINE
  5
D867
  8
0
 10
4755.9465760923649214
 20
240.6196214602175019
 30
0.0
 11
4755.9710877446659651
 21
240.4938038356175127
 31
0.0
  0
LINE
  5
D868
  8
0
 10
4755.9710877446659651
 20
240.4938038356175127
 30
0.0
 11
4755.9465762237668969
 21
240.3679868857674933
 31
0.0
  0
LINE
  5
D869
  8
0
 10
4755.8574446366883421
 20
240.8657322464092942
 30
0.0
 11
4755.9465761131787076
 21
240.6196215724345109
 31
0.0
  0
LINE
  5
D86A
  8
0
 10
4755.9465761131787076
 20
240.6196215724345109
 30
0.0
 11
4755.8574446366883421
 21
240.3723590693076915
 31
0.0
  0
LINE
  5
D86B
  8
0
 10
4755.9462816476507214
 20
240.3679868857674933
 30
0.0
 11
4755.8574446366883421
 21
240.619836148029691
 31
0.0
  0
LINE
  5
D86C
  8
0
 10
4755.8574446366883421
 20
240.6159606656879077
 30
0.0
 11
4755.9458301381937417
 21
240.8712554328174917
 31
0.0
  0
LINE
  5
D86D
  8
0
 10
4756.8886757566788219
 20
239.8647183387174948
 30
0.0
 11
4756.887126881380027
 21
239.9928728822831943
 31
0.0
  0
LINE
  5
D86E
  8
0
 10
4756.887126881380027
 20
239.9928728822831943
 30
0.0
 11
4756.8903651819682636
 21
240.1190102267175064
 31
0.0
  0
LINE
  5
D86F
  8
0
 10
4756.8903651819682636
 20
240.1190102267175064
 30
0.0
 11
4756.8882634234923898
 21
240.2438228020280064
 31
0.0
  0
LINE
  5
D870
  8
0
 10
4756.8882634234923898
 20
240.2438228020280064
 30
0.0
 11
4756.8909183266350738
 21
240.3679868857674933
 31
0.0
  0
LINE
  5
D871
  8
0
 10
4756.7857133666520895
 20
239.8647183387174948
 30
0.0
 11
4756.7872622419499749
 21
239.9928728822831943
 31
0.0
  0
LINE
  5
D872
  8
0
 10
4756.7872622419499749
 20
239.9928728822831943
 30
0.0
 11
4756.7840239413626477
 21
240.1190102267175064
 31
0.0
  0
LINE
  5
D873
  8
0
 10
4756.7840239413626477
 20
240.1190102267175064
 30
0.0
 11
4756.7861256998403405
 21
240.2438228020280064
 31
0.0
  0
LINE
  5
D874
  8
0
 10
4756.7861256998403405
 20
240.2438228020280064
 30
0.0
 11
4756.7834707949841686
 21
240.3679869658529071
 31
0.0
  0
LINE
  5
D875
  8
0
 10
4756.6757231162318931
 20
239.8647183387174948
 30
0.0
 11
4756.6710983976472562
 21
239.9928739490723899
 31
0.0
  0
LINE
  5
D876
  8
0
 10
4756.6710983976472562
 20
239.9928739490723899
 30
0.0
 11
4756.680775502070901
 21
240.1190120757165971
 31
0.0
  0
LINE
  5
D877
  8
0
 10
4756.680775502070901
 20
240.1190120757165971
 30
0.0
 11
4756.6744987326555929
 21
240.243826595002389
 31
0.0
  0
LINE
  5
D878
  8
0
 10
4756.6744987326555929
 20
240.243826595002389
 30
0.0
 11
4756.6824298375895523
 21
240.3679868857674933
 31
0.0
  0
LINE
  5
D879
  8
0
 10
4756.5601953160039557
 20
239.8647183387174948
 30
0.0
 11
4756.5742414811657
 21
239.9921439604175077
 31
0.0
  0
LINE
  5
D87A
  8
0
 10
4756.5742414811657
 20
239.9921439604175077
 30
0.0
 11
4756.5670544890108431
 21
240.1190130126421138
 31
0.0
  0
LINE
  5
D87B
  8
0
 10
4756.5670544890108431
 20
240.1190130126421138
 30
0.0
 11
4756.5787321984662412
 21
240.2438269995174949
 31
0.0
  0
LINE
  5
D87C
  8
0
 10
4756.5787321984662412
 20
240.2438269995174949
 30
0.0
 11
4756.5693017027369933
 21
240.3679868857674933
 31
0.0
  0
LINE
  5
D87D
  8
0
 10
4756.4772255471580138
 20
240.3679868857674933
 30
0.0
 11
4756.4641034080450481
 21
240.2438271800174903
 31
0.0
  0
LINE
  5
D87E
  8
0
 10
4756.4641034080450481
 20
240.2438271800174903
 30
0.0
 11
4756.473367474753104
 21
240.1172704513894871
 31
0.0
  0
LINE
  5
D87F
  8
0
 10
4756.473367474753104
 20
240.1172704513894871
 30
0.0
 11
4756.4572120249649743
 21
239.9914132377174951
 31
0.0
  0
LINE
  5
D880
  8
0
 10
4756.4572120249649743
 20
239.9914132377174951
 30
0.0
 11
4756.4661208678053299
 21
239.8647183387174948
 31
0.0
  0
LINE
  5
D881
  8
0
 10
4756.3481492550581606
 20
239.8647183387174948
 30
0.0
 11
4756.3679398905587732
 21
239.9904456401395976
 31
0.0
  0
LINE
  5
D882
  8
0
 10
4756.3679398905587732
 20
239.9904456401395976
 30
0.0
 11
4756.3558717592513858
 21
240.1160866676256944
 31
0.0
  0
LINE
  5
D883
  8
0
 10
4756.3558717592513858
 20
240.1160866676256944
 30
0.0
 11
4756.3739072153648522
 21
240.2415987867175033
 31
0.0
  0
LINE
  5
D884
  8
0
 10
4756.3739072153648522
 20
240.2415987867175033
 30
0.0
 11
4756.3616918959105533
 21
240.3679868857674933
 31
0.0
  0
LINE
  5
D885
  8
0
 10
4756.2726782095396629
 20
240.3679868857674933
 30
0.0
 11
4756.2556313949662581
 21
240.2394056688175112
 31
0.0
  0
LINE
  5
D886
  8
0
 10
4756.2556313949662581
 20
240.2394056688175112
 30
0.0
 11
4756.2695649406659868
 21
240.1138796755174951
 31
0.0
  0
LINE
  5
D887
  8
0
 10
4756.2695649406659868
 20
240.1138796755174951
 30
0.0
 11
4756.2485995157549041
 21
239.9894783112974892
 31
0.0
  0
LINE
  5
D888
  8
0
 10
4756.2485995157549041
 20
239.9894783112974892
 30
0.0
 11
4756.2620810987864388
 21
239.8647183387174948
 31
0.0
  0
LINE
  5
D889
  8
0
 10
4756.1428932170510961
 20
239.8647183387174948
 30
0.0
 11
4756.1678538638661848
 21
239.9882560464174901
 31
0.0
  0
LINE
  5
D88A
  8
0
 10
4756.1678538638661848
 20
239.9882560464174901
 30
0.0
 11
4756.1506921852387677
 21
240.1121791252215871
 31
0.0
  0
LINE
  5
D88B
  8
0
 10
4756.1506921852387677
 20
240.1121791252215871
 30
0.0
 11
4756.1703251677663502
 21
240.2402142884174907
 31
0.0
  0
LINE
  5
D88C
  8
0
 10
4756.1703251677663502
 20
240.2402142884174907
 30
0.0
 11
4756.151116759742763
 21
240.3679868857674933
 31
0.0
  0
LINE
  5
D88D
  8
0
 10
4756.069644252179387
 20
240.3679868857674933
 30
0.0
 11
4756.0478988497088721
 21
240.2410049002787105
 31
0.0
  0
LINE
  5
D88E
  8
0
 10
4756.0478988497088721
 20
240.2410049002787105
 30
0.0
 11
4756.0694429272662092
 21
240.1142937833174926
 31
0.0
  0
LINE
  5
D88F
  8
0
 10
4756.0694429272662092
 20
240.1142937833174926
 30
0.0
 11
4756.0474668674805798
 21
239.9870327808527861
 31
0.0
  0
LINE
  5
D890
  8
0
 10
4756.0474668674805798
 20
239.9870327808527861
 30
0.0
 11
4756.0657249840251097
 21
239.8647183387174948
 31
0.0
  0
LINE
  5
D891
  8
0
 10
4755.9465763272019103
 20
239.8647183387174948
 30
0.0
 11
4755.9699108950662776
 21
239.9905355382175003
 31
0.0
  0
LINE
  5
D892
  8
0
 10
4755.9699108950662776
 20
239.9905355382175003
 30
0.0
 11
4755.9465760923649214
 21
240.1163523113175131
 31
0.0
  0
LINE
  5
D893
  8
0
 10
4755.9465760923649214
 20
240.1163523113175131
 30
0.0
 11
4755.9710877446659651
 21
240.2421699359175022
 31
0.0
  0
LINE
  5
D894
  8
0
 10
4755.9710877446659651
 20
240.2421699359175022
 30
0.0
 11
4755.9465762237668969
 21
240.3679868857674933
 31
0.0
  0
LINE
  5
D895
  8
0
 10
4755.8574446366883421
 20
239.8702415251256923
 30
0.0
 11
4755.9465761131787076
 21
240.1163521991005041
 31
0.0
  0
LINE
  5
D896
  8
0
 10
4755.9465761131787076
 20
240.1163521991005041
 30
0.0
 11
4755.8574446366883421
 21
240.3636147022272951
 31
0.0
  0
LINE
  5
D897
  8
0
 10
4755.9462816476507214
 20
240.3679868857674933
 30
0.0
 11
4755.8574446366883421
 21
240.1161376235052103
 31
0.0
  0
LINE
  5
D898
  8
0
 10
4755.8574446366883421
 20
240.1200131058471072
 30
0.0
 11
4755.9458301381937417
 21
239.8647183387174948
 31
0.0
  0
LINE
  5
D899
  8
0
 10
4756.1429052169869465
 20
239.8647183387174948
 30
0.0
 11
4756.9957093812663516
 21
240.871256275348486
 31
0.0
  0
LINE
  5
D89A
  8
0
 10
4756.77680531624992
 20
240.8712554328174917
 30
0.0
 11
4755.9465865448592012
 21
239.8647183387174948
 31
0.0
  0
LINE
  5
D89B
  8
0
 10
4756.5601953192226574
 20
240.8712554328174917
 30
0.0
 11
4755.9465761244737223
 21
240.1163521382011936
 31
0.0
  0
LINE
  5
D89C
  8
0
 10
4755.9465762680083571
 20
240.3679868857674933
 30
0.0
 11
4756.3481491364091198
 21
240.8712554328174917
 31
0.0
  0
LINE
  5
D89D
  8
0
 10
4756.142893863813697
 20
240.8712554328174917
 30
0.0
 11
4755.9465761754427149
 21
240.6196210337874959
 31
0.0
  0
LINE
  5
D89E
  8
0
 10
4756.1428790476520589
 20
239.8647183387174948
 30
0.0
 11
4755.9465770639953917
 21
240.1163572986656902
 31
0.0
  0
LINE
  5
D89F
  8
0
 10
4756.3481364174022019
 20
239.8647183387174948
 30
0.0
 11
4755.9465764837977986
 21
240.3679882204982903
 31
0.0
  0
LINE
  5
D8A0
  8
0
 10
4756.5601821708196439
 20
239.8647183387174948
 30
0.0
 11
4755.9465762673416975
 21
240.6196224036580986
 31
0.0
  0
LINE
  5
D8A1
  8
0
 10
4756.7767930613999852
 20
239.8647183387174948
 30
0.0
 11
4755.9465780981281569
 21
240.8712554328174917
 31
0.0
  0
LINE
  5
D8A2
  8
0
 10
4756.9956953246382909
 20
239.8647183387174948
 30
0.0
 11
4756.1428945178886352
 21
240.8712554328174917
 31
0.0
  0
LINE
  5
D8A3
  8
0
 10
4756.9957093812663516
 20
240.1190086530600922
 30
0.0
 11
4756.3481495437954436
 21
240.8712554328174917
 31
0.0
  0
LINE
  5
D8A4
  8
0
 10
4756.9957093812663516
 20
240.3679866341335867
 30
0.0
 11
4756.5601953355962905
 21
240.8712554328174917
 31
0.0
  0
LINE
  5
D8A5
  8
0
 10
4756.9957093812663516
 20
240.6169640174695132
 30
0.0
 11
4756.7858402108740847
 21
240.8607602926647928
 31
0.0
  0
LINE
  5
D8A6
  8
0
 10
4756.9957093812663516
 20
240.3679890549346112
 30
0.0
 11
4756.5602105892203326
 21
239.8647183387174948
 31
0.0
  0
LINE
  5
D8A7
  8
0
 10
4756.9957093812663516
 20
240.1189999155531041
 30
0.0
 11
4756.785840630705934
 21
239.8752482159272859
 31
0.0
  0
ARC
  5
D8A8
  8
0
 10
4755.9071661151192529
 20
239.2781926247322986
 30
0.0
 40
0.0191876986760554
 50
2.0622450607049698
 51
89.1521715437465758
  0
LINE
  5
D8A9
  8
0
 10
4755.9263413863664027
 20
239.2788830978174985
 30
0.0
 11
4755.9263413863664027
 21
239.235573580817487
 31
0.0
  0
ARC
  5
D8AA
  8
0
 10
4755.9770579356836606
 20
239.2358463087965106
 30
0.0
 40
0.0507172826102282
 50
180.3081047851545122
 51
262.4082840357465898
  0
ARC
  5
D8AB
  8
0
 10
4755.8906291500343286
 20
239.0105403479533948
 30
0.0
 40
0.0300802495892614
 50
0.0633007793944199
 51
86.7960945955822751
  0
ARC
  5
D8AC
  8
0
 10
4755.9307599199255492
 20
239.0105846847276894
 30
0.0
 40
0.0100505447929983
 50
180.0633007793944103
 51
264.9224025414206949
  0
LINE
  5
D8AD
  8
0
 10
4755.9607093812646781
 20
239.0005735808175018
 30
0.0
 11
4755.9607093812646781
 21
238.9805735808174916
 31
0.0
  0
ARC
  5
D8AE
  8
0
 10
4755.8698456097172311
 20
238.950585625213904
 30
0.0
 40
0.029987955809819
 50
89.9932806166058015
 51
155.1238862315896085
  0
ARC
  5
D8AF
  8
0
 10
4755.5604140279883723
 20
239.1630488682586986
 30
0.0
 40
0.3458192123177379
 50
281.936329198910073
 51
324.6970945286740857
  0
ARC
  5
D8B0
  8
0
 10
4755.6377093812170642
 20
238.8055577804339009
 30
0.0
 40
0.0199999999506231
 50
106.7724813395608976
 51
180.0000000467966004
  0
ARC
  5
D8B1
  8
0
 10
4755.6377093812661769
 20
238.6988576791175092
 30
0.0
 40
0.0199999999999985
 50
180.0
 51
249.6194197226718074
  0
ARC
  5
D8B2
  8
0
 10
4755.6057056559748162
 20
238.5912367845820086
 30
0.0
 40
0.0923326838638251
 50
17.6972428559799084
 51
74.2655937285951069
  0
ARC
  5
D8B3
  8
0
 10
4755.7035879736649804
 20
238.6205735808175064
 30
0.0
 40
0.0099999999999998
 50
187.289570914134714
 51
269.9999999999478746
  0
LINE
  5
D8B4
  8
0
 10
4756.8910294949482704
 20
239.5631636740716885
 30
0.0
 11
4756.6717209114231082
 21
239.3084087456716986
 31
0.0
  0
LINE
  5
D8B5
  8
0
 10
4756.8882634234923898
 20
239.5599505288112141
 30
0.0
 11
4756.8909183266350738
 21
239.4357864450716988
 31
0.0
  0
LINE
  5
D8B6
  8
0
 10
4756.786194404003254
 20
239.5631636740716885
 30
0.0
 11
4756.7834707949841686
 21
239.4357863649863134
 31
0.0
  0
LINE
  5
D8B7
  8
0
 10
4756.6744987326555929
 20
239.5599467358366894
 30
0.0
 11
4756.6824298375895523
 21
239.4357864450716988
 31
0.0
  0
LINE
  5
D8B8
  8
0
 10
4756.5789765699610143
 20
239.5631636740716885
 30
0.0
 11
4756.5693017027369933
 21
239.4357864450716988
 31
0.0
  0
LINE
  5
D8B9
  8
0
 10
4756.4772255471580138
 20
239.4357864450716988
 30
0.0
 11
4756.4641034080450481
 21
239.5599461508217018
 31
0.0
  0
LINE
  5
D8BA
  8
0
 10
4756.374002814069172
 20
239.5631636740716885
 30
0.0
 11
4756.3616918959105533
 21
239.4357864450716988
 31
0.0
  0
LINE
  5
D8BB
  8
0
 10
4756.2726782095396629
 20
239.4357864450716988
 30
0.0
 11
4756.2557910151635951
 21
239.5631636740716885
 31
0.0
  0
LINE
  5
D8BC
  8
0
 10
4756.1703251677663502
 20
239.5635590424217014
 30
0.0
 11
4756.151116759742763
 21
239.4357864450716988
 31
0.0
  0
LINE
  5
D8BD
  8
0
 10
4756.069644252179387
 20
239.4357864450716988
 30
0.0
 11
4756.0478988497088721
 21
239.5627684305605101
 31
0.0
  0
LINE
  5
D8BE
  8
0
 10
4755.9713917165472594
 20
239.5631636740716885
 30
0.0
 11
4755.9465762237668969
 21
239.4357864450716988
 31
0.0
  0
LINE
  5
D8BF
  8
0
 10
4755.9462816476507214
 20
239.4357864450716988
 30
0.0
 11
4755.9013507545150787
 21
239.5631636740716885
 31
0.0
  0
LINE
  5
D8C0
  8
0
 10
4756.8882634234923898
 20
239.311622361332212
 30
0.0
 11
4756.8909183266350738
 21
239.4357864450716988
 31
0.0
  0
LINE
  5
D8C1
  8
0
 10
4756.7861944140613559
 20
239.3084087456716986
 30
0.0
 11
4756.7834707949841686
 21
239.435786525156999
 31
0.0
  0
LINE
  5
D8C2
  8
0
 10
4756.6744987326555929
 20
239.3116261543065946
 30
0.0
 11
4756.6824298375895523
 21
239.4357864450716988
 31
0.0
  0
LINE
  5
D8C3
  8
0
 10
4756.5789766056896042
 20
239.3084087456716986
 30
0.0
 11
4756.5693017027369933
 21
239.4357864450716988
 31
0.0
  0
LINE
  5
D8C4
  8
0
 10
4756.4772255471580138
 20
239.4357864450716988
 30
0.0
 11
4756.4641034080450481
 21
239.3116267393216958
 31
0.0
  0
LINE
  5
D8C5
  8
0
 10
4756.3740028595329932
 20
239.3084087456716986
 30
0.0
 11
4756.3616918959105533
 21
239.4357864450716988
 31
0.0
  0
LINE
  5
D8C6
  8
0
 10
4756.2726782095396629
 20
239.4357864450716988
 30
0.0
 11
4756.2557909528004529
 21
239.3084087456716986
 31
0.0
  0
LINE
  5
D8C7
  8
0
 10
4756.1703251677663502
 20
239.3080138477216963
 30
0.0
 11
4756.151116759742763
 21
239.4357864450716988
 31
0.0
  0
LINE
  5
D8C8
  8
0
 10
4756.069644252179387
 20
239.4357864450716988
 30
0.0
 11
4756.0478988497088721
 21
239.3088044595828876
 31
0.0
  0
LINE
  5
D8C9
  8
0
 10
4755.9713918081897646
 20
239.3084087456716986
 30
0.0
 11
4755.9465762237668969
 21
239.4357864450716988
 31
0.0
  0
LINE
  5
D8CA
  8
0
 10
4755.9017848140556453
 20
239.3084087456716986
 30
0.0
 11
4755.8574446366883421
 21
239.431414261531387
 31
0.0
  0
LINE
  5
D8CB
  8
0
 10
4755.9462816476507214
 20
239.4357864450716988
 30
0.0
 11
4755.9013505885868653
 21
239.3084087456716986
 31
0.0
  0
LINE
  5
D8CC
  8
0
 10
4756.461384301106591
 20
239.3084087456716986
 30
0.0
 11
4756.6772291847446468
 21
239.5631636740716885
 31
0.0
  0
LINE
  5
D8CD
  8
0
 10
4756.4667600828679497
 20
239.5631636740716885
 30
0.0
 11
4756.2566313902416368
 21
239.3084087456716986
 31
0.0
  0
LINE
  5
D8CE
  8
0
 10
4756.2546540273251594
 20
239.5631636740716885
 30
0.0
 11
4756.0475778161890048
 21
239.3084087456716986
 31
0.0
  0
LINE
  5
D8CF
  8
0
 10
4755.9465762680083571
 20
239.4357864450716988
 30
0.0
 11
4756.0482143288772932
 21
239.5631636740716885
 31
0.0
  0
LINE
  5
D8D0
  8
0
 10
4756.0482124416403167
 20
239.3084087456716986
 30
0.0
 11
4755.9465764837977986
 21
239.4357877798024958
 31
0.0
  0
LINE
  5
D8D1
  8
0
 10
4756.2546481912149829
 20
239.3084087456716986
 30
0.0
 11
4756.0475766767458481
 21
239.5631636740716885
 31
0.0
  0
LINE
  5
D8D2
  8
0
 10
4756.4667496381571254
 20
239.3084087456716986
 30
0.0
 11
4756.2566219093678228
 21
239.5631636740716885
 31
0.0
  0
LINE
  5
D8D3
  8
0
 10
4756.6772172277997015
 20
239.3084087456716986
 30
0.0
 11
4756.4613730132787168
 21
239.5631636740716885
 31
0.0
  0
LINE
  5
D8D4
  8
0
 10
4756.8910314701006428
 20
239.3084087456716986
 30
0.0
 11
4756.6717296871365761
 21
239.5631636740716885
 31
0.0
  0
LINE
  5
D8D5
  8
0
 10
4756.9957093812663516
 20
239.435786193437707
 30
0.0
 11
4756.8854806485032896
 21
239.5631636740716885
 31
0.0
  0
LINE
  5
D8D6
  8
0
 10
4756.9957093812663516
 20
239.4357886142387031
 30
0.0
 11
4756.8854828628045652
 21
239.3084087456716986
 31
0.0
  0
LINE
  5
D8D7
  8
0
 10
4755.9013507545150787
 20
239.5631636740716885
 30
0.0
 11
4755.8574446366883421
 21
239.4357864450716988
 31
0.0
  0
LINE
  5
D8D8
  8
0
 10
4756.9957093812663516
 20
240.8712554328174917
 30
0.0
 11
4756.9957093812663516
 21
239.8647183387174948
 31
0.0
  0
LINE
  5
D8D9
  8
0
 10
4756.9957093812663516
 20
239.5631636740716885
 30
0.0
 11
4756.9957093812663516
 21
239.3084087456716986
 31
0.0
  0
LINE
  5
D8DA
  8
0
 10
4762.2987093812662351
 20
238.610573580817487
 30
0.0
 11
4762.2987093812662351
 21
238.6164999960174953
 31
0.0
  0
ARC
  5
D8DB
  8
0
 10
4762.3687093812659441
 20
238.6164999960174953
 30
0.0
 40
0.0700000000000034
 50
105.9170248845949942
 51
180.0
  0
ARC
  5
D8DC
  8
0
 10
4762.3382084856748406
 20
238.7495198598504942
 30
0.0
 40
0.0666689388057346
 50
279.7616810047907734
 51
352.2342697143570263
  0
ARC
  5
D8DD
  8
0
 10
4762.3263460684029269
 20
238.7405113553163005
 30
0.0
 40
0.0779199243968498
 50
0.0
 51
55.5999334610831326
  0
ARC
  5
D8DE
  8
0
 10
4684.2701883915960934
 20
131.6772327150131048
 30
0.0
 40
132.5743363326976976
 50
53.9064911066476711
 51
54.0311682661296615
  0
LINE
  5
D8DF
  8
0
 10
4762.1189617903655744
 20
238.9805735808174916
 30
0.0
 11
4759.8724569721662192
 21
238.9805735808174916
 31
0.0
  0
ARC
  5
D8E0
  8
0
 10
4762.1159350453372099
 20
238.9415227506769099
 30
0.0
 40
0.0391679527182418
 50
57.3417552565201092
 51
85.5679894457843346
  0
ARC
  5
D8E1
  8
0
 10
4762.08770244311836
 20
239.000703583929095
 30
0.0
 40
0.0203178576594656
 50
277.7973084577316172
 51
47.2625044953350226
  0
ARC
  5
D8E2
  8
0
 10
4762.641809521970572
 20
239.6003957603512902
 30
0.0
 40
0.79617792389588
 50
199.4267539191046126
 51
227.2625044953350084
  0
ARC
  5
D8E3
  8
0
 10
4762.8240134794841651
 20
239.6646555482917904
 30
0.0
 40
0.9893814499489588
 50
182.7001880374627945
 51
199.4267539191046126
  0
ARC
  5
D8E4
  8
0
 10
4873.8590029197703188
 20
245.8406301759501105
 30
0.0
 40
112.1959629949509036
 50
179.5038266290794979
 51
183.1793554055495008
  0
LINE
  5
D8E5
  8
0
 10
4761.8478206015397518
 20
246.8122192501174936
 30
0.0
 11
4760.1435981609920418
 21
246.8122192501174936
 31
0.0
  0
ARC
  5
D8E6
  8
0
 10
4761.8394877054497556
 20
246.8627015133311886
 30
0.0
 40
0.051165379471193
 50
279.3730562248588853
 51
359.4599462331627819
  0
ARC
  5
D8E7
  8
0
 10
4757.228949782050222
 20
248.5959810243483901
 30
0.0
 40
4.6248287413587308
 50
2.1459193552044118
 51
7.3305630730689932
  0
ARC
  5
D8E8
  8
0
 10
4761.6545077311138812
 20
249.177652857876609
 30
0.0
 40
0.1616896134371141
 50
2.9875680461262362
 51
53.0589281580919803
  0
LINE
  5
D8E9
  8
0
 10
4761.8906508120662693
 20
246.862219250117505
 30
0.0
 11
4761.8505351539661206
 21
248.7691558983675009
 31
0.0
  0
LINE
  5
D8EA
  8
0
 10
4759.692709381264649
 20
238.610573580817487
 30
0.0
 11
4759.692709381264649
 21
238.6164999960174953
 31
0.0
  0
ARC
  5
D8EB
  8
0
 10
4759.62270938126494
 20
238.6164999960174953
 30
0.0
 40
0.0700000000000034
 50
0.0
 51
74.0829751154049632
  0
ARC
  5
D8EC
  8
0
 10
4759.653210276856953
 20
238.7495198598504942
 30
0.0
 40
0.0666689388057346
 50
187.7657302856428885
 51
260.2383189952092266
  0
ARC
  5
D8ED
  8
0
 10
4759.6650726941279572
 20
238.7405113553163005
 30
0.0
 40
0.0779199243968498
 50
124.4000665389169029
 51
180.0
  0
ARC
  5
D8EE
  8
0
 10
4837.7212303709347907
 20
131.6772327150131048
 30
0.0
 40
132.5743363326976976
 50
125.968831733870303
 51
126.0935088933522934
  0
ARC
  5
D8EF
  8
0
 10
4759.8754837171936742
 20
238.9415227506769099
 30
0.0
 40
0.0391679527182418
 50
94.4320105542156654
 51
122.6582447434798979
  0
ARC
  5
D8F0
  8
0
 10
4759.9037163194143432
 20
239.000703583929095
 30
0.0
 40
0.0203178576594656
 50
132.7374955046649916
 51
262.2026915422683828
  0
ARC
  5
D8F1
  8
0
 10
4759.3496092405603122
 20
239.6003957603512902
 30
0.0
 40
0.79617792389588
 50
312.7374955046648779
 51
340.5732460808952737
  0
ARC
  5
D8F2
  8
0
 10
4759.167405283046719
 20
239.6646555482917904
 30
0.0
 40
0.9893814499489588
 50
340.5732460808952737
 51
357.2998119625370919
  0
ARC
  5
D8F3
  8
0
 10
4648.1324158427623843
 20
245.8406301759501105
 30
0.0
 40
112.1959629949509036
 50
356.8206445944505276
 51
0.4961733709204632
  0
ARC
  5
D8F4
  8
0
 10
4760.151931057082038
 20
246.8627015133311886
 30
0.0
 40
0.051165379471193
 50
180.5400537668371896
 51
260.6269437751411147
  0
ARC
  5
D8F5
  8
0
 10
4764.7624689804806621
 20
248.5959810243483901
 30
0.0
 40
4.6248287413587308
 50
172.669436926931013
 51
177.8540806447954878
  0
ARC
  5
D8F6
  8
0
 10
4760.3369110314179125
 20
249.177652857876609
 30
0.0
 40
0.1616896134371141
 50
126.9410718419079984
 51
177.012431953873687
  0
LINE
  5
D8F7
  8
0
 10
4760.1007679504673433
 20
246.862219250117505
 30
0.0
 11
4760.1408836085656731
 21
248.7691558983675009
 31
0.0
  0
ARC
  5
D8F8
  8
0
 10
4760.9957093812663516
 20
247.9633094686097081
 30
0.0
 40
1.54165077534942
 50
60.6353764124934429
 51
119.3646235875065003
  0
LINE
  5
D8F9
  8
0
 10
4763.7035879736649804
 20
238.610573580817487
 30
0.0
 11
4766.2878307888659037
 21
238.610573580817487
 31
0.0
  0
LINE
  5
D8FA
  8
0
 10
4763.6177093812648309
 20
238.8055577804175016
 30
0.0
 11
4763.6177093812648309
 21
238.6988576791175092
 31
0.0
  0
LINE
  5
D8FB
  8
0
 10
4763.8574446366883421
 20
241.2116403476767061
 30
0.0
 11
4763.8574446366883421
 21
239.3143104735653139
 31
0.0
  0
LINE
  5
D8FC
  8
0
 10
4763.6307442943307251
 20
238.6801096775174926
 30
0.0
 11
4766.360674468200159
 21
238.6801096775174926
 31
0.0
  0
LINE
  5
D8FD
  8
0
 10
4763.6319379418009703
 20
238.8247069445174873
 30
0.0
 11
4766.3594808207308233
 21
238.8247069445174873
 31
0.0
  0
LINE
  5
D8FE
  8
0
 10
4763.8698491265658959
 20
238.9805735808174916
 30
0.0
 11
4766.1215766696641367
 21
238.9805735808174916
 31
0.0
  0
LINE
  5
D8FF
  8
0
 10
4763.9298703980675782
 20
239.0005735808175018
 30
0.0
 11
4766.0615483644651249
 21
239.0005735808175018
 31
0.0
  0
LINE
  5
D900
  8
0
 10
4763.8831724973751989
 20
239.0405735808174938
 30
0.0
 11
4766.1082462651556853
 21
239.0405735808174938
 31
0.0
  0
LINE
  5
D901
  8
0
 10
4763.9010853251356821
 20
239.1855735808175041
 30
0.0
 11
4766.0903334373961115
 21
239.1855735808175041
 31
0.0
  0
LINE
  5
D902
  8
0
 10
4763.8784193937635791
 20
239.297378222748705
 30
0.0
 11
4766.112999368770943
 21
239.297378222748705
 31
0.0
  0
LINE
  5
D903
  8
0
 10
4763.9440155803977177
 20
241.2981527918175004
 30
0.0
 11
4766.0474031821331664
 21
241.2981527918175004
 31
0.0
  0
LINE
  5
D904
  8
0
 10
4763.8633101783161692
 20
241.2252651125174907
 30
0.0
 11
4766.1281085842147149
 21
241.2252651125174907
 31
0.0
  0
ARC
  5
D905
  8
0
 10
4763.9039570523727889
 20
239.1653436416331999
 30
0.0
 40
0.0204327496125283
 50
98.0794025145623465
 51
169.5589427643114959
  0
LINE
  5
D906
  8
0
 10
4763.8838626310662221
 20
239.1690465444175118
 30
0.0
 11
4763.865348298059871
 21
239.0640465443837002
 31
0.0
  0
ARC
  5
D907
  8
0
 10
4763.8851891681088091
 20
239.0606088264605944
 30
0.0
 40
0.0201364850167093
 50
170.1702663219261922
 51
264.2521867608663797
  0
ARC
  5
D908
  8
0
 10
4763.9445192990660871
 20
241.278052111298706
 30
0.0
 40
0.0201069910681914
 50
91.4355192843486151
 51
134.8850136344096029
  0
ARC
  5
D909
  8
0
 10
4930.4375054701940826
 20
74.7513885906450071
 30
0.0
 40
235.5005607240809979
 50
134.9941965146331881
 51
135.017258295227208
  0
ARC
  5
D90A
  8
0
 10
4763.8776243712072755
 20
241.2110278104933911
 30
0.0
 40
0.0201890288780825
 50
135.1543005543024094
 51
178.2613734297200949
  0
ARC
  5
D90B
  8
0
 10
4764.0007433710316036
 20
241.278052111298706
 30
0.0
 40
0.0201069910681914
 50
91.4355192843486151
 51
134.8850136344096029
  0
ARC
  5
D90C
  8
0
 10
4763.0836154475837247
 20
241.8797291543847905
 30
0.0
 40
1.0772061885921851
 50
322.586940921694179
 51
326.9529158449216766
  0
LINE
  5
D90D
  8
0
 10
4763.8574446366883421
 20
241.2011738909675103
 30
0.0
 11
4766.1339741258434515
 21
241.2011738909675103
 31
0.0
  0
LINE
  5
D90E
  8
0
 10
4763.8574446366883421
 20
241.0412146479175135
 30
0.0
 11
4766.1339741258434515
 21
241.0412146479175135
 31
0.0
  0
ARC
  5
D90F
  8
0
 10
4763.8790729331067269
 20
239.319645115029914
 30
0.0
 40
0.0222764809953871
 50
193.8555066583888902
 51
268.3188359160063783
  0
LINE
  5
D910
  8
0
 10
4764.1286420677279239
 20
241.2010612228258992
 30
0.0
 11
4764.2126813893646613
 21
241.1802963451175117
 31
0.0
  0
LINE
  5
D911
  8
0
 10
4764.2126813893646613
 20
241.1802963451175117
 30
0.0
 11
4764.2156426705159902
 21
241.2011734531787965
 31
0.0
  0
LINE
  5
D912
  8
0
 10
4764.2156426705159902
 20
241.2011734531787965
 30
0.0
 11
4764.2963542800662253
 21
241.1802943738175031
 31
0.0
  0
LINE
  5
D913
  8
0
 10
4764.2963542800662253
 20
241.1802943738175031
 30
0.0
 11
4764.3041665256941997
 21
241.2011734455174974
 31
0.0
  0
LINE
  5
D914
  8
0
 10
4764.3041665256941997
 20
241.2011734455174974
 30
0.0
 11
4764.3813080617737796
 21
241.1802906229247014
 31
0.0
  0
LINE
  5
D915
  8
0
 10
4764.3813080617737796
 20
241.1802906229247014
 30
0.0
 11
4764.3940181000871235
 21
241.2011721333389005
 31
0.0
  0
LINE
  5
D916
  8
0
 10
4764.3940181000871235
 20
241.2011721333389005
 30
0.0
 11
4764.4673875584103371
 21
241.1802906453170863
 31
0.0
  0
LINE
  5
D917
  8
0
 10
4764.4673875584103371
 20
241.1802906453170863
 30
0.0
 11
4764.4850435535827273
 21
241.201173429863303
 31
0.0
  0
LINE
  5
D918
  8
0
 10
4764.4850435535827273
 20
241.201173429863303
 30
0.0
 11
4764.5544346573660732
 21
241.1802966566390865
 31
0.0
  0
LINE
  5
D919
  8
0
 10
4764.5544346573660732
 20
241.1802966566390865
 30
0.0
 11
4764.5770591770206011
 21
241.2011734218997105
 31
0.0
  0
LINE
  5
D91A
  8
0
 10
4764.5770591770206011
 20
241.2011734218997105
 30
0.0
 11
4764.6422900633660902
 21
241.1803015423070917
 31
0.0
  0
LINE
  5
D91B
  8
0
 10
4764.6422900633660902
 20
241.1803015423070917
 30
0.0
 11
4764.6698845461833116
 21
241.201173413866087
 31
0.0
  0
LINE
  5
D91C
  8
0
 10
4764.6698845461833116
 20
241.201173413866087
 30
0.0
 11
4764.7307928442660341
 21
241.1803027856807091
 31
0.0
  0
LINE
  5
D91D
  8
0
 10
4764.7307928442660341
 20
241.1803027856807091
 30
0.0
 11
4764.7633411002443609
 21
241.2011734057778938
 31
0.0
  0
LINE
  5
D91E
  8
0
 10
4764.7633411002443609
 20
241.2011734057778938
 30
0.0
 11
4764.8197808780660125
 21
241.1802990505175046
 31
0.0
  0
LINE
  5
D91F
  8
0
 10
4764.8197808780660125
 20
241.1802990505175046
 30
0.0
 11
4764.8572490243122957
 21
241.201173397650507
 31
0.0
  0
LINE
  5
D920
  8
0
 10
4764.8572490243122957
 20
241.201173397650507
 30
0.0
 11
4764.9090911753601176
 21
241.1802930411828072
 31
0.0
  0
LINE
  5
D921
  8
0
 10
4764.9090911753601176
 20
241.1802930411828072
 30
0.0
 11
4764.9514319458894533
 21
241.2011733894993881
 31
0.0
  0
LINE
  5
D922
  8
0
 10
4764.9514319458894533
 20
241.2011733894993881
 30
0.0
 11
4764.9957093812663516
 21
241.180289892807707
 31
0.0
  0
LINE
  5
D923
  8
0
 10
4763.8574446366883421
 20
241.2005431690305102
 30
0.0
 11
4763.9025587865999114
 21
241.1870902656903013
 31
0.0
  0
LINE
  5
D924
  8
0
 10
4763.9025587865999114
 20
241.0412146479175135
 30
0.0
 11
4763.9025587865999114
 21
241.2011738909675103
 31
0.0
  0
LINE
  5
D925
  8
0
 10
4763.9025591786939913
 20
241.2011738909675103
 30
0.0
 11
4763.9598266666362179
 21
241.1839432137691119
 31
0.0
  0
LINE
  5
D926
  8
0
 10
4763.9598266666362179
 20
241.0412146479175135
 30
0.0
 11
4763.9598266666362179
 21
241.2011738909675103
 31
0.0
  0
LINE
  5
D927
  8
0
 10
4764.0433115453297432
 20
241.1817209754730129
 30
0.0
 11
4763.9598266666362179
 21
241.2010531974252956
 31
0.0
  0
LINE
  5
D928
  8
0
 10
4764.0433115453297432
 20
241.0412146479175135
 30
0.0
 11
4764.0433115453297432
 21
241.2011738909675103
 31
0.0
  0
LINE
  5
D929
  8
0
 10
4764.1286420677279239
 20
241.180637879911103
 30
0.0
 11
4764.0433115453297432
 21
241.2010584175492909
 31
0.0
  0
LINE
  5
D92A
  8
0
 10
4764.1286420677279239
 20
241.0412146479175135
 30
0.0
 11
4764.1286420677279239
 21
241.2011738909675103
 31
0.0
  0
LINE
  5
D92B
  8
0
 10
4764.2126813893646613
 20
241.0620921937675121
 30
0.0
 11
4764.2126813893646613
 21
241.1802963451175117
 31
0.0
  0
LINE
  5
D92C
  8
0
 10
4764.2156490403531279
 20
241.0412146479175135
 30
0.0
 11
4764.2156490403531279
 21
241.2011738909675103
 31
0.0
  0
LINE
  5
D92D
  8
0
 10
4764.2963542800662253
 20
241.0620941650674922
 30
0.0
 11
4764.2963542800662253
 21
241.1802943738175031
 31
0.0
  0
LINE
  5
D92E
  8
0
 10
4764.3041642079024314
 20
241.0412146479175135
 30
0.0
 11
4764.3041642079024314
 21
241.2011738909675103
 31
0.0
  0
LINE
  5
D92F
  8
0
 10
4764.3815606344905973
 20
241.0616829604987004
 30
0.0
 11
4764.3815606344905973
 21
241.180705578386295
 31
0.0
  0
LINE
  5
D930
  8
0
 10
4764.3940194525439438
 20
241.0412146479175135
 30
0.0
 11
4764.3940194525439438
 21
241.2011738909675103
 31
0.0
  0
LINE
  5
D931
  8
0
 10
4764.4673875584558118
 20
241.0620978935145899
 30
0.0
 11
4764.4673875584558118
 21
241.1802906453704054
 31
0.0
  0
LINE
  5
D932
  8
0
 10
4764.485046446884553
 20
241.0412146479175135
 30
0.0
 11
4764.485046446884553
 21
241.2011738909675103
 31
0.0
  0
LINE
  5
D933
  8
0
 10
4764.5544346573660732
 20
241.0620918822459089
 30
0.0
 11
4764.5544346573660732
 21
241.1802966566390865
 31
0.0
  0
LINE
  5
D934
  8
0
 10
4764.5770672919634308
 20
241.0412146479175135
 30
0.0
 11
4764.5770665682675826
 21
241.2011738909675103
 31
0.0
  0
LINE
  5
D935
  8
0
 10
4764.6698952652559456
 20
241.0412146479175135
 30
0.0
 11
4764.6698952652559456
 21
241.2011738909675103
 31
0.0
  0
LINE
  5
D936
  8
0
 10
4764.6422900633660902
 20
241.0620869965779036
 30
0.0
 11
4764.6422900633660902
 21
241.1803015423070917
 31
0.0
  0
LINE
  5
D937
  8
0
 10
4764.7307928442660341
 20
241.0620857532042862
 30
0.0
 11
4764.7307928442660341
 21
241.1803027856807091
 31
0.0
  0
LINE
  5
D938
  8
0
 10
4764.7633510573377862
 20
241.0412146479175135
 30
0.0
 11
4764.7633510573377862
 21
241.2011738909675103
 31
0.0
  0
LINE
  5
D939
  8
0
 10
4764.8197808780660125
 20
241.0620894883674907
 30
0.0
 11
4764.8197808780660125
 21
241.1802990505175046
 31
0.0
  0
LINE
  5
D93A
  8
0
 10
4764.8572553270523713
 20
241.0412146479175135
 30
0.0
 11
4764.8572553270523713
 21
241.2011738909675103
 31
0.0
  0
LINE
  5
D93B
  8
0
 10
4764.9090911753646651
 20
241.0620954977046893
 30
0.0
 11
4764.9090911753646651
 21
241.1802930411801924
 31
0.0
  0
LINE
  5
D93C
  8
0
 10
4764.9514283735379649
 20
241.0412146479175135
 30
0.0
 11
4764.9514283735379649
 21
241.2011738909675103
 31
0.0
  0
LINE
  5
D93D
  8
0
 10
4764.9957090328243794
 20
241.0620984817344947
 30
0.0
 11
4764.9957090328243794
 21
241.1802900571505006
 31
0.0
  0
LINE
  5
D93E
  8
0
 10
4764.1286420677279239
 20
241.0413273160592098
 30
0.0
 11
4764.2126813893646613
 21
241.0620921937675121
 31
0.0
  0
LINE
  5
D93F
  8
0
 10
4764.2126813893646613
 20
241.0620921937675121
 30
0.0
 11
4764.2156426705159902
 21
241.0412150857061988
 31
0.0
  0
LINE
  5
D940
  8
0
 10
4764.2156426705159902
 20
241.0412150857061988
 30
0.0
 11
4764.2963542800662253
 21
241.0620941650674922
 31
0.0
  0
LINE
  5
D941
  8
0
 10
4764.2963542800662253
 20
241.0620941650674922
 30
0.0
 11
4764.3041665256941997
 21
241.0412150933676116
 31
0.0
  0
LINE
  5
D942
  8
0
 10
4764.3041665256941997
 20
241.0412150933676116
 30
0.0
 11
4764.3813080617737796
 21
241.0620979159602086
 31
0.0
  0
LINE
  5
D943
  8
0
 10
4764.3813080617737796
 20
241.0620979159602086
 30
0.0
 11
4764.3940181000871235
 21
241.0412164055460948
 31
0.0
  0
LINE
  5
D944
  8
0
 10
4764.3940181000871235
 20
241.0412164055460948
 30
0.0
 11
4764.4673875584103371
 21
241.0620978935679091
 31
0.0
  0
LINE
  5
D945
  8
0
 10
4764.4673875584103371
 20
241.0620978935679091
 30
0.0
 11
4764.4850435535827273
 21
241.0412151090216923
 31
0.0
  0
LINE
  5
D946
  8
0
 10
4764.4850435535827273
 20
241.0412151090216923
 30
0.0
 11
4764.5544346573660732
 21
241.0620918822459089
 31
0.0
  0
LINE
  5
D947
  8
0
 10
4764.5544346573660732
 20
241.0620918822459089
 30
0.0
 11
4764.5770591770206011
 21
241.0412151169853132
 31
0.0
  0
LINE
  5
D948
  8
0
 10
4764.5770591770206011
 20
241.0412151169853132
 30
0.0
 11
4764.6422900633660902
 21
241.0620869965779036
 31
0.0
  0
LINE
  5
D949
  8
0
 10
4764.6422900633660902
 20
241.0620869965779036
 30
0.0
 11
4764.6698845461833116
 21
241.0412151250189083
 31
0.0
  0
LINE
  5
D94A
  8
0
 10
4764.6698845461833116
 20
241.0412151250189083
 30
0.0
 11
4764.7307928442660341
 21
241.0620857532042862
 31
0.0
  0
LINE
  5
D94B
  8
0
 10
4764.7307928442660341
 20
241.0620857532042862
 30
0.0
 11
4764.7633411002443609
 21
241.0412151331071868
 31
0.0
  0
LINE
  5
D94C
  8
0
 10
4764.7633411002443609
 20
241.0412151331071868
 30
0.0
 11
4764.8197808780660125
 21
241.0620894883674907
 31
0.0
  0
LINE
  5
D94D
  8
0
 10
4764.8197808780660125
 20
241.0620894883674907
 30
0.0
 11
4764.8572490243122957
 21
241.0412151412344883
 31
0.0
  0
LINE
  5
D94E
  8
0
 10
4764.8572490243122957
 20
241.0412151412344883
 30
0.0
 11
4764.9090911753601176
 21
241.0620954977021881
 31
0.0
  0
LINE
  5
D94F
  8
0
 10
4764.9090911753601176
 20
241.0620954977021881
 30
0.0
 11
4764.9514319458894533
 21
241.0412151493856072
 31
0.0
  0
LINE
  5
D950
  8
0
 10
4764.9514319458894533
 20
241.0412151493856072
 30
0.0
 11
4764.9957093812663516
 21
241.062098646077402
 31
0.0
  0
LINE
  5
D951
  8
0
 10
4763.8574446366883421
 20
241.0418453698545136
 30
0.0
 11
4763.9025587865999114
 21
241.0552982731946088
 31
0.0
  0
LINE
  5
D952
  8
0
 10
4763.9025591786939913
 20
241.0412146479175135
 30
0.0
 11
4763.9598266666362179
 21
241.0584453251159118
 31
0.0
  0
LINE
  5
D953
  8
0
 10
4764.0433115453297432
 20
241.0606675634120961
 30
0.0
 11
4763.9598266666362179
 21
241.0413353414596997
 31
0.0
  0
LINE
  5
D954
  8
0
 10
4764.1286420677279239
 20
241.0617506589738923
 30
0.0
 11
4764.0433115453297432
 21
241.0413301213357045
 31
0.0
  0
LINE
  5
D955
  8
0
 10
4764.1286420677279239
 20
241.0411019797759025
 30
0.0
 11
4764.2126813893646613
 21
241.0203371020674865
 31
0.0
  0
LINE
  5
D956
  8
0
 10
4764.2126813893646613
 20
241.0203371020674865
 30
0.0
 11
4764.2156426705159902
 21
241.0412142101287998
 31
0.0
  0
LINE
  5
D957
  8
0
 10
4764.2156426705159902
 20
241.0412142101287998
 30
0.0
 11
4764.2963542800662253
 21
241.0203351307675064
 31
0.0
  0
LINE
  5
D958
  8
0
 10
4764.2963542800662253
 20
241.0203351307675064
 30
0.0
 11
4764.3041665256941997
 21
241.0412142024675006
 31
0.0
  0
LINE
  5
D959
  8
0
 10
4764.3041665256941997
 20
241.0412142024675006
 30
0.0
 11
4764.3813080617737796
 21
241.0203313798747047
 31
0.0
  0
LINE
  5
D95A
  8
0
 10
4764.3813080617737796
 20
241.0203313798747047
 30
0.0
 11
4764.3940181000871235
 21
241.0412128902889037
 31
0.0
  0
LINE
  5
D95B
  8
0
 10
4764.3940181000871235
 20
241.0412128902889037
 30
0.0
 11
4764.4673875584103371
 21
241.0203314022670895
 31
0.0
  0
LINE
  5
D95C
  8
0
 10
4764.4673875584103371
 20
241.0203314022670895
 30
0.0
 11
4764.4850435535827273
 21
241.0412141868133062
 31
0.0
  0
LINE
  5
D95D
  8
0
 10
4764.4850435535827273
 20
241.0412141868133062
 30
0.0
 11
4764.5544346573660732
 21
241.0203374135890897
 31
0.0
  0
LINE
  5
D95E
  8
0
 10
4764.5544346573660732
 20
241.0203374135890897
 30
0.0
 11
4764.5770591770206011
 21
241.0412141788497138
 31
0.0
  0
LINE
  5
D95F
  8
0
 10
4764.5770591770206011
 20
241.0412141788497138
 30
0.0
 11
4764.6422900633660902
 21
241.020342299257095
 31
0.0
  0
LINE
  5
D960
  8
0
 10
4764.6422900633660902
 20
241.020342299257095
 30
0.0
 11
4764.6698845461833116
 21
241.0412141708160902
 31
0.0
  0
LINE
  5
D961
  8
0
 10
4764.6698845461833116
 20
241.0412141708160902
 30
0.0
 11
4764.7307928442660341
 21
241.0203435426307124
 31
0.0
  0
LINE
  5
D962
  8
0
 10
4764.7307928442660341
 20
241.0203435426307124
 30
0.0
 11
4764.7633411002443609
 21
241.0412141627278118
 31
0.0
  0
LINE
  5
D963
  8
0
 10
4764.7633411002443609
 20
241.0412141627278118
 30
0.0
 11
4764.8197808780660125
 21
241.0203398074675079
 31
0.0
  0
LINE
  5
D964
  8
0
 10
4764.8197808780660125
 20
241.0203398074675079
 30
0.0
 11
4764.8572490243122957
 21
241.0412141546005955
 31
0.0
  0
LINE
  5
D965
  8
0
 10
4764.8572490243122957
 20
241.0412141546005955
 30
0.0
 11
4764.9090911753601176
 21
241.0203337981328104
 31
0.0
  0
LINE
  5
D966
  8
0
 10
4764.9090911753601176
 20
241.0203337981328104
 30
0.0
 11
4764.9514319458894533
 21
241.0412141464493914
 31
0.0
  0
LINE
  5
D967
  8
0
 10
4764.9514319458894533
 20
241.0412141464493914
 30
0.0
 11
4764.9957093812663516
 21
241.0203306497577103
 31
0.0
  0
LINE
  5
D968
  8
0
 10
4763.8574446366883421
 20
241.0405839259805134
 30
0.0
 11
4763.9025587865999114
 21
241.0271310226403045
 31
0.0
  0
LINE
  5
D969
  8
0
 10
4763.9025587865999114
 20
240.8812554048674883
 30
0.0
 11
4763.9025587865999114
 21
241.0412146479175135
 31
0.0
  0
LINE
  5
D96A
  8
0
 10
4763.9025591786939913
 20
241.0412146479175135
 30
0.0
 11
4763.9598266666362179
 21
241.0239839707190868
 31
0.0
  0
LINE
  5
D96B
  8
0
 10
4763.9598266666362179
 20
240.8812554048674883
 30
0.0
 11
4763.9598266666362179
 21
241.0412146479175135
 31
0.0
  0
LINE
  5
D96C
  8
0
 10
4764.0433115453297432
 20
241.0217617324229025
 30
0.0
 11
4763.9598266666362179
 21
241.0410939543752988
 31
0.0
  0
LINE
  5
D96D
  8
0
 10
4764.0433115453297432
 20
240.8812554048674883
 30
0.0
 11
4764.0433115453297432
 21
241.0412146479175135
 31
0.0
  0
LINE
  5
D96E
  8
0
 10
4764.1286420677279239
 20
241.0206786368611063
 30
0.0
 11
4764.0433115453297432
 21
241.0410991744992941
 31
0.0
  0
LINE
  5
D96F
  8
0
 10
4764.1286420677279239
 20
240.8812554048674883
 30
0.0
 11
4764.1286420677279239
 21
241.0412146479175135
 31
0.0
  0
LINE
  5
D970
  8
0
 10
4764.2126813893646613
 20
240.9021329507174869
 30
0.0
 11
4764.2126813893646613
 21
241.0203371020674865
 31
0.0
  0
LINE
  5
D971
  8
0
 10
4764.2156490403531279
 20
240.8812554048674883
 30
0.0
 11
4764.2156490403531279
 21
241.0412146479175135
 31
0.0
  0
LINE
  5
D972
  8
0
 10
4764.2963542800662253
 20
240.9021349220174955
 30
0.0
 11
4764.2963542800662253
 21
241.0203351307675064
 31
0.0
  0
LINE
  5
D973
  8
0
 10
4764.3041642079024314
 20
240.8812554048674883
 30
0.0
 11
4764.3041642079024314
 21
241.0412146479175135
 31
0.0
  0
LINE
  5
D974
  8
0
 10
4764.3815606344905973
 20
240.9017237174487889
 30
0.0
 11
4764.3815606344905973
 21
241.020746335336213
 31
0.0
  0
LINE
  5
D975
  8
0
 10
4764.3940194525439438
 20
240.8812554048674883
 30
0.0
 11
4764.3940194525439438
 21
241.0412146479175135
 31
0.0
  0
LINE
  5
D976
  8
0
 10
4764.4673875584558118
 20
240.9021386504645932
 30
0.0
 11
4764.4673875584558118
 21
241.0203314023204086
 31
0.0
  0
LINE
  5
D977
  8
0
 10
4764.485046446884553
 20
240.8812554048674883
 30
0.0
 11
4764.485046446884553
 21
241.0412146479175135
 31
0.0
  0
LINE
  5
D978
  8
0
 10
4764.5544346573660732
 20
240.9021326391959121
 30
0.0
 11
4764.5544346573660732
 21
241.0203374135890897
 31
0.0
  0
LINE
  5
D979
  8
0
 10
4764.5770672919634308
 20
240.8812554048674883
 30
0.0
 11
4764.5770665682675826
 21
241.0412146479175135
 31
0.0
  0
LINE
  5
D97A
  8
0
 10
4764.6698952652559456
 20
240.8812554048674883
 30
0.0
 11
4764.6698952652559456
 21
241.0412146479175135
 31
0.0
  0
LINE
  5
D97B
  8
0
 10
4764.6422900633660902
 20
240.9021277535279069
 30
0.0
 11
4764.6422900633660902
 21
241.020342299257095
 31
0.0
  0
LINE
  5
D97C
  8
0
 10
4764.7307928442660341
 20
240.9021265101542895
 30
0.0
 11
4764.7307928442660341
 21
241.0203435426307124
 31
0.0
  0
LINE
  5
D97D
  8
0
 10
4764.7633510573377862
 20
240.8812554048674883
 30
0.0
 11
4764.7633510573377862
 21
241.0412146479175135
 31
0.0
  0
LINE
  5
D97E
  8
0
 10
4764.8197808780660125
 20
240.902130245317494
 30
0.0
 11
4764.8197808780660125
 21
241.0203398074675079
 31
0.0
  0
LINE
  5
D97F
  8
0
 10
4764.8572553270523713
 20
240.8812554048674883
 30
0.0
 11
4764.8572553270523713
 21
241.0412146479175135
 31
0.0
  0
LINE
  5
D980
  8
0
 10
4764.9090911753646651
 20
240.9021362546546925
 30
0.0
 11
4764.9090911753646651
 21
241.0203337981303093
 31
0.0
  0
LINE
  5
D981
  8
0
 10
4764.9514283735379649
 20
240.8812554048674883
 30
0.0
 11
4764.9514283735379649
 21
241.0412146479175135
 31
0.0
  0
LINE
  5
D982
  8
0
 10
4764.9957090328243794
 20
240.902139238684498
 30
0.0
 11
4764.9957090328243794
 21
241.0203308141005039
 31
0.0
  0
LINE
  5
D983
  8
0
 10
4764.1286420677279239
 20
240.8813680730090994
 30
0.0
 11
4764.2126813893646613
 21
240.9021329507174869
 31
0.0
  0
LINE
  5
D984
  8
0
 10
4764.2126813893646613
 20
240.9021329507174869
 30
0.0
 11
4764.2156426705159902
 21
240.881255842656202
 31
0.0
  0
LINE
  5
D985
  8
0
 10
4764.2156426705159902
 20
240.881255842656202
 30
0.0
 11
4764.2963542800662253
 21
240.9021349220174955
 31
0.0
  0
LINE
  5
D986
  8
0
 10
4764.2963542800662253
 20
240.9021349220174955
 30
0.0
 11
4764.3041665256941997
 21
240.8812558503175012
 31
0.0
  0
LINE
  5
D987
  8
0
 10
4764.3041665256941997
 20
240.8812558503175012
 30
0.0
 11
4764.3813080617737796
 21
240.9021386729102971
 31
0.0
  0
LINE
  5
D988
  8
0
 10
4764.3813080617737796
 20
240.9021386729102971
 30
0.0
 11
4764.3940181000871235
 21
240.8812571624960981
 31
0.0
  0
LINE
  5
D989
  8
0
 10
4764.3940181000871235
 20
240.8812571624960981
 30
0.0
 11
4764.4673875584103371
 21
240.9021386505179123
 31
0.0
  0
LINE
  5
D98A
  8
0
 10
4764.4673875584103371
 20
240.9021386505179123
 30
0.0
 11
4764.4850435535827273
 21
240.8812558659716956
 31
0.0
  0
LINE
  5
D98B
  8
0
 10
4764.4850435535827273
 20
240.8812558659716956
 30
0.0
 11
4764.5544346573660732
 21
240.9021326391959121
 31
0.0
  0
LINE
  5
D98C
  8
0
 10
4764.5544346573660732
 20
240.9021326391959121
 30
0.0
 11
4764.5770591770206011
 21
240.881255873935288
 31
0.0
  0
LINE
  5
D98D
  8
0
 10
4764.5770591770206011
 20
240.881255873935288
 30
0.0
 11
4764.6422900633660902
 21
240.9021277535279069
 31
0.0
  0
LINE
  5
D98E
  8
0
 10
4764.6422900633660902
 20
240.9021277535279069
 30
0.0
 11
4764.6698845461833116
 21
240.8812558819689116
 31
0.0
  0
LINE
  5
D98F
  8
0
 10
4764.6698845461833116
 20
240.8812558819689116
 30
0.0
 11
4764.7307928442660341
 21
240.9021265101542895
 31
0.0
  0
LINE
  5
D990
  8
0
 10
4764.7307928442660341
 20
240.9021265101542895
 30
0.0
 11
4764.7633411002443609
 21
240.8812558900571901
 31
0.0
  0
LINE
  5
D991
  8
0
 10
4764.7633411002443609
 20
240.8812558900571901
 30
0.0
 11
4764.8197808780660125
 21
240.902130245317494
 31
0.0
  0
LINE
  5
D992
  8
0
 10
4764.8197808780660125
 20
240.902130245317494
 30
0.0
 11
4764.8572490243122957
 21
240.8812558981844063
 31
0.0
  0
LINE
  5
D993
  8
0
 10
4764.8572490243122957
 20
240.8812558981844063
 30
0.0
 11
4764.9090911753601176
 21
240.9021362546521914
 31
0.0
  0
LINE
  5
D994
  8
0
 10
4764.9090911753601176
 20
240.9021362546521914
 30
0.0
 11
4764.9514319458894533
 21
240.8812559063356105
 31
0.0
  0
LINE
  5
D995
  8
0
 10
4764.9514319458894533
 20
240.8812559063356105
 30
0.0
 11
4764.9957093812663516
 21
240.9021394030272916
 31
0.0
  0
LINE
  5
D996
  8
0
 10
4763.8574446366883421
 20
240.8818861268044884
 30
0.0
 11
4763.9025587865999114
 21
240.8953390301446973
 31
0.0
  0
LINE
  5
D997
  8
0
 10
4763.9025591786939913
 20
240.8812554048674883
 30
0.0
 11
4763.9598266666362179
 21
240.8984860820658866
 31
0.0
  0
LINE
  5
D998
  8
0
 10
4764.0433115453297432
 20
240.9007083203620994
 30
0.0
 11
4763.9598266666362179
 21
240.881376098409703
 31
0.0
  0
LINE
  5
D999
  8
0
 10
4764.1286420677279239
 20
240.9017914159238956
 30
0.0
 11
4764.0433115453297432
 21
240.8813708782857077
 31
0.0
  0
LINE
  5
D99A
  8
0
 10
4763.8574446366883421
 20
240.8812554048674883
 30
0.0
 11
4766.1339741258434515
 21
240.8812554048674883
 31
0.0
  0
LINE
  5
D99B
  8
0
 10
4763.8574446366883421
 20
239.8551828797754126
 30
0.0
 11
4766.1339741258434515
 21
239.8551828797754126
 31
0.0
  0
LINE
  5
D99C
  8
0
 10
4764.1286422590637812
 20
239.8550702116338016
 30
0.0
 11
4764.2126815807014282
 21
239.8343053339254141
 31
0.0
  0
LINE
  5
D99D
  8
0
 10
4764.2126815807014282
 20
239.8343053339254141
 30
0.0
 11
4764.2156428618509381
 21
239.8551824419866989
 31
0.0
  0
LINE
  5
D99E
  8
0
 10
4764.2156428618509381
 20
239.8551824419866989
 30
0.0
 11
4764.2963544714020827
 21
239.8343033626254055
 31
0.0
  0
LINE
  5
D99F
  8
0
 10
4764.2963544714020827
 20
239.8343033626254055
 30
0.0
 11
4764.304166717030057
 21
239.8551824343253998
 31
0.0
  0
LINE
  5
D9A0
  8
0
 10
4764.304166717030057
 20
239.8551824343253998
 30
0.0
 11
4764.3813082531087275
 21
239.8342996117326891
 31
0.0
  0
LINE
  5
D9A1
  8
0
 10
4764.3813082531087275
 20
239.8342996117326891
 30
0.0
 11
4764.3940182914220713
 21
239.8551811221468029
 31
0.0
  0
LINE
  5
D9A2
  8
0
 10
4764.3940182914220713
 20
239.8551811221468029
 30
0.0
 11
4764.467387749747104
 21
239.8342996341249886
 31
0.0
  0
LINE
  5
D9A3
  8
0
 10
4764.467387749747104
 20
239.8342996341249886
 30
0.0
 11
4764.4850437449185847
 21
239.8551824186712054
 31
0.0
  0
LINE
  5
D9A4
  8
0
 10
4764.4850437449185847
 20
239.8551824186712054
 30
0.0
 11
4764.5544348487019306
 21
239.8343056454469888
 31
0.0
  0
LINE
  5
D9A5
  8
0
 10
4764.5544348487019306
 20
239.8343056454469888
 30
0.0
 11
4764.5770593683573679
 21
239.8551824107076982
 31
0.0
  0
LINE
  5
D9A6
  8
0
 10
4764.5770593683573679
 20
239.8551824107076982
 30
0.0
 11
4764.6422902547019476
 21
239.8343105311149941
 31
0.0
  0
LINE
  5
D9A7
  8
0
 10
4764.6422902547019476
 20
239.8343105311149941
 30
0.0
 11
4764.669884737519169
 21
239.8551824026739894
 31
0.0
  0
LINE
  5
D9A8
  8
0
 10
4764.669884737519169
 20
239.8551824026739894
 30
0.0
 11
4764.7307930356018915
 21
239.8343117744886115
 31
0.0
  0
LINE
  5
D9A9
  8
0
 10
4764.7307930356018915
 20
239.8343117744886115
 30
0.0
 11
4764.7633412915802182
 21
239.8551823945857961
 31
0.0
  0
LINE
  5
D9AA
  8
0
 10
4764.7633412915802182
 20
239.8551823945857961
 30
0.0
 11
4764.8197810694018699
 21
239.834308039325407
 31
0.0
  0
LINE
  5
D9AB
  8
0
 10
4764.8197810694018699
 20
239.834308039325407
 30
0.0
 11
4764.857249215648153
 21
239.8551823864584946
 31
0.0
  0
LINE
  5
D9AC
  8
0
 10
4764.857249215648153
 20
239.8551823864584946
 30
0.0
 11
4764.9090913666950655
 21
239.8343020299907096
 31
0.0
  0
LINE
  5
D9AD
  8
0
 10
4764.9090913666950655
 20
239.8343020299907096
 30
0.0
 11
4764.9514321372253107
 21
239.8551823783074042
 31
0.0
  0
LINE
  5
D9AE
  8
0
 10
4764.9514321372253107
 20
239.8551823783074042
 30
0.0
 11
4764.9957095726022089
 21
239.8342988816156094
 31
0.0
  0
LINE
  5
D9AF
  8
0
 10
4763.8574448280241995
 20
239.8545521578384125
 30
0.0
 11
4763.9025589779357688
 21
239.8410992544982889
 31
0.0
  0
LINE
  5
D9B0
  8
0
 10
4763.9025589779357688
 20
239.5717071309258017
 30
0.0
 11
4763.9025589779357688
 21
239.8551828797754126
 31
0.0
  0
LINE
  5
D9B1
  8
0
 10
4763.9025593700298487
 20
239.8551828797754126
 30
0.0
 11
4763.9598268579729847
 21
239.8379522025769859
 31
0.0
  0
LINE
  5
D9B2
  8
0
 10
4763.9598268579729847
 20
239.5718278290823093
 30
0.0
 11
4763.9598268579729847
 21
239.8551828797754126
 31
0.0
  0
LINE
  5
D9B3
  8
0
 10
4764.0433117366656006
 20
239.8357299642808869
 30
0.0
 11
4763.9598268579729847
 21
239.855062186233198
 31
0.0
  0
LINE
  5
D9B4
  8
0
 10
4764.0433117366656006
 20
239.5718226091125871
 30
0.0
 11
4764.0433117366656006
 21
239.8551828797754126
 31
0.0
  0
LINE
  5
D9B5
  8
0
 10
4764.1286422590637812
 20
239.8346468687190054
 30
0.0
 11
4764.0433117366656006
 21
239.8550674063573069
 31
0.0
  0
LINE
  5
D9B6
  8
0
 10
4764.1286422590637812
 20
239.5718198039909907
 30
0.0
 11
4764.1286422590637812
 21
239.8551828797754126
 31
0.0
  0
LINE
  5
D9B7
  8
0
 10
4764.2126815807014282
 20
239.5925845362953055
 30
0.0
 11
4764.2126815807014282
 21
239.8343053339254141
 31
0.0
  0
LINE
  5
D9B8
  8
0
 10
4764.2156492316889853
 20
239.5717092216659125
 30
0.0
 11
4764.2156492316889853
 21
239.8551828797754126
 31
0.0
  0
LINE
  5
D9B9
  8
0
 10
4764.2963544714020827
 20
239.5925865948208013
 30
0.0
 11
4764.2963544714020827
 21
239.8343033626254055
 31
0.0
  0
LINE
  5
D9BA
  8
0
 10
4764.3041643992373793
 20
239.5717137176746121
 30
0.0
 11
4764.3041643992373793
 21
239.8551828797754126
 31
0.0
  0
LINE
  5
D9BB
  8
0
 10
4764.3815608258264547
 20
239.5921754107698973
 30
0.0
 11
4764.3815608258264547
 21
239.8347145671941973
 31
0.0
  0
LINE
  5
D9BC
  8
0
 10
4764.3940196438798012
 20
239.5717092791448124
 30
0.0
 11
4764.3940196438798012
 21
239.8551828797754126
 31
0.0
  0
LINE
  5
D9BD
  8
0
 10
4764.4673877497916692
 20
239.5925903529549998
 30
0.0
 11
4764.4673877497916692
 21
239.8342996341783078
 31
0.0
  0
LINE
  5
D9BE
  8
0
 10
4764.4850466382204104
 20
239.571708468493398
 30
0.0
 11
4764.4850466382204104
 21
239.8551828797754126
 31
0.0
  0
LINE
  5
D9BF
  8
0
 10
4764.5544348487019306
 20
239.5925843468673122
 30
0.0
 11
4764.5544348487019306
 21
239.8343056454469888
 31
0.0
  0
LINE
  5
D9C0
  8
0
 10
4764.5770680421028374
 20
239.5717103817019051
 30
0.0
 11
4764.577066759605259
 21
239.8551828797754126
 31
0.0
  0
LINE
  5
D9C1
  8
0
 10
4764.6698954565918029
 20
239.5717112878155888
 30
0.0
 11
4764.6698954565918029
 21
239.8551828797754126
 31
0.0
  0
LINE
  5
D9C2
  8
0
 10
4764.6422902547019476
 20
239.5925794645145004
 30
0.0
 11
4764.6422902547019476
 21
239.8343105311149941
 31
0.0
  0
LINE
  5
D9C3
  8
0
 10
4764.7307930356018915
 20
239.592578223435595
 30
0.0
 11
4764.7307930356018915
 21
239.8343117744886115
 31
0.0
  0
LINE
  5
D9C4
  8
0
 10
4764.7633512486736436
 20
239.5717113061344037
 30
0.0
 11
4764.7633512486736436
 21
239.8551828797754126
 31
0.0
  0
LINE
  5
D9C5
  8
0
 10
4764.8197810694018699
 20
239.5925819602744866
 30
0.0
 11
4764.8197810694018699
 21
239.834308039325407
 31
0.0
  0
LINE
  5
D9C6
  8
0
 10
4764.8572555183873192
 20
239.5717101708098085
 30
0.0
 11
4764.8572555183873192
 21
239.8551828797754126
 31
0.0
  0
LINE
  5
D9C7
  8
0
 10
4764.9090913667023415
 20
239.5925879708807997
 30
0.0
 11
4764.9090913667023415
 21
239.8343020299882085
 31
0.0
  0
LINE
  5
D9C8
  8
0
 10
4764.9514285648738223
 20
239.5717093842721113
 30
0.0
 11
4764.9514285648738223
 21
239.8551828797754126
 31
0.0
  0
LINE
  5
D9C9
  8
0
 10
4764.9957092241602368
 20
239.5925909741411033
 30
0.0
 11
4764.9957092241602368
 21
239.834299045958403
 31
0.0
  0
LINE
  5
D9CA
  8
0
 10
4764.1286422391367523
 20
239.5718197990674128
 30
0.0
 11
4764.2126815607753088
 21
239.5925846767758003
 31
0.0
  0
LINE
  5
D9CB
  8
0
 10
4764.2126815607753088
 20
239.5925846767758003
 30
0.0
 11
4764.2156428419248186
 21
239.571707568714487
 31
0.0
  0
LINE
  5
D9CC
  8
0
 10
4764.2156428419248186
 20
239.571707568714487
 30
0.0
 11
4764.2963544514759633
 21
239.5925866480758089
 31
0.0
  0
LINE
  5
D9CD
  8
0
 10
4764.2963544514759633
 20
239.5925866480758089
 30
0.0
 11
4764.3041666971039376
 21
239.5717075763758999
 31
0.0
  0
LINE
  5
D9CE
  8
0
 10
4764.3041666971039376
 20
239.5717075763758999
 30
0.0
 11
4764.3813082331844271
 21
239.5925903989686105
 31
0.0
  0
LINE
  5
D9CF
  8
0
 10
4764.3813082331844271
 20
239.5925903989686105
 30
0.0
 11
4764.3940182714968614
 21
239.5717088885544968
 31
0.0
  0
LINE
  5
D9D0
  8
0
 10
4764.3940182714968614
 20
239.5717088885544968
 30
0.0
 11
4764.4673877298209845
 21
239.5925903765761973
 31
0.0
  0
LINE
  5
D9D1
  8
0
 10
4764.4673877298209845
 20
239.5925903765761973
 30
0.0
 11
4764.4850437249933748
 21
239.5717075920300942
 31
0.0
  0
LINE
  5
D9D2
  8
0
 10
4764.4850437249933748
 20
239.5717075920300942
 30
0.0
 11
4764.5544348287758112
 21
239.5925843652541971
 31
0.0
  0
LINE
  5
D9D3
  8
0
 10
4764.5544348287758112
 20
239.5925843652541971
 30
0.0
 11
4764.5770593484312485
 21
239.5717075999936014
 31
0.0
  0
LINE
  5
D9D4
  8
0
 10
4764.5770593484312485
 20
239.5717075999936014
 30
0.0
 11
4764.6422902347758281
 21
239.5925794795861918
 31
0.0
  0
LINE
  5
D9D5
  8
0
 10
4764.6422902347758281
 20
239.5925794795861918
 30
0.0
 11
4764.6698847175930496
 21
239.5717076080271966
 31
0.0
  0
LINE
  5
D9D6
  8
0
 10
4764.6698847175930496
 20
239.5717076080271966
 30
0.0
 11
4764.7307930156748625
 21
239.5925782362126881
 31
0.0
  0
LINE
  5
D9D7
  8
0
 10
4764.7307930156748625
 20
239.5925782362126881
 30
0.0
 11
4764.7633412716540988
 21
239.5717076161155035
 31
0.0
  0
LINE
  5
D9D8
  8
0
 10
4764.7633412716540988
 20
239.5717076161155035
 30
0.0
 11
4764.819781049474841
 21
239.5925819713758074
 31
0.0
  0
LINE
  5
D9D9
  8
0
 10
4764.819781049474841
 20
239.5925819713758074
 30
0.0
 11
4764.8572491957211241
 21
239.571707624242805
 31
0.0
  0
LINE
  5
D9DA
  8
0
 10
4764.8572491957211241
 20
239.571707624242805
 30
0.0
 11
4764.9090913467680366
 21
239.5925879807105048
 31
0.0
  0
LINE
  5
D9DB
  8
0
 10
4764.9090913467680366
 20
239.5925879807105048
 30
0.0
 11
4764.9514321172991913
 21
239.5717076323938954
 31
0.0
  0
LINE
  5
D9DC
  8
0
 10
4764.9514321172991913
 20
239.5717076323938954
 30
0.0
 11
4764.99570955267518
 21
239.5925911290856902
 31
0.0
  0
LINE
  5
D9DD
  8
0
 10
4763.8574448080980801
 20
239.5723378528628871
 30
0.0
 11
4763.9025589580105589
 21
239.5857907562030107
 31
0.0
  0
LINE
  5
D9DE
  8
0
 10
4763.9025593501028197
 20
239.5717071309258017
 30
0.0
 11
4763.9598268380450463
 21
239.5889378081243137
 31
0.0
  0
LINE
  5
D9DF
  8
0
 10
4764.0433117167403907
 20
239.5911600464204128
 30
0.0
 11
4763.9598268380450463
 21
239.5718278244681017
 31
0.0
  0
LINE
  5
D9E0
  8
0
 10
4764.1286422391367523
 20
239.5922431419822942
 30
0.0
 11
4764.0433117167403907
 21
239.5718226043439927
 31
0.0
  0
LINE
  5
D9E1
  8
0
 10
4763.8574446366883421
 20
239.5717071309258017
 30
0.0
 11
4766.1339741258434515
 21
239.5717071309258017
 31
0.0
  0
LINE
  5
D9E2
  8
0
 10
4764.9957093812663516
 20
240.6169631717459936
 30
0.0
 11
4764.3485310277537792
 21
239.8651828608174981
 31
0.0
  0
LINE
  5
D9E3
  8
0
 10
4764.8886757566788219
 20
240.8712554328174917
 30
0.0
 11
4764.8871268813809365
 21
240.7431008892517923
 31
0.0
  0
LINE
  5
D9E4
  8
0
 10
4764.8871268813809365
 20
240.7431008892517923
 30
0.0
 11
4764.8903651819682636
 21
240.6169635448175086
 31
0.0
  0
LINE
  5
D9E5
  8
0
 10
4764.8903651819682636
 20
240.6169635448175086
 30
0.0
 11
4764.8882634234923898
 21
240.4921509695070085
 31
0.0
  0
LINE
  5
D9E6
  8
0
 10
4764.8882634234923898
 20
240.4921509695070085
 30
0.0
 11
4764.8909183266350738
 21
240.3679868857674933
 31
0.0
  0
LINE
  5
D9E7
  8
0
 10
4763.8574446366883421
 20
240.8712554328174917
 30
0.0
 11
4766.1339741258434515
 21
240.8712554328174917
 31
0.0
  0
LINE
  5
D9E8
  8
0
 10
4764.78571336665118
 20
240.8712554328174917
 30
0.0
 11
4764.7872622419508843
 21
240.7431008892517923
 31
0.0
  0
LINE
  5
D9E9
  8
0
 10
4764.7872622419508843
 20
240.7431008892517923
 30
0.0
 11
4764.7840239413635572
 21
240.6169635448175086
 31
0.0
  0
LINE
  5
D9EA
  8
0
 10
4764.7840239413635572
 20
240.6169635448175086
 30
0.0
 11
4764.7861256998403405
 21
240.4921509695070085
 31
0.0
  0
LINE
  5
D9EB
  8
0
 10
4764.7861256998403405
 20
240.4921509695070085
 30
0.0
 11
4764.7834707949850781
 21
240.3679868056821931
 31
0.0
  0
LINE
  5
D9EC
  8
0
 10
4764.6757231162318931
 20
240.8712554328174917
 30
0.0
 11
4764.6710983976481657
 21
240.7430998224625966
 31
0.0
  0
LINE
  5
D9ED
  8
0
 10
4764.6710983976481657
 20
240.7430998224625966
 30
0.0
 11
4764.6807755020699915
 21
240.6169616958183894
 31
0.0
  0
LINE
  5
D9EE
  8
0
 10
4764.6807755020699915
 20
240.6169616958183894
 30
0.0
 11
4764.6744987326546834
 21
240.4921471765325975
 31
0.0
  0
LINE
  5
D9EF
  8
0
 10
4764.6744987326546834
 20
240.4921471765325975
 30
0.0
 11
4764.6824298375895523
 21
240.3679868857674933
 31
0.0
  0
LINE
  5
D9F0
  8
0
 10
4764.5601953160030462
 20
240.8712554328174917
 30
0.0
 11
4764.5742414811657
 21
240.7438298111175072
 31
0.0
  0
LINE
  5
D9F1
  8
0
 10
4764.5742414811657
 20
240.7438298111175072
 30
0.0
 11
4764.5670544890108431
 21
240.6169607588929011
 31
0.0
  0
LINE
  5
D9F2
  8
0
 10
4764.5670544890108431
 20
240.6169607588929011
 30
0.0
 11
4764.5787321984662412
 21
240.4921467720174917
 31
0.0
  0
LINE
  5
D9F3
  8
0
 10
4764.5787321984662412
 20
240.4921467720174917
 30
0.0
 11
4764.5693017027369933
 21
240.3679868857674933
 31
0.0
  0
LINE
  5
D9F4
  8
0
 10
4764.4772255471580138
 20
240.3679868857674933
 30
0.0
 11
4764.4641034080450481
 21
240.4921465915174963
 31
0.0
  0
LINE
  5
D9F5
  8
0
 10
4764.4641034080450481
 20
240.4921465915174963
 30
0.0
 11
4764.473367474753104
 21
240.6187033201454142
 31
0.0
  0
LINE
  5
D9F6
  8
0
 10
4764.473367474753104
 20
240.6187033201454142
 30
0.0
 11
4764.4572120249658838
 21
240.7445605338174914
 31
0.0
  0
LINE
  5
D9F7
  8
0
 10
4764.4572120249658838
 20
240.7445605338174914
 30
0.0
 11
4764.4661208678053299
 21
240.8712554328174917
 31
0.0
  0
LINE
  5
D9F8
  8
0
 10
4764.3481492550590701
 20
240.8712554328174917
 30
0.0
 11
4764.3679398905587732
 21
240.745528131395389
 31
0.0
  0
LINE
  5
D9F9
  8
0
 10
4764.3679398905587732
 20
240.745528131395389
 30
0.0
 11
4764.3558717592513858
 21
240.6198871039092921
 31
0.0
  0
LINE
  5
D9FA
  8
0
 10
4764.3558717592513858
 20
240.6198871039092921
 30
0.0
 11
4764.3739072153648522
 21
240.4943749848175116
 31
0.0
  0
LINE
  5
D9FB
  8
0
 10
4764.3739072153648522
 20
240.4943749848175116
 30
0.0
 11
4764.3616918959123723
 21
240.3679868857674933
 31
0.0
  0
LINE
  5
D9FC
  8
0
 10
4764.2726782095387534
 20
240.3679868857674933
 30
0.0
 11
4764.2556313949653486
 21
240.4965681027175037
 31
0.0
  0
LINE
  5
D9FD
  8
0
 10
4764.2556313949653486
 20
240.4965681027175037
 30
0.0
 11
4764.2695649406659868
 21
240.6220940960174914
 31
0.0
  0
LINE
  5
D9FE
  8
0
 10
4764.2695649406659868
 20
240.6220940960174914
 30
0.0
 11
4764.2485995157549041
 21
240.7464954602374974
 31
0.0
  0
LINE
  5
D9FF
  8
0
 10
4764.2485995157549041
 20
240.7464954602374974
 30
0.0
 11
4764.2620810987864388
 21
240.8712554328174917
 31
0.0
  0
LINE
  5
DA00
  8
0
 10
4764.1428932170510961
 20
240.8712554328174917
 30
0.0
 11
4764.1678538638661848
 21
240.7477177251174965
 31
0.0
  0
LINE
  5
DA01
  8
0
 10
4764.1678538638661848
 20
240.7477177251174965
 30
0.0
 11
4764.1506921852378582
 21
240.6237946463133994
 31
0.0
  0
LINE
  5
DA02
  8
0
 10
4764.1506921852378582
 20
240.6237946463133994
 30
0.0
 11
4764.1703251677663502
 21
240.4957594831174958
 31
0.0
  0
LINE
  5
DA03
  8
0
 10
4764.1703251677663502
 20
240.4957594831174958
 30
0.0
 11
4764.151116759742763
 21
240.3679868857674933
 31
0.0
  0
LINE
  5
DA04
  8
0
 10
4764.069644252179387
 20
240.3679868857674933
 30
0.0
 11
4764.0478988497088721
 21
240.4949688712563045
 31
0.0
  0
LINE
  5
DA05
  8
0
 10
4764.0478988497088721
 20
240.4949688712563045
 30
0.0
 11
4764.0694429272662092
 21
240.6216799882174939
 31
0.0
  0
LINE
  5
DA06
  8
0
 10
4764.0694429272662092
 20
240.6216799882174939
 30
0.0
 11
4764.0474668674796703
 21
240.7489409906822004
 31
0.0
  0
LINE
  5
DA07
  8
0
 10
4764.0474668674796703
 20
240.7489409906822004
 30
0.0
 11
4764.0657249840251097
 21
240.8712554328174917
 31
0.0
  0
LINE
  5
DA08
  8
0
 10
4763.9465763272019103
 20
240.8712554328174917
 30
0.0
 11
4763.9699108950662776
 21
240.7454382333174863
 31
0.0
  0
LINE
  5
DA09
  8
0
 10
4763.9699108950662776
 20
240.7454382333174863
 30
0.0
 11
4763.9465760923649214
 21
240.6196214602175019
 31
0.0
  0
LINE
  5
DA0A
  8
0
 10
4763.9465760923649214
 20
240.6196214602175019
 30
0.0
 11
4763.9710877446659651
 21
240.4938038356175127
 31
0.0
  0
LINE
  5
DA0B
  8
0
 10
4763.9710877446659651
 20
240.4938038356175127
 30
0.0
 11
4763.9465762237668969
 21
240.3679868857674933
 31
0.0
  0
LINE
  5
DA0C
  8
0
 10
4763.8574446366883421
 20
240.8657322464092942
 30
0.0
 11
4763.9465761131787076
 21
240.6196215724345109
 31
0.0
  0
LINE
  5
DA0D
  8
0
 10
4763.9465761131787076
 20
240.6196215724345109
 30
0.0
 11
4763.8574446366883421
 21
240.3723590693076915
 31
0.0
  0
LINE
  5
DA0E
  8
0
 10
4763.9462816476498119
 20
240.3679868857674933
 30
0.0
 11
4763.8574446366883421
 21
240.619836148029691
 31
0.0
  0
LINE
  5
DA0F
  8
0
 10
4763.8574446366883421
 20
240.6159606656879077
 30
0.0
 11
4763.9458301381946512
 21
240.8712554328174917
 31
0.0
  0
LINE
  5
DA10
  8
0
 10
4763.8574446366883421
 20
240.3679868857674933
 30
0.0
 11
4766.1339741258434515
 21
240.3679868857674933
 31
0.0
  0
LINE
  5
DA11
  8
0
 10
4764.8886757566788219
 20
239.8647183387174948
 30
0.0
 11
4764.8871268813809365
 21
239.9928728822831943
 31
0.0
  0
LINE
  5
DA12
  8
0
 10
4764.8871268813809365
 20
239.9928728822831943
 30
0.0
 11
4764.8903651819682636
 21
240.1190102267175064
 31
0.0
  0
LINE
  5
DA13
  8
0
 10
4764.8903651819682636
 20
240.1190102267175064
 30
0.0
 11
4764.8882634234923898
 21
240.2438228020280064
 31
0.0
  0
LINE
  5
DA14
  8
0
 10
4764.8882634234923898
 20
240.2438228020280064
 30
0.0
 11
4764.8909183266350738
 21
240.3679868857674933
 31
0.0
  0
LINE
  5
DA15
  8
0
 10
4763.8574446366883421
 20
239.8647183387174948
 30
0.0
 11
4766.1339741258434515
 21
239.8647183387174948
 31
0.0
  0
LINE
  5
DA16
  8
0
 10
4764.78571336665118
 20
239.8647183387174948
 30
0.0
 11
4764.7872622419508843
 21
239.9928728822831943
 31
0.0
  0
LINE
  5
DA17
  8
0
 10
4764.7872622419508843
 20
239.9928728822831943
 30
0.0
 11
4764.7840239413635572
 21
240.1190102267175064
 31
0.0
  0
LINE
  5
DA18
  8
0
 10
4764.7840239413635572
 20
240.1190102267175064
 30
0.0
 11
4764.7861256998403405
 21
240.2438228020280064
 31
0.0
  0
LINE
  5
DA19
  8
0
 10
4764.7861256998403405
 20
240.2438228020280064
 30
0.0
 11
4764.7834707949850781
 21
240.3679869658529071
 31
0.0
  0
LINE
  5
DA1A
  8
0
 10
4764.6757231162318931
 20
239.8647183387174948
 30
0.0
 11
4764.6710983976481657
 21
239.9928739490723899
 31
0.0
  0
LINE
  5
DA1B
  8
0
 10
4764.6710983976481657
 20
239.9928739490723899
 30
0.0
 11
4764.6807755020699915
 21
240.1190120757165971
 31
0.0
  0
LINE
  5
DA1C
  8
0
 10
4764.6807755020699915
 20
240.1190120757165971
 30
0.0
 11
4764.6744987326546834
 21
240.243826595002389
 31
0.0
  0
LINE
  5
DA1D
  8
0
 10
4764.6744987326546834
 20
240.243826595002389
 30
0.0
 11
4764.6824298375895523
 21
240.3679868857674933
 31
0.0
  0
LINE
  5
DA1E
  8
0
 10
4764.5601953160030462
 20
239.8647183387174948
 30
0.0
 11
4764.5742414811657
 21
239.9921439604175077
 31
0.0
  0
LINE
  5
DA1F
  8
0
 10
4764.5742414811657
 20
239.9921439604175077
 30
0.0
 11
4764.5670544890108431
 21
240.1190130126421138
 31
0.0
  0
LINE
  5
DA20
  8
0
 10
4764.5670544890108431
 20
240.1190130126421138
 30
0.0
 11
4764.5787321984662412
 21
240.2438269995174949
 31
0.0
  0
LINE
  5
DA21
  8
0
 10
4764.5787321984662412
 20
240.2438269995174949
 30
0.0
 11
4764.5693017027369933
 21
240.3679868857674933
 31
0.0
  0
LINE
  5
DA22
  8
0
 10
4764.4772255471580138
 20
240.3679868857674933
 30
0.0
 11
4764.4641034080450481
 21
240.2438271800174903
 31
0.0
  0
LINE
  5
DA23
  8
0
 10
4764.4641034080450481
 20
240.2438271800174903
 30
0.0
 11
4764.473367474753104
 21
240.1172704513894871
 31
0.0
  0
LINE
  5
DA24
  8
0
 10
4764.473367474753104
 20
240.1172704513894871
 30
0.0
 11
4764.4572120249658838
 21
239.9914132377174951
 31
0.0
  0
LINE
  5
DA25
  8
0
 10
4764.4572120249658838
 20
239.9914132377174951
 30
0.0
 11
4764.4661208678053299
 21
239.8647183387174948
 31
0.0
  0
LINE
  5
DA26
  8
0
 10
4764.3481492550590701
 20
239.8647183387174948
 30
0.0
 11
4764.3679398905587732
 21
239.9904456401395976
 31
0.0
  0
LINE
  5
DA27
  8
0
 10
4764.3679398905587732
 20
239.9904456401395976
 30
0.0
 11
4764.3558717592513858
 21
240.1160866676256944
 31
0.0
  0
LINE
  5
DA28
  8
0
 10
4764.3558717592513858
 20
240.1160866676256944
 30
0.0
 11
4764.3739072153648522
 21
240.2415987867175033
 31
0.0
  0
LINE
  5
DA29
  8
0
 10
4764.3739072153648522
 20
240.2415987867175033
 30
0.0
 11
4764.3616918959123723
 21
240.3679868857674933
 31
0.0
  0
LINE
  5
DA2A
  8
0
 10
4764.2726782095387534
 20
240.3679868857674933
 30
0.0
 11
4764.2556313949653486
 21
240.2394056688175112
 31
0.0
  0
LINE
  5
DA2B
  8
0
 10
4764.2556313949653486
 20
240.2394056688175112
 30
0.0
 11
4764.2695649406659868
 21
240.1138796755174951
 31
0.0
  0
LINE
  5
DA2C
  8
0
 10
4764.2695649406659868
 20
240.1138796755174951
 30
0.0
 11
4764.2485995157549041
 21
239.9894783112974892
 31
0.0
  0
LINE
  5
DA2D
  8
0
 10
4764.2485995157549041
 20
239.9894783112974892
 30
0.0
 11
4764.2620810987864388
 21
239.8647183387174948
 31
0.0
  0
LINE
  5
DA2E
  8
0
 10
4764.1428932170510961
 20
239.8647183387174948
 30
0.0
 11
4764.1678538638661848
 21
239.9882560464174901
 31
0.0
  0
LINE
  5
DA2F
  8
0
 10
4764.1678538638661848
 20
239.9882560464174901
 30
0.0
 11
4764.1506921852378582
 21
240.1121791252215871
 31
0.0
  0
LINE
  5
DA30
  8
0
 10
4764.1506921852378582
 20
240.1121791252215871
 30
0.0
 11
4764.1703251677663502
 21
240.2402142884174907
 31
0.0
  0
LINE
  5
DA31
  8
0
 10
4764.1703251677663502
 20
240.2402142884174907
 30
0.0
 11
4764.151116759742763
 21
240.3679868857674933
 31
0.0
  0
LINE
  5
DA32
  8
0
 10
4764.069644252179387
 20
240.3679868857674933
 30
0.0
 11
4764.0478988497088721
 21
240.2410049002787105
 31
0.0
  0
LINE
  5
DA33
  8
0
 10
4764.0478988497088721
 20
240.2410049002787105
 30
0.0
 11
4764.0694429272662092
 21
240.1142937833174926
 31
0.0
  0
LINE
  5
DA34
  8
0
 10
4764.0694429272662092
 20
240.1142937833174926
 30
0.0
 11
4764.0474668674796703
 21
239.9870327808527861
 31
0.0
  0
LINE
  5
DA35
  8
0
 10
4764.0474668674796703
 20
239.9870327808527861
 30
0.0
 11
4764.0657249840251097
 21
239.8647183387174948
 31
0.0
  0
LINE
  5
DA36
  8
0
 10
4763.9465763272019103
 20
239.8647183387174948
 30
0.0
 11
4763.9699108950662776
 21
239.9905355382175003
 31
0.0
  0
LINE
  5
DA37
  8
0
 10
4763.9699108950662776
 20
239.9905355382175003
 30
0.0
 11
4763.9465760923649214
 21
240.1163523113175131
 31
0.0
  0
LINE
  5
DA38
  8
0
 10
4763.9465760923649214
 20
240.1163523113175131
 30
0.0
 11
4763.9710877446659651
 21
240.2421699359175022
 31
0.0
  0
LINE
  5
DA39
  8
0
 10
4763.9710877446659651
 20
240.2421699359175022
 30
0.0
 11
4763.9465762237668969
 21
240.3679868857674933
 31
0.0
  0
LINE
  5
DA3A
  8
0
 10
4763.8574446366883421
 20
239.8702415251256923
 30
0.0
 11
4763.9465761131787076
 21
240.1163521991005041
 31
0.0
  0
LINE
  5
DA3B
  8
0
 10
4763.9465761131787076
 20
240.1163521991005041
 30
0.0
 11
4763.8574446366883421
 21
240.3636147022272951
 31
0.0
  0
LINE
  5
DA3C
  8
0
 10
4763.9462816476498119
 20
240.3679868857674933
 30
0.0
 11
4763.8574446366883421
 21
240.1161376235052103
 31
0.0
  0
LINE
  5
DA3D
  8
0
 10
4763.8574446366883421
 20
240.1200131058471072
 30
0.0
 11
4763.9458301381946512
 21
239.8647183387174948
 31
0.0
  0
LINE
  5
DA3E
  8
0
 10
4764.1429052169869465
 20
239.8647183387174948
 30
0.0
 11
4764.9957093812663516
 21
240.871256275348486
 31
0.0
  0
LINE
  5
DA3F
  8
0
 10
4764.77680531624992
 20
240.8712554328174917
 30
0.0
 11
4763.9465865448592012
 21
239.8647183387174948
 31
0.0
  0
LINE
  5
DA40
  8
0
 10
4764.5601953192226574
 20
240.8712554328174917
 30
0.0
 11
4763.9465761244737223
 21
240.1163521382011936
 31
0.0
  0
LINE
  5
DA41
  8
0
 10
4763.9465762680074477
 20
240.3679868857674933
 30
0.0
 11
4764.3481491364091198
 21
240.8712554328174917
 31
0.0
  0
LINE
  5
DA42
  8
0
 10
4764.1428938638146064
 20
240.8712554328174917
 30
0.0
 11
4763.9465761754427149
 21
240.6196210337874959
 31
0.0
  0
LINE
  5
DA43
  8
0
 10
4764.1428790476520589
 20
239.8647183387174948
 30
0.0
 11
4763.9465770639953917
 21
240.1163572986656902
 31
0.0
  0
LINE
  5
DA44
  8
0
 10
4764.3481364174022019
 20
239.8647183387174948
 30
0.0
 11
4763.9465764837977986
 21
240.3679882204982903
 31
0.0
  0
LINE
  5
DA45
  8
0
 10
4764.5601821708205534
 20
239.8647183387174948
 30
0.0
 11
4763.9465762673416975
 21
240.6196224036580986
 31
0.0
  0
LINE
  5
DA46
  8
0
 10
4764.7767930613999852
 20
239.8647183387174948
 30
0.0
 11
4763.9465780981281569
 21
240.8712554328174917
 31
0.0
  0
LINE
  5
DA47
  8
0
 10
4764.9956953246382909
 20
239.8647183387174948
 30
0.0
 11
4764.1428945178886352
 21
240.8712554328174917
 31
0.0
  0
LINE
  5
DA48
  8
0
 10
4764.9957093812663516
 20
240.1190086530600922
 30
0.0
 11
4764.3481495437954436
 21
240.8712554328174917
 31
0.0
  0
LINE
  5
DA49
  8
0
 10
4764.9957093812663516
 20
240.3679866341335867
 30
0.0
 11
4764.5601953355962905
 21
240.8712554328174917
 31
0.0
  0
LINE
  5
DA4A
  8
0
 10
4764.9957093812663516
 20
240.6169640174695132
 30
0.0
 11
4764.7858402108740847
 21
240.8607602926647928
 31
0.0
  0
LINE
  5
DA4B
  8
0
 10
4764.9957093812663516
 20
240.3679890549346112
 30
0.0
 11
4764.5602105892203326
 21
239.8647183387174948
 31
0.0
  0
LINE
  5
DA4C
  8
0
 10
4764.9957093812663516
 20
240.1189999155531041
 30
0.0
 11
4764.785840630705934
 21
239.8752482159272859
 31
0.0
  0
ARC
  5
DA4D
  8
0
 10
4763.9071661151192529
 20
239.2781926247322986
 30
0.0
 40
0.0191876986760554
 50
2.0622450607049698
 51
89.1521715437465758
  0
LINE
  5
DA4E
  8
0
 10
4763.9263413863664027
 20
239.2788830978174985
 30
0.0
 11
4763.9263413863664027
 21
239.235573580817487
 31
0.0
  0
ARC
  5
DA4F
  8
0
 10
4763.9770579356845701
 20
239.2358463087965106
 30
0.0
 40
0.0507172826102282
 50
180.3081047851545122
 51
262.4082840357465898
  0
ARC
  5
DA50
  8
0
 10
4763.8906291500343286
 20
239.0105403479533948
 30
0.0
 40
0.0300802495892614
 50
0.0633007793944199
 51
86.7960945955822751
  0
ARC
  5
DA51
  8
0
 10
4763.9307599199246397
 20
239.0105846847276894
 30
0.0
 40
0.0100505447929983
 50
180.0633007793944103
 51
264.9224025414206949
  0
LINE
  5
DA52
  8
0
 10
4763.9607093812646781
 20
239.0005735808175018
 30
0.0
 11
4763.9607093812646781
 21
238.9805735808174916
 31
0.0
  0
ARC
  5
DA53
  8
0
 10
4763.8698456097172311
 20
238.950585625213904
 30
0.0
 40
0.029987955809819
 50
89.9932806166058015
 51
155.1238862315896085
  0
ARC
  5
DA54
  8
0
 10
4763.5604140279883723
 20
239.1630488682586986
 30
0.0
 40
0.3458192123177379
 50
281.936329198910073
 51
324.6970945286740857
  0
ARC
  5
DA55
  8
0
 10
4763.6377093812170642
 20
238.8055577804339009
 30
0.0
 40
0.0199999999506231
 50
106.7724813395608976
 51
180.0000000467966004
  0
ARC
  5
DA56
  8
0
 10
4763.6377093812661769
 20
238.6988576791175092
 30
0.0
 40
0.0199999999999985
 50
180.0
 51
249.6194197226718074
  0
ARC
  5
DA57
  8
0
 10
4763.6057056559748162
 20
238.5912367845820086
 30
0.0
 40
0.0923326838638251
 50
17.6972428559799084
 51
74.2655937285951069
  0
ARC
  5
DA58
  8
0
 10
4763.7035879736649804
 20
238.6205735808175064
 30
0.0
 40
0.0099999999999998
 50
187.289570914134714
 51
269.9999999999478746
  0
LINE
  5
DA59
  8
0
 10
4763.8574446366883421
 20
240.7440438065787873
 30
0.0
 11
4766.1339741258434515
 21
240.7440438065787873
 31
0.0
  0
LINE
  5
DA5A
  8
0
 10
4763.8574446366883421
 20
240.6192952066674877
 30
0.0
 11
4766.1339741258434515
 21
240.6192952066674877
 31
0.0
  0
LINE
  5
DA5B
  8
0
 10
4763.8574446366883421
 20
240.4953641147675114
 30
0.0
 11
4766.1339741258434515
 21
240.4953641147675114
 31
0.0
  0
LINE
  5
DA5C
  8
0
 10
4763.8574446366883421
 20
240.2406091863674931
 30
0.0
 11
4766.1339741258434515
 21
240.2406091863674931
 31
0.0
  0
LINE
  5
DA5D
  8
0
 10
4763.8574446366883421
 20
240.1153229885674989
 30
0.0
 11
4766.1339741258434515
 21
240.1153229885674989
 31
0.0
  0
LINE
  5
DA5E
  8
0
 10
4763.8574446366883421
 20
239.9899359657175069
 30
0.0
 11
4766.1339741258434515
 21
239.9899359657175069
 31
0.0
  0
LINE
  5
DA5F
  8
0
 10
4764.8910294949482704
 20
239.5631636740716885
 30
0.0
 11
4764.6717209114240177
 21
239.3084087456716986
 31
0.0
  0
LINE
  5
DA60
  8
0
 10
4764.8882634234923898
 20
239.5599505288112141
 30
0.0
 11
4764.8909183266350738
 21
239.4357864450716988
 31
0.0
  0
LINE
  5
DA61
  8
0
 10
4764.786194404003254
 20
239.5631636740716885
 30
0.0
 11
4764.7834707949850781
 21
239.4357863649863134
 31
0.0
  0
LINE
  5
DA62
  8
0
 10
4764.6744987326546834
 20
239.5599467358366894
 30
0.0
 11
4764.6824298375895523
 21
239.4357864450716988
 31
0.0
  0
LINE
  5
DA63
  8
0
 10
4764.5789765699610143
 20
239.5631636740716885
 30
0.0
 11
4764.5693017027369933
 21
239.4357864450716988
 31
0.0
  0
LINE
  5
DA64
  8
0
 10
4764.4772255471580138
 20
239.4357864450716988
 30
0.0
 11
4764.4641034080450481
 21
239.5599461508217018
 31
0.0
  0
LINE
  5
DA65
  8
0
 10
4764.374002814069172
 20
239.5631636740716885
 30
0.0
 11
4764.3616918959123723
 21
239.4357864450716988
 31
0.0
  0
LINE
  5
DA66
  8
0
 10
4764.2726782095387534
 20
239.4357864450716988
 30
0.0
 11
4764.2557910151635951
 21
239.5631636740716885
 31
0.0
  0
LINE
  5
DA67
  8
0
 10
4764.1703251677663502
 20
239.5635590424217014
 30
0.0
 11
4764.151116759742763
 21
239.4357864450716988
 31
0.0
  0
LINE
  5
DA68
  8
0
 10
4764.069644252179387
 20
239.4357864450716988
 30
0.0
 11
4764.0478988497088721
 21
239.5627684305605101
 31
0.0
  0
LINE
  5
DA69
  8
0
 10
4763.9713917165472594
 20
239.5631636740716885
 30
0.0
 11
4763.9465762237668969
 21
239.4357864450716988
 31
0.0
  0
LINE
  5
DA6A
  8
0
 10
4763.9462816476498119
 20
239.4357864450716988
 30
0.0
 11
4763.9013507545141692
 21
239.5631636740716885
 31
0.0
  0
LINE
  5
DA6B
  8
0
 10
4763.8574446366883421
 20
239.4357864450716988
 30
0.0
 11
4766.1339741258434515
 21
239.4357864450716988
 31
0.0
  0
LINE
  5
DA6C
  8
0
 10
4764.8882634234923898
 20
239.311622361332212
 30
0.0
 11
4764.8909183266350738
 21
239.4357864450716988
 31
0.0
  0
LINE
  5
DA6D
  8
0
 10
4764.7861944140613559
 20
239.3084087456716986
 30
0.0
 11
4764.7834707949850781
 21
239.435786525156999
 31
0.0
  0
LINE
  5
DA6E
  8
0
 10
4764.6744987326546834
 20
239.3116261543065946
 30
0.0
 11
4764.6824298375895523
 21
239.4357864450716988
 31
0.0
  0
LINE
  5
DA6F
  8
0
 10
4764.5789766056896042
 20
239.3084087456716986
 30
0.0
 11
4764.5693017027369933
 21
239.4357864450716988
 31
0.0
  0
LINE
  5
DA70
  8
0
 10
4764.4772255471580138
 20
239.4357864450716988
 30
0.0
 11
4764.4641034080450481
 21
239.3116267393216958
 31
0.0
  0
LINE
  5
DA71
  8
0
 10
4764.3740028595329932
 20
239.3084087456716986
 30
0.0
 11
4764.3616918959123723
 21
239.4357864450716988
 31
0.0
  0
LINE
  5
DA72
  8
0
 10
4764.2726782095387534
 20
239.4357864450716988
 30
0.0
 11
4764.2557909528013624
 21
239.3084087456716986
 31
0.0
  0
LINE
  5
DA73
  8
0
 10
4764.1703251677663502
 20
239.3080138477216963
 30
0.0
 11
4764.151116759742763
 21
239.4357864450716988
 31
0.0
  0
LINE
  5
DA74
  8
0
 10
4764.069644252179387
 20
239.4357864450716988
 30
0.0
 11
4764.0478988497088721
 21
239.3088044595828876
 31
0.0
  0
LINE
  5
DA75
  8
0
 10
4763.9713918081897646
 20
239.3084087456716986
 30
0.0
 11
4763.9465762237668969
 21
239.4357864450716988
 31
0.0
  0
LINE
  5
DA76
  8
0
 10
4763.9017848140565548
 20
239.3084087456716986
 30
0.0
 11
4763.8574446366883421
 21
239.431414261531387
 31
0.0
  0
LINE
  5
DA77
  8
0
 10
4763.9462816476498119
 20
239.4357864450716988
 30
0.0
 11
4763.9013505885868653
 21
239.3084087456716986
 31
0.0
  0
LINE
  5
DA78
  8
0
 10
4764.46138430110841
 20
239.3084087456716986
 30
0.0
 11
4764.6772291847446468
 21
239.5631636740716885
 31
0.0
  0
LINE
  5
DA79
  8
0
 10
4764.4667600828679497
 20
239.5631636740716885
 30
0.0
 11
4764.2566313902416368
 21
239.3084087456716986
 31
0.0
  0
LINE
  5
DA7A
  8
0
 10
4764.2546540273242499
 20
239.5631636740716885
 30
0.0
 11
4764.0475778161890048
 21
239.3084087456716986
 31
0.0
  0
LINE
  5
DA7B
  8
0
 10
4763.9465762680074477
 20
239.4357864450716988
 30
0.0
 11
4764.0482143288763837
 21
239.5631636740716885
 31
0.0
  0
LINE
  5
DA7C
  8
0
 10
4764.0482124416403167
 20
239.3084087456716986
 30
0.0
 11
4763.9465764837977986
 21
239.4357877798024958
 31
0.0
  0
LINE
  5
DA7D
  8
0
 10
4764.2546481912140734
 20
239.3084087456716986
 30
0.0
 11
4764.0475766767458481
 21
239.5631636740716885
 31
0.0
  0
LINE
  5
DA7E
  8
0
 10
4764.4667496381571254
 20
239.3084087456716986
 30
0.0
 11
4764.2566219093678228
 21
239.5631636740716885
 31
0.0
  0
LINE
  5
DA7F
  8
0
 10
4764.6772172277997015
 20
239.3084087456716986
 30
0.0
 11
4764.4613730132787168
 21
239.5631636740716885
 31
0.0
  0
LINE
  5
DA80
  8
0
 10
4764.8910314701015523
 20
239.3084087456716986
 30
0.0
 11
4764.6717296871365761
 21
239.5631636740716885
 31
0.0
  0
LINE
  5
DA81
  8
0
 10
4764.9957093812663516
 20
239.435786193437707
 30
0.0
 11
4764.8854806485032896
 21
239.5631636740716885
 31
0.0
  0
LINE
  5
DA82
  8
0
 10
4764.9957093812663516
 20
239.4357886142387031
 30
0.0
 11
4764.8854828628045652
 21
239.3084087456716986
 31
0.0
  0
LINE
  5
DA83
  8
0
 10
4763.8574446366883421
 20
239.5631636740716885
 30
0.0
 11
4766.1339741258434515
 21
239.5631636740716885
 31
0.0
  0
LINE
  5
DA84
  8
0
 10
4763.8598379231198123
 20
239.3084087456716986
 30
0.0
 11
4766.1315808394110718
 21
239.3084087456716986
 31
0.0
  0
LINE
  5
DA85
  8
0
 10
4763.9013507545141692
 20
239.5631636740716885
 30
0.0
 11
4763.8574446366883421
 21
239.4357864450716988
 31
0.0
  0
LINE
  5
DA86
  8
0
 10
4766.3737093812660532
 20
238.8055577804175016
 30
0.0
 11
4766.3737093812660532
 21
238.6988576791175092
 31
0.0
  0
LINE
  5
DA87
  8
0
 10
4766.1339741258434515
 20
241.2116403476767061
 30
0.0
 11
4766.1339741258434515
 21
239.3143104735653139
 31
0.0
  0
ARC
  5
DA88
  8
0
 10
4766.0874617101580952
 20
239.1653436416331999
 30
0.0
 40
0.0204327496125283
 50
10.4410572356885201
 51
81.9205974854376535
  0
LINE
  5
DA89
  8
0
 10
4766.107556131464662
 20
239.1690465444175118
 30
0.0
 11
4766.1260704644719226
 21
239.0640465443837002
 31
0.0
  0
ARC
  5
DA8A
  8
0
 10
4766.1062295944229845
 20
239.0606088264605944
 30
0.0
 40
0.0201364850167093
 50
275.7478132391336203
 51
9.8297336780738025
  0
ARC
  5
DA8B
  8
0
 10
4766.046899463464797
 20
241.278052111298706
 30
0.0
 40
0.0201069910681914
 50
45.1149863655903616
 51
88.5644807156513849
  0
ARC
  5
DA8C
  8
0
 10
4599.5539132923368015
 20
74.7513885906450071
 30
0.0
 40
235.5005607240809979
 50
44.9827417047727494
 51
45.0058034853667976
  0
ARC
  5
DA8D
  8
0
 10
4766.1137943913236086
 20
241.2110278104933911
 30
0.0
 40
0.0201890288780825
 50
1.7386265702798669
 51
44.8456994456975835
  0
ARC
  5
DA8E
  8
0
 10
4765.9906753914992805
 20
241.278052111298706
 30
0.0
 40
0.0201069910681914
 50
45.1149863655903616
 51
88.5644807156513849
  0
ARC
  5
DA8F
  8
0
 10
4766.9078033149471594
 20
241.8797291543847905
 30
0.0
 40
1.0772061885921851
 50
213.0470841550782097
 51
217.4130590783057073
  0
ARC
  5
DA90
  8
0
 10
4766.1123458294241573
 20
239.319645115029914
 30
0.0
 40
0.0222764809953871
 50
271.6811640886721761
 51
346.1444933416111098
  0
LINE
  5
DA91
  8
0
 10
4765.8627766948029603
 20
241.2010612228258992
 30
0.0
 11
4765.7787373731671323
 21
241.1802963451175117
 31
0.0
  0
LINE
  5
DA92
  8
0
 10
4765.7787373731671323
 20
241.1802963451175117
 30
0.0
 11
4765.7757760920158034
 21
241.2011734531787965
 31
0.0
  0
LINE
  5
DA93
  8
0
 10
4765.7757760920158034
 20
241.2011734531787965
 30
0.0
 11
4765.6950644824646588
 21
241.1802943738175031
 31
0.0
  0
LINE
  5
DA94
  8
0
 10
4765.6950644824646588
 20
241.1802943738175031
 30
0.0
 11
4765.6872522368366845
 21
241.2011734455174974
 31
0.0
  0
LINE
  5
DA95
  8
0
 10
4765.6872522368366845
 20
241.2011734455174974
 30
0.0
 11
4765.610110700758014
 21
241.1802906229247014
 31
0.0
  0
LINE
  5
DA96
  8
0
 10
4765.610110700758014
 20
241.1802906229247014
 30
0.0
 11
4765.5974006624446702
 21
241.2011721333389005
 31
0.0
  0
LINE
  5
DA97
  8
0
 10
4765.5974006624446702
 20
241.2011721333389005
 30
0.0
 11
4765.524031204120547
 21
241.1802906453170863
 31
0.0
  0
LINE
  5
DA98
  8
0
 10
4765.524031204120547
 20
241.1802906453170863
 30
0.0
 11
4765.5063752089481568
 21
241.201173429863303
 31
0.0
  0
LINE
  5
DA99
  8
0
 10
4765.5063752089481568
 20
241.201173429863303
 30
0.0
 11
4765.4369841051657204
 21
241.1802966566390865
 31
0.0
  0
LINE
  5
DA9A
  8
0
 10
4765.4369841051657204
 20
241.1802966566390865
 30
0.0
 11
4765.4143595855111926
 21
241.2011734218997105
 31
0.0
  0
LINE
  5
DA9B
  8
0
 10
4765.4143595855111926
 20
241.2011734218997105
 30
0.0
 11
4765.3491286991657034
 21
241.1803015423070917
 31
0.0
  0
LINE
  5
DA9C
  8
0
 10
4765.3491286991657034
 20
241.1803015423070917
 30
0.0
 11
4765.3215342163475725
 21
241.201173413866087
 31
0.0
  0
LINE
  5
DA9D
  8
0
 10
4765.3215342163475725
 20
241.201173413866087
 30
0.0
 11
4765.2606259182657595
 21
241.1803027856807091
 31
0.0
  0
LINE
  5
DA9E
  8
0
 10
4765.2606259182657595
 20
241.1803027856807091
 30
0.0
 11
4765.2280776622874328
 21
241.2011734057778938
 31
0.0
  0
LINE
  5
DA9F
  8
0
 10
4765.2280776622874328
 20
241.2011734057778938
 30
0.0
 11
4765.1716378844657811
 21
241.1802990505175046
 31
0.0
  0
LINE
  5
DAA0
  8
0
 10
4765.1716378844657811
 20
241.1802990505175046
 30
0.0
 11
4765.1341697382185885
 21
241.201173397650507
 31
0.0
  0
LINE
  5
DAA1
  8
0
 10
4765.1341697382185885
 20
241.201173397650507
 30
0.0
 11
4765.082327587171676
 21
241.1802930411828072
 31
0.0
  0
LINE
  5
DAA2
  8
0
 10
4765.082327587171676
 20
241.1802930411828072
 30
0.0
 11
4765.0399868166432498
 21
241.2011733894993881
 31
0.0
  0
LINE
  5
DAA3
  8
0
 10
4765.0399868166432498
 20
241.2011733894993881
 30
0.0
 11
4764.9957093812663516
 21
241.180289892807707
 31
0.0
  0
LINE
  5
DAA4
  8
0
 10
4766.1339741258434515
 20
241.2005431690305102
 30
0.0
 11
4766.0888599759309727
 21
241.1870902656903013
 31
0.0
  0
LINE
  5
DAA5
  8
0
 10
4766.0888599759309727
 20
241.0412146479175135
 30
0.0
 11
4766.0888599759309727
 21
241.2011738909675103
 31
0.0
  0
LINE
  5
DAA6
  8
0
 10
4766.0888595838368929
 20
241.2011738909675103
 30
0.0
 11
4766.0315920958955758
 21
241.1839432137691119
 31
0.0
  0
LINE
  5
DAA7
  8
0
 10
4766.0315920958955758
 20
241.0412146479175135
 30
0.0
 11
4766.0315920958955758
 21
241.2011738909675103
 31
0.0
  0
LINE
  5
DAA8
  8
0
 10
4765.9481072172011409
 20
241.1817209754730129
 30
0.0
 11
4766.0315920958955758
 21
241.2010531974252956
 31
0.0
  0
LINE
  5
DAA9
  8
0
 10
4765.9481072172011409
 20
241.0412146479175135
 30
0.0
 11
4765.9481072172011409
 21
241.2011738909675103
 31
0.0
  0
LINE
  5
DAAA
  8
0
 10
4765.8627766948029603
 20
241.180637879911103
 30
0.0
 11
4765.9481072172011409
 21
241.2010584175492909
 31
0.0
  0
LINE
  5
DAAB
  8
0
 10
4765.8627766948029603
 20
241.0412146479175135
 30
0.0
 11
4765.8627766948029603
 21
241.2011738909675103
 31
0.0
  0
LINE
  5
DAAC
  8
0
 10
4765.7787373731671323
 20
241.0620921937675121
 30
0.0
 11
4765.7787373731671323
 21
241.1802963451175117
 31
0.0
  0
LINE
  5
DAAD
  8
0
 10
4765.7757697221777562
 20
241.0412146479175135
 30
0.0
 11
4765.7757697221777562
 21
241.2011738909675103
 31
0.0
  0
LINE
  5
DAAE
  8
0
 10
4765.6950644824646588
 20
241.0620941650674922
 30
0.0
 11
4765.6950644824646588
 21
241.1802943738175031
 31
0.0
  0
LINE
  5
DAAF
  8
0
 10
4765.6872545546311812
 20
241.0412146479175135
 30
0.0
 11
4765.6872545546311812
 21
241.2011738909675103
 31
0.0
  0
LINE
  5
DAB0
  8
0
 10
4765.6098581280411963
 20
241.0616829604987004
 30
0.0
 11
4765.6098581280411963
 21
241.180705578386295
 31
0.0
  0
LINE
  5
DAB1
  8
0
 10
4765.5973993099878498
 20
241.0412146479175135
 30
0.0
 11
4765.5973993099878498
 21
241.2011738909675103
 31
0.0
  0
LINE
  5
DAB2
  8
0
 10
4765.5240312040750723
 20
241.0620978935145899
 30
0.0
 11
4765.5240312040750723
 21
241.1802906453704054
 31
0.0
  0
LINE
  5
DAB3
  8
0
 10
4765.5063723156472406
 20
241.0412146479175135
 30
0.0
 11
4765.5063723156472406
 21
241.2011738909675103
 31
0.0
  0
LINE
  5
DAB4
  8
0
 10
4765.4369841051657204
 20
241.0620918822459089
 30
0.0
 11
4765.4369841051657204
 21
241.1802966566390865
 31
0.0
  0
LINE
  5
DAB5
  8
0
 10
4765.4143514705683629
 20
241.0412146479175135
 30
0.0
 11
4765.4143521942633015
 21
241.2011738909675103
 31
0.0
  0
LINE
  5
DAB6
  8
0
 10
4765.3215234972758481
 20
241.0412146479175135
 30
0.0
 11
4765.3215234972758481
 21
241.2011738909675103
 31
0.0
  0
LINE
  5
DAB7
  8
0
 10
4765.3491286991657034
 20
241.0620869965779036
 30
0.0
 11
4765.3491286991657034
 21
241.1803015423070917
 31
0.0
  0
LINE
  5
DAB8
  8
0
 10
4765.2606259182657595
 20
241.0620857532042862
 30
0.0
 11
4765.2606259182657595
 21
241.1803027856807091
 31
0.0
  0
LINE
  5
DAB9
  8
0
 10
4765.2280677051930979
 20
241.0412146479175135
 30
0.0
 11
4765.2280677051930979
 21
241.2011738909675103
 31
0.0
  0
LINE
  5
DABA
  8
0
 10
4765.1716378844657811
 20
241.0620894883674907
 30
0.0
 11
4765.1716378844657811
 21
241.1802990505175046
 31
0.0
  0
LINE
  5
DABB
  8
0
 10
4765.1341634354803318
 20
241.0412146479175135
 30
0.0
 11
4765.1341634354803318
 21
241.2011738909675103
 31
0.0
  0
LINE
  5
DABC
  8
0
 10
4765.082327587166219
 20
241.0620954977046893
 30
0.0
 11
4765.082327587166219
 21
241.1802930411801924
 31
0.0
  0
LINE
  5
DABD
  8
0
 10
4765.0399903889938287
 20
241.0412146479175135
 30
0.0
 11
4765.0399903889938287
 21
241.2011738909675103
 31
0.0
  0
LINE
  5
DABE
  8
0
 10
4765.8627766948029603
 20
241.0413273160592098
 30
0.0
 11
4765.7787373731671323
 21
241.0620921937675121
 31
0.0
  0
LINE
  5
DABF
  8
0
 10
4765.7787373731671323
 20
241.0620921937675121
 30
0.0
 11
4765.7757760920158034
 21
241.0412150857061988
 31
0.0
  0
LINE
  5
DAC0
  8
0
 10
4765.7757760920158034
 20
241.0412150857061988
 30
0.0
 11
4765.6950644824646588
 21
241.0620941650674922
 31
0.0
  0
LINE
  5
DAC1
  8
0
 10
4765.6950644824646588
 20
241.0620941650674922
 30
0.0
 11
4765.6872522368366845
 21
241.0412150933676116
 31
0.0
  0
LINE
  5
DAC2
  8
0
 10
4765.6872522368366845
 20
241.0412150933676116
 30
0.0
 11
4765.610110700758014
 21
241.0620979159602086
 31
0.0
  0
LINE
  5
DAC3
  8
0
 10
4765.610110700758014
 20
241.0620979159602086
 30
0.0
 11
4765.5974006624446702
 21
241.0412164055460948
 31
0.0
  0
LINE
  5
DAC4
  8
0
 10
4765.5974006624446702
 20
241.0412164055460948
 30
0.0
 11
4765.524031204120547
 21
241.0620978935679091
 31
0.0
  0
LINE
  5
DAC5
  8
0
 10
4765.524031204120547
 20
241.0620978935679091
 30
0.0
 11
4765.5063752089481568
 21
241.0412151090216923
 31
0.0
  0
LINE
  5
DAC6
  8
0
 10
4765.5063752089481568
 20
241.0412151090216923
 30
0.0
 11
4765.4369841051657204
 21
241.0620918822459089
 31
0.0
  0
LINE
  5
DAC7
  8
0
 10
4765.4369841051657204
 20
241.0620918822459089
 30
0.0
 11
4765.4143595855111926
 21
241.0412151169853132
 31
0.0
  0
LINE
  5
DAC8
  8
0
 10
4765.4143595855111926
 20
241.0412151169853132
 30
0.0
 11
4765.3491286991657034
 21
241.0620869965779036
 31
0.0
  0
LINE
  5
DAC9
  8
0
 10
4765.3491286991657034
 20
241.0620869965779036
 30
0.0
 11
4765.3215342163475725
 21
241.0412151250189083
 31
0.0
  0
LINE
  5
DACA
  8
0
 10
4765.3215342163475725
 20
241.0412151250189083
 30
0.0
 11
4765.2606259182657595
 21
241.0620857532042862
 31
0.0
  0
LINE
  5
DACB
  8
0
 10
4765.2606259182657595
 20
241.0620857532042862
 30
0.0
 11
4765.2280776622874328
 21
241.0412151331071868
 31
0.0
  0
LINE
  5
DACC
  8
0
 10
4765.2280776622874328
 20
241.0412151331071868
 30
0.0
 11
4765.1716378844657811
 21
241.0620894883674907
 31
0.0
  0
LINE
  5
DACD
  8
0
 10
4765.1716378844657811
 20
241.0620894883674907
 30
0.0
 11
4765.1341697382185885
 21
241.0412151412344883
 31
0.0
  0
LINE
  5
DACE
  8
0
 10
4765.1341697382185885
 20
241.0412151412344883
 30
0.0
 11
4765.082327587171676
 21
241.0620954977021881
 31
0.0
  0
LINE
  5
DACF
  8
0
 10
4765.082327587171676
 20
241.0620954977021881
 30
0.0
 11
4765.0399868166432498
 21
241.0412151493856072
 31
0.0
  0
LINE
  5
DAD0
  8
0
 10
4765.0399868166432498
 20
241.0412151493856072
 30
0.0
 11
4764.9957093812663516
 21
241.062098646077402
 31
0.0
  0
LINE
  5
DAD1
  8
0
 10
4766.1339741258434515
 20
241.0418453698545136
 30
0.0
 11
4766.0888599759309727
 21
241.0552982731946088
 31
0.0
  0
LINE
  5
DAD2
  8
0
 10
4766.0888595838368929
 20
241.0412146479175135
 30
0.0
 11
4766.0315920958955758
 21
241.0584453251159118
 31
0.0
  0
LINE
  5
DAD3
  8
0
 10
4765.9481072172011409
 20
241.0606675634120961
 30
0.0
 11
4766.0315920958955758
 21
241.0413353414596997
 31
0.0
  0
LINE
  5
DAD4
  8
0
 10
4765.8627766948029603
 20
241.0617506589738923
 30
0.0
 11
4765.9481072172011409
 21
241.0413301213357045
 31
0.0
  0
LINE
  5
DAD5
  8
0
 10
4765.8627766948029603
 20
241.0411019797759025
 30
0.0
 11
4765.7787373731671323
 21
241.0203371020674865
 31
0.0
  0
LINE
  5
DAD6
  8
0
 10
4765.7787373731671323
 20
241.0203371020674865
 30
0.0
 11
4765.7757760920158034
 21
241.0412142101287998
 31
0.0
  0
LINE
  5
DAD7
  8
0
 10
4765.7757760920158034
 20
241.0412142101287998
 30
0.0
 11
4765.6950644824646588
 21
241.0203351307675064
 31
0.0
  0
LINE
  5
DAD8
  8
0
 10
4765.6950644824646588
 20
241.0203351307675064
 30
0.0
 11
4765.6872522368366845
 21
241.0412142024675006
 31
0.0
  0
LINE
  5
DAD9
  8
0
 10
4765.6872522368366845
 20
241.0412142024675006
 30
0.0
 11
4765.610110700758014
 21
241.0203313798747047
 31
0.0
  0
LINE
  5
DADA
  8
0
 10
4765.610110700758014
 20
241.0203313798747047
 30
0.0
 11
4765.5974006624446702
 21
241.0412128902889037
 31
0.0
  0
LINE
  5
DADB
  8
0
 10
4765.5974006624446702
 20
241.0412128902889037
 30
0.0
 11
4765.524031204120547
 21
241.0203314022670895
 31
0.0
  0
LINE
  5
DADC
  8
0
 10
4765.524031204120547
 20
241.0203314022670895
 30
0.0
 11
4765.5063752089481568
 21
241.0412141868133062
 31
0.0
  0
LINE
  5
DADD
  8
0
 10
4765.5063752089481568
 20
241.0412141868133062
 30
0.0
 11
4765.4369841051657204
 21
241.0203374135890897
 31
0.0
  0
LINE
  5
DADE
  8
0
 10
4765.4369841051657204
 20
241.0203374135890897
 30
0.0
 11
4765.4143595855111926
 21
241.0412141788497138
 31
0.0
  0
LINE
  5
DADF
  8
0
 10
4765.4143595855111926
 20
241.0412141788497138
 30
0.0
 11
4765.3491286991657034
 21
241.020342299257095
 31
0.0
  0
LINE
  5
DAE0
  8
0
 10
4765.3491286991657034
 20
241.020342299257095
 30
0.0
 11
4765.3215342163475725
 21
241.0412141708160902
 31
0.0
  0
LINE
  5
DAE1
  8
0
 10
4765.3215342163475725
 20
241.0412141708160902
 30
0.0
 11
4765.2606259182657595
 21
241.0203435426307124
 31
0.0
  0
LINE
  5
DAE2
  8
0
 10
4765.2606259182657595
 20
241.0203435426307124
 30
0.0
 11
4765.2280776622874328
 21
241.0412141627278118
 31
0.0
  0
LINE
  5
DAE3
  8
0
 10
4765.2280776622874328
 20
241.0412141627278118
 30
0.0
 11
4765.1716378844657811
 21
241.0203398074675079
 31
0.0
  0
LINE
  5
DAE4
  8
0
 10
4765.1716378844657811
 20
241.0203398074675079
 30
0.0
 11
4765.1341697382185885
 21
241.0412141546005955
 31
0.0
  0
LINE
  5
DAE5
  8
0
 10
4765.1341697382185885
 20
241.0412141546005955
 30
0.0
 11
4765.082327587171676
 21
241.0203337981328104
 31
0.0
  0
LINE
  5
DAE6
  8
0
 10
4765.082327587171676
 20
241.0203337981328104
 30
0.0
 11
4765.0399868166432498
 21
241.0412141464493914
 31
0.0
  0
LINE
  5
DAE7
  8
0
 10
4765.0399868166432498
 20
241.0412141464493914
 30
0.0
 11
4764.9957093812663516
 21
241.0203306497577103
 31
0.0
  0
LINE
  5
DAE8
  8
0
 10
4766.1339741258434515
 20
241.0405839259805134
 30
0.0
 11
4766.0888599759309727
 21
241.0271310226403045
 31
0.0
  0
LINE
  5
DAE9
  8
0
 10
4766.0888599759309727
 20
240.8812554048674883
 30
0.0
 11
4766.0888599759309727
 21
241.0412146479175135
 31
0.0
  0
LINE
  5
DAEA
  8
0
 10
4766.0888595838368929
 20
241.0412146479175135
 30
0.0
 11
4766.0315920958955758
 21
241.0239839707190868
 31
0.0
  0
LINE
  5
DAEB
  8
0
 10
4766.0315920958955758
 20
240.8812554048674883
 30
0.0
 11
4766.0315920958955758
 21
241.0412146479175135
 31
0.0
  0
LINE
  5
DAEC
  8
0
 10
4765.9481072172011409
 20
241.0217617324229025
 30
0.0
 11
4766.0315920958955758
 21
241.0410939543752988
 31
0.0
  0
LINE
  5
DAED
  8
0
 10
4765.9481072172011409
 20
240.8812554048674883
 30
0.0
 11
4765.9481072172011409
 21
241.0412146479175135
 31
0.0
  0
LINE
  5
DAEE
  8
0
 10
4765.8627766948029603
 20
241.0206786368611063
 30
0.0
 11
4765.9481072172011409
 21
241.0410991744992941
 31
0.0
  0
LINE
  5
DAEF
  8
0
 10
4765.8627766948029603
 20
240.8812554048674883
 30
0.0
 11
4765.8627766948029603
 21
241.0412146479175135
 31
0.0
  0
LINE
  5
DAF0
  8
0
 10
4765.7787373731671323
 20
240.9021329507174869
 30
0.0
 11
4765.7787373731671323
 21
241.0203371020674865
 31
0.0
  0
LINE
  5
DAF1
  8
0
 10
4765.7757697221777562
 20
240.8812554048674883
 30
0.0
 11
4765.7757697221777562
 21
241.0412146479175135
 31
0.0
  0
LINE
  5
DAF2
  8
0
 10
4765.6950644824646588
 20
240.9021349220174955
 30
0.0
 11
4765.6950644824646588
 21
241.0203351307675064
 31
0.0
  0
LINE
  5
DAF3
  8
0
 10
4765.6872545546311812
 20
240.8812554048674883
 30
0.0
 11
4765.6872545546311812
 21
241.0412146479175135
 31
0.0
  0
LINE
  5
DAF4
  8
0
 10
4765.6098581280411963
 20
240.9017237174487889
 30
0.0
 11
4765.6098581280411963
 21
241.020746335336213
 31
0.0
  0
LINE
  5
DAF5
  8
0
 10
4765.5973993099878498
 20
240.8812554048674883
 30
0.0
 11
4765.5973993099878498
 21
241.0412146479175135
 31
0.0
  0
LINE
  5
DAF6
  8
0
 10
4765.5240312040750723
 20
240.9021386504645932
 30
0.0
 11
4765.5240312040750723
 21
241.0203314023204086
 31
0.0
  0
LINE
  5
DAF7
  8
0
 10
4765.5063723156472406
 20
240.8812554048674883
 30
0.0
 11
4765.5063723156472406
 21
241.0412146479175135
 31
0.0
  0
LINE
  5
DAF8
  8
0
 10
4765.4369841051657204
 20
240.9021326391959121
 30
0.0
 11
4765.4369841051657204
 21
241.0203374135890897
 31
0.0
  0
LINE
  5
DAF9
  8
0
 10
4765.4143514705683629
 20
240.8812554048674883
 30
0.0
 11
4765.4143521942633015
 21
241.0412146479175135
 31
0.0
  0
LINE
  5
DAFA
  8
0
 10
4765.3215234972758481
 20
240.8812554048674883
 30
0.0
 11
4765.3215234972758481
 21
241.0412146479175135
 31
0.0
  0
LINE
  5
DAFB
  8
0
 10
4765.3491286991657034
 20
240.9021277535279069
 30
0.0
 11
4765.3491286991657034
 21
241.020342299257095
 31
0.0
  0
LINE
  5
DAFC
  8
0
 10
4765.2606259182657595
 20
240.9021265101542895
 30
0.0
 11
4765.2606259182657595
 21
241.0203435426307124
 31
0.0
  0
LINE
  5
DAFD
  8
0
 10
4765.2280677051930979
 20
240.8812554048674883
 30
0.0
 11
4765.2280677051930979
 21
241.0412146479175135
 31
0.0
  0
LINE
  5
DAFE
  8
0
 10
4765.1716378844657811
 20
240.902130245317494
 30
0.0
 11
4765.1716378844657811
 21
241.0203398074675079
 31
0.0
  0
LINE
  5
DAFF
  8
0
 10
4765.1341634354803318
 20
240.8812554048674883
 30
0.0
 11
4765.1341634354803318
 21
241.0412146479175135
 31
0.0
  0
LINE
  5
DB00
  8
0
 10
4765.082327587166219
 20
240.9021362546546925
 30
0.0
 11
4765.082327587166219
 21
241.0203337981303093
 31
0.0
  0
LINE
  5
DB01
  8
0
 10
4765.0399903889938287
 20
240.8812554048674883
 30
0.0
 11
4765.0399903889938287
 21
241.0412146479175135
 31
0.0
  0
LINE
  5
DB02
  8
0
 10
4765.8627766948029603
 20
240.8813680730090994
 30
0.0
 11
4765.7787373731671323
 21
240.9021329507174869
 31
0.0
  0
LINE
  5
DB03
  8
0
 10
4765.7787373731671323
 20
240.9021329507174869
 30
0.0
 11
4765.7757760920158034
 21
240.881255842656202
 31
0.0
  0
LINE
  5
DB04
  8
0
 10
4765.7757760920158034
 20
240.881255842656202
 30
0.0
 11
4765.6950644824646588
 21
240.9021349220174955
 31
0.0
  0
LINE
  5
DB05
  8
0
 10
4765.6950644824646588
 20
240.9021349220174955
 30
0.0
 11
4765.6872522368366845
 21
240.8812558503175012
 31
0.0
  0
LINE
  5
DB06
  8
0
 10
4765.6872522368366845
 20
240.8812558503175012
 30
0.0
 11
4765.610110700758014
 21
240.9021386729102971
 31
0.0
  0
LINE
  5
DB07
  8
0
 10
4765.610110700758014
 20
240.9021386729102971
 30
0.0
 11
4765.5974006624446702
 21
240.8812571624960981
 31
0.0
  0
LINE
  5
DB08
  8
0
 10
4765.5974006624446702
 20
240.8812571624960981
 30
0.0
 11
4765.524031204120547
 21
240.9021386505179123
 31
0.0
  0
LINE
  5
DB09
  8
0
 10
4765.524031204120547
 20
240.9021386505179123
 30
0.0
 11
4765.5063752089481568
 21
240.8812558659716956
 31
0.0
  0
LINE
  5
DB0A
  8
0
 10
4765.5063752089481568
 20
240.8812558659716956
 30
0.0
 11
4765.4369841051657204
 21
240.9021326391959121
 31
0.0
  0
LINE
  5
DB0B
  8
0
 10
4765.4369841051657204
 20
240.9021326391959121
 30
0.0
 11
4765.4143595855111926
 21
240.881255873935288
 31
0.0
  0
LINE
  5
DB0C
  8
0
 10
4765.4143595855111926
 20
240.881255873935288
 30
0.0
 11
4765.3491286991657034
 21
240.9021277535279069
 31
0.0
  0
LINE
  5
DB0D
  8
0
 10
4765.3491286991657034
 20
240.9021277535279069
 30
0.0
 11
4765.3215342163475725
 21
240.8812558819689116
 31
0.0
  0
LINE
  5
DB0E
  8
0
 10
4765.3215342163475725
 20
240.8812558819689116
 30
0.0
 11
4765.2606259182657595
 21
240.9021265101542895
 31
0.0
  0
LINE
  5
DB0F
  8
0
 10
4765.2606259182657595
 20
240.9021265101542895
 30
0.0
 11
4765.2280776622874328
 21
240.8812558900571901
 31
0.0
  0
LINE
  5
DB10
  8
0
 10
4765.2280776622874328
 20
240.8812558900571901
 30
0.0
 11
4765.1716378844657811
 21
240.902130245317494
 31
0.0
  0
LINE
  5
DB11
  8
0
 10
4765.1716378844657811
 20
240.902130245317494
 30
0.0
 11
4765.1341697382185885
 21
240.8812558981844063
 31
0.0
  0
LINE
  5
DB12
  8
0
 10
4765.1341697382185885
 20
240.8812558981844063
 30
0.0
 11
4765.082327587171676
 21
240.9021362546521914
 31
0.0
  0
LINE
  5
DB13
  8
0
 10
4765.082327587171676
 20
240.9021362546521914
 30
0.0
 11
4765.0399868166432498
 21
240.8812559063356105
 31
0.0
  0
LINE
  5
DB14
  8
0
 10
4765.0399868166432498
 20
240.8812559063356105
 30
0.0
 11
4764.9957093812663516
 21
240.9021394030272916
 31
0.0
  0
LINE
  5
DB15
  8
0
 10
4766.1339741258434515
 20
240.8818861268044884
 30
0.0
 11
4766.0888599759309727
 21
240.8953390301446973
 31
0.0
  0
LINE
  5
DB16
  8
0
 10
4766.0888595838368929
 20
240.8812554048674883
 30
0.0
 11
4766.0315920958955758
 21
240.8984860820658866
 31
0.0
  0
LINE
  5
DB17
  8
0
 10
4765.9481072172011409
 20
240.9007083203620994
 30
0.0
 11
4766.0315920958955758
 21
240.881376098409703
 31
0.0
  0
LINE
  5
DB18
  8
0
 10
4765.8627766948029603
 20
240.9017914159238956
 30
0.0
 11
4765.9481072172011409
 21
240.8813708782857077
 31
0.0
  0
LINE
  5
DB19
  8
0
 10
4765.8627765034680124
 20
239.8550702116338016
 30
0.0
 11
4765.7787371818303654
 21
239.8343053339254141
 31
0.0
  0
LINE
  5
DB1A
  8
0
 10
4765.7787371818303654
 20
239.8343053339254141
 30
0.0
 11
4765.7757759006799461
 21
239.8551824419866989
 31
0.0
  0
LINE
  5
DB1B
  8
0
 10
4765.7757759006799461
 20
239.8551824419866989
 30
0.0
 11
4765.6950642911288014
 21
239.8343033626254055
 31
0.0
  0
LINE
  5
DB1C
  8
0
 10
4765.6950642911288014
 20
239.8343033626254055
 30
0.0
 11
4765.6872520455008271
 21
239.8551824343253998
 31
0.0
  0
LINE
  5
DB1D
  8
0
 10
4765.6872520455008271
 20
239.8551824343253998
 30
0.0
 11
4765.6101105094221566
 21
239.8342996117326891
 31
0.0
  0
LINE
  5
DB1E
  8
0
 10
4765.6101105094221566
 20
239.8342996117326891
 30
0.0
 11
4765.5974004711088128
 21
239.8551811221468029
 31
0.0
  0
LINE
  5
DB1F
  8
0
 10
4765.5974004711088128
 20
239.8551811221468029
 30
0.0
 11
4765.5240310127837802
 21
239.8342996341249886
 31
0.0
  0
LINE
  5
DB20
  8
0
 10
4765.5240310127837802
 20
239.8342996341249886
 30
0.0
 11
4765.5063750176122994
 21
239.8551824186712054
 31
0.0
  0
LINE
  5
DB21
  8
0
 10
4765.5063750176122994
 20
239.8551824186712054
 30
0.0
 11
4765.4369839138289535
 21
239.8343056454469888
 31
0.0
  0
LINE
  5
DB22
  8
0
 10
4765.4369839138289535
 20
239.8343056454469888
 30
0.0
 11
4765.4143593941753352
 21
239.8551824107076982
 31
0.0
  0
LINE
  5
DB23
  8
0
 10
4765.4143593941753352
 20
239.8551824107076982
 30
0.0
 11
4765.3491285078289366
 21
239.8343105311149941
 31
0.0
  0
LINE
  5
DB24
  8
0
 10
4765.3491285078289366
 20
239.8343105311149941
 30
0.0
 11
4765.3215340250117151
 21
239.8551824026739894
 31
0.0
  0
LINE
  5
DB25
  8
0
 10
4765.3215340250117151
 20
239.8551824026739894
 30
0.0
 11
4765.2606257269299022
 21
239.8343117744886115
 31
0.0
  0
LINE
  5
DB26
  8
0
 10
4765.2606257269299022
 20
239.8343117744886115
 30
0.0
 11
4765.2280774709506659
 21
239.8551823945857961
 31
0.0
  0
LINE
  5
DB27
  8
0
 10
4765.2280774709506659
 20
239.8551823945857961
 30
0.0
 11
4765.1716376931290142
 21
239.834308039325407
 31
0.0
  0
LINE
  5
DB28
  8
0
 10
4765.1716376931290142
 20
239.834308039325407
 30
0.0
 11
4765.1341695468827311
 21
239.8551823864584946
 31
0.0
  0
LINE
  5
DB29
  8
0
 10
4765.1341695468827311
 20
239.8551823864584946
 30
0.0
 11
4765.0823273958367281
 21
239.8343020299907096
 31
0.0
  0
LINE
  5
DB2A
  8
0
 10
4765.0823273958367281
 20
239.8343020299907096
 30
0.0
 11
4765.0399866253073924
 21
239.8551823783074042
 31
0.0
  0
LINE
  5
DB2B
  8
0
 10
4765.0399866253073924
 20
239.8551823783074042
 30
0.0
 11
4764.9957091899295847
 21
239.8342988816156094
 31
0.0
  0
LINE
  5
DB2C
  8
0
 10
4766.1339739345066846
 20
239.8545521578384125
 30
0.0
 11
4766.0888597845951153
 21
239.8410992544982889
 31
0.0
  0
LINE
  5
DB2D
  8
0
 10
4766.0888597845951153
 20
239.5717071309258017
 30
0.0
 11
4766.0888597845951153
 21
239.8551828797754126
 31
0.0
  0
LINE
  5
DB2E
  8
0
 10
4766.088859392501945
 20
239.8551828797754126
 30
0.0
 11
4766.0315919045597184
 21
239.8379522025769859
 31
0.0
  0
LINE
  5
DB2F
  8
0
 10
4766.0315919045597184
 20
239.5718278290823093
 30
0.0
 11
4766.0315919045597184
 21
239.8551828797754126
 31
0.0
  0
LINE
  5
DB30
  8
0
 10
4765.948107025866193
 20
239.8357299642808869
 30
0.0
 11
4766.0315919045597184
 21
239.855062186233198
 31
0.0
  0
LINE
  5
DB31
  8
0
 10
4765.948107025866193
 20
239.5718226091125871
 30
0.0
 11
4765.948107025866193
 21
239.8551828797754126
 31
0.0
  0
LINE
  5
DB32
  8
0
 10
4765.8627765034680124
 20
239.8346468687190054
 30
0.0
 11
4765.948107025866193
 21
239.8550674063573069
 31
0.0
  0
LINE
  5
DB33
  8
0
 10
4765.8627765034680124
 20
239.5718198039909907
 30
0.0
 11
4765.8627765034680124
 21
239.8551828797754126
 31
0.0
  0
LINE
  5
DB34
  8
0
 10
4765.7787371818303654
 20
239.5925845362953055
 30
0.0
 11
4765.7787371818303654
 21
239.8343053339254141
 31
0.0
  0
LINE
  5
DB35
  8
0
 10
4765.7757695308428083
 20
239.5717092216659125
 30
0.0
 11
4765.7757695308428083
 21
239.8551828797754126
 31
0.0
  0
LINE
  5
DB36
  8
0
 10
4765.6950642911288014
 20
239.5925865948208013
 30
0.0
 11
4765.6950642911288014
 21
239.8343033626254055
 31
0.0
  0
LINE
  5
DB37
  8
0
 10
4765.6872543632953239
 20
239.5717137176746121
 30
0.0
 11
4765.6872543632953239
 21
239.8551828797754126
 31
0.0
  0
LINE
  5
DB38
  8
0
 10
4765.6098579367053389
 20
239.5921754107698973
 30
0.0
 11
4765.6098579367053389
 21
239.8347145671941973
 31
0.0
  0
LINE
  5
DB39
  8
0
 10
4765.5973991186519925
 20
239.5717092791448124
 30
0.0
 11
4765.5973991186519925
 21
239.8551828797754126
 31
0.0
  0
LINE
  5
DB3A
  8
0
 10
4765.5240310127401244
 20
239.5925903529549998
 30
0.0
 11
4765.5240310127401244
 21
239.8342996341783078
 31
0.0
  0
LINE
  5
DB3B
  8
0
 10
4765.5063721243122927
 20
239.571708468493398
 30
0.0
 11
4765.5063721243122927
 21
239.8551828797754126
 31
0.0
  0
LINE
  5
DB3C
  8
0
 10
4765.4369839138289535
 20
239.5925843468673122
 30
0.0
 11
4765.4369839138289535
 21
239.8343056454469888
 31
0.0
  0
LINE
  5
DB3D
  8
0
 10
4765.4143507204280468
 20
239.5717103817019051
 30
0.0
 11
4765.4143520029274441
 21
239.8551828797754126
 31
0.0
  0
LINE
  5
DB3E
  8
0
 10
4765.3215233059399907
 20
239.5717112878155888
 30
0.0
 11
4765.3215233059399907
 21
239.8551828797754126
 31
0.0
  0
LINE
  5
DB3F
  8
0
 10
4765.3491285078289366
 20
239.5925794645145004
 30
0.0
 11
4765.3491285078289366
 21
239.8343105311149941
 31
0.0
  0
LINE
  5
DB40
  8
0
 10
4765.2606257269299022
 20
239.592578223435595
 30
0.0
 11
4765.2606257269299022
 21
239.8343117744886115
 31
0.0
  0
LINE
  5
DB41
  8
0
 10
4765.2280675138581501
 20
239.5717113061344037
 30
0.0
 11
4765.2280675138581501
 21
239.8551828797754126
 31
0.0
  0
LINE
  5
DB42
  8
0
 10
4765.1716376931290142
 20
239.5925819602744866
 30
0.0
 11
4765.1716376931290142
 21
239.834308039325407
 31
0.0
  0
LINE
  5
DB43
  8
0
 10
4765.134163244143565
 20
239.5717101708098085
 30
0.0
 11
4765.134163244143565
 21
239.8551828797754126
 31
0.0
  0
LINE
  5
DB44
  8
0
 10
4765.0823273958303616
 20
239.5925879708807997
 30
0.0
 11
4765.0823273958303616
 21
239.8343020299882085
 31
0.0
  0
LINE
  5
DB45
  8
0
 10
4765.0399901976588808
 20
239.5717093842721113
 30
0.0
 11
4765.0399901976588808
 21
239.8551828797754126
 31
0.0
  0
LINE
  5
DB46
  8
0
 10
4765.8627765233941318
 20
239.5718197990674128
 30
0.0
 11
4765.7787372017555754
 21
239.5925846767758003
 31
0.0
  0
LINE
  5
DB47
  8
0
 10
4765.7787372017555754
 20
239.5925846767758003
 30
0.0
 11
4765.7757759206060655
 21
239.571707568714487
 31
0.0
  0
LINE
  5
DB48
  8
0
 10
4765.7757759206060655
 20
239.571707568714487
 30
0.0
 11
4765.6950643110558303
 21
239.5925866480758089
 31
0.0
  0
LINE
  5
DB49
  8
0
 10
4765.6950643110558303
 20
239.5925866480758089
 30
0.0
 11
4765.687252065427856
 21
239.5717075763758999
 31
0.0
  0
LINE
  5
DB4A
  8
0
 10
4765.687252065427856
 20
239.5717075763758999
 30
0.0
 11
4765.610110529348276
 21
239.5925903989686105
 31
0.0
  0
LINE
  5
DB4B
  8
0
 10
4765.610110529348276
 20
239.5925903989686105
 30
0.0
 11
4765.5974004910340227
 21
239.5717088885544968
 31
0.0
  0
LINE
  5
DB4C
  8
0
 10
4765.5974004910340227
 20
239.5717088885544968
 30
0.0
 11
4765.5240310327108091
 21
239.5925903765761973
 31
0.0
  0
LINE
  5
DB4D
  8
0
 10
4765.5240310327108091
 20
239.5925903765761973
 30
0.0
 11
4765.5063750375384188
 21
239.5717075920300942
 31
0.0
  0
LINE
  5
DB4E
  8
0
 10
4765.5063750375384188
 20
239.5717075920300942
 30
0.0
 11
4765.4369839337559824
 21
239.5925843652541971
 31
0.0
  0
LINE
  5
DB4F
  8
0
 10
4765.4369839337559824
 20
239.5925843652541971
 30
0.0
 11
4765.4143594141014546
 21
239.5717075999936014
 31
0.0
  0
LINE
  5
DB50
  8
0
 10
4765.4143594141014546
 20
239.5717075999936014
 30
0.0
 11
4765.3491285277559655
 21
239.5925794795861918
 31
0.0
  0
LINE
  5
DB51
  8
0
 10
4765.3491285277559655
 20
239.5925794795861918
 30
0.0
 11
4765.321534044938744
 21
239.5717076080271966
 31
0.0
  0
LINE
  5
DB52
  8
0
 10
4765.321534044938744
 20
239.5717076080271966
 30
0.0
 11
4765.2606257468560216
 21
239.5925782362126881
 31
0.0
  0
LINE
  5
DB53
  8
0
 10
4765.2606257468560216
 20
239.5925782362126881
 30
0.0
 11
4765.2280774908767853
 21
239.5717076161155035
 31
0.0
  0
LINE
  5
DB54
  8
0
 10
4765.2280774908767853
 20
239.5717076161155035
 30
0.0
 11
4765.1716377130560431
 21
239.5925819713758074
 31
0.0
  0
LINE
  5
DB55
  8
0
 10
4765.1716377130560431
 20
239.5925819713758074
 30
0.0
 11
4765.13416956680976
 21
239.571707624242805
 31
0.0
  0
LINE
  5
DB56
  8
0
 10
4765.13416956680976
 20
239.571707624242805
 30
0.0
 11
4765.0823274157628475
 21
239.5925879807105048
 31
0.0
  0
LINE
  5
DB57
  8
0
 10
4765.0823274157628475
 20
239.5925879807105048
 30
0.0
 11
4765.0399866452326023
 21
239.5717076323938954
 31
0.0
  0
LINE
  5
DB58
  8
0
 10
4765.0399866452326023
 20
239.5717076323938954
 30
0.0
 11
4764.9957092098557041
 21
239.5925911290856902
 31
0.0
  0
LINE
  5
DB59
  8
0
 10
4766.1339739544337135
 20
239.5723378528628871
 30
0.0
 11
4766.0888598045212348
 21
239.5857907562030107
 31
0.0
  0
LINE
  5
DB5A
  8
0
 10
4766.0888594124280644
 20
239.5717071309258017
 30
0.0
 11
4766.0315919244867473
 21
239.5889378081243137
 31
0.0
  0
LINE
  5
DB5B
  8
0
 10
4765.9481070457914029
 20
239.5911600464204128
 30
0.0
 11
4766.0315919244867473
 21
239.5718278244681017
 31
0.0
  0
LINE
  5
DB5C
  8
0
 10
4765.8627765233941318
 20
239.5922431419822942
 30
0.0
 11
4765.9481070457914029
 21
239.5718226043439927
 31
0.0
  0
LINE
  5
DB5D
  8
0
 10
4764.9957093812663516
 20
240.6169631717459936
 30
0.0
 11
4765.6428877347771049
 21
239.8651828608174981
 31
0.0
  0
LINE
  5
DB5E
  8
0
 10
4765.1027430058520622
 20
240.8712554328174917
 30
0.0
 11
4765.1042918811508571
 21
240.7431008892517923
 31
0.0
  0
LINE
  5
DB5F
  8
0
 10
4765.1042918811508571
 20
240.7431008892517923
 30
0.0
 11
4765.1010535805644395
 21
240.6169635448175086
 31
0.0
  0
LINE
  5
DB60
  8
0
 10
4765.1010535805644395
 20
240.6169635448175086
 30
0.0
 11
4765.1031553390403133
 21
240.4921509695070085
 31
0.0
  0
LINE
  5
DB61
  8
0
 10
4765.1031553390403133
 20
240.4921509695070085
 30
0.0
 11
4765.1005004358976294
 21
240.3679868857674933
 31
0.0
  0
LINE
  5
DB62
  8
0
 10
4765.2057053958797042
 20
240.8712554328174917
 30
0.0
 11
4765.2041565205809093
 21
240.7431008892517923
 31
0.0
  0
LINE
  5
DB63
  8
0
 10
4765.2041565205809093
 20
240.7431008892517923
 30
0.0
 11
4765.2073948211682364
 21
240.6169635448175086
 31
0.0
  0
LINE
  5
DB64
  8
0
 10
4765.2073948211682364
 20
240.6169635448175086
 30
0.0
 11
4765.2052930626923626
 21
240.4921509695070085
 31
0.0
  0
LINE
  5
DB65
  8
0
 10
4765.2052930626923626
 20
240.4921509695070085
 30
0.0
 11
4765.2079479675467155
 21
240.3679868056821931
 31
0.0
  0
LINE
  5
DB66
  8
0
 10
4765.3156956462989911
 20
240.8712554328174917
 30
0.0
 11
4765.3203203648836279
 21
240.7430998224625966
 31
0.0
  0
LINE
  5
DB67
  8
0
 10
4765.3203203648836279
 20
240.7430998224625966
 30
0.0
 11
4765.3106432604608926
 21
240.6169616958183894
 31
0.0
  0
LINE
  5
DB68
  8
0
 10
4765.3106432604608926
 20
240.6169616958183894
 30
0.0
 11
4765.3169200298762007
 21
240.4921471765325975
 31
0.0
  0
LINE
  5
DB69
  8
0
 10
4765.3169200298762007
 20
240.4921471765325975
 30
0.0
 11
4765.3089889249422413
 21
240.3679868857674933
 31
0.0
  0
LINE
  5
DB6A
  8
0
 10
4765.431223446527838
 20
240.8712554328174917
 30
0.0
 11
4765.4171772813660937
 21
240.7438298111175072
 31
0.0
  0
LINE
  5
DB6B
  8
0
 10
4765.4171772813660937
 20
240.7438298111175072
 30
0.0
 11
4765.4243642735209505
 21
240.6169607588929011
 31
0.0
  0
LINE
  5
DB6C
  8
0
 10
4765.4243642735209505
 20
240.6169607588929011
 30
0.0
 11
4765.4126865640646429
 21
240.4921467720174917
 31
0.0
  0
LINE
  5
DB6D
  8
0
 10
4765.4126865640646429
 20
240.4921467720174917
 30
0.0
 11
4765.4221170597938908
 21
240.3679868857674933
 31
0.0
  0
LINE
  5
DB6E
  8
0
 10
4765.5141932153728703
 20
240.3679868857674933
 30
0.0
 11
4765.5273153544867455
 21
240.4921465915174963
 31
0.0
  0
LINE
  5
DB6F
  8
0
 10
4765.5273153544867455
 20
240.4921465915174963
 30
0.0
 11
4765.5180512877777801
 21
240.6187033201454142
 31
0.0
  0
LINE
  5
DB70
  8
0
 10
4765.5180512877777801
 20
240.6187033201454142
 30
0.0
 11
4765.5342067375659099
 21
240.7445605338174914
 31
0.0
  0
LINE
  5
DB71
  8
0
 10
4765.5342067375659099
 20
240.7445605338174914
 30
0.0
 11
4765.5252978947255542
 21
240.8712554328174917
 31
0.0
  0
LINE
  5
DB72
  8
0
 10
4765.6432695074727235
 20
240.8712554328174917
 30
0.0
 11
4765.6234788719739299
 21
240.745528131395389
 31
0.0
  0
LINE
  5
DB73
  8
0
 10
4765.6234788719739299
 20
240.745528131395389
 30
0.0
 11
4765.6355470032804078
 21
240.6198871039092921
 31
0.0
  0
LINE
  5
DB74
  8
0
 10
4765.6355470032804078
 20
240.6198871039092921
 30
0.0
 11
4765.617511547166032
 21
240.4943749848175116
 31
0.0
  0
LINE
  5
DB75
  8
0
 10
4765.617511547166032
 20
240.4943749848175116
 30
0.0
 11
4765.6297268666194213
 21
240.3679868857674933
 31
0.0
  0
LINE
  5
DB76
  8
0
 10
4765.7187405529930402
 20
240.3679868857674933
 30
0.0
 11
4765.735787367566445
 21
240.4965681027175037
 31
0.0
  0
LINE
  5
DB77
  8
0
 10
4765.735787367566445
 20
240.4965681027175037
 30
0.0
 11
4765.7218538218648973
 21
240.6220940960174914
 31
0.0
  0
LINE
  5
DB78
  8
0
 10
4765.7218538218648973
 20
240.6220940960174914
 30
0.0
 11
4765.7428192467768895
 21
240.7464954602374974
 31
0.0
  0
LINE
  5
DB79
  8
0
 10
4765.7428192467768895
 20
240.7464954602374974
 30
0.0
 11
4765.7293376637453548
 21
240.8712554328174917
 31
0.0
  0
LINE
  5
DB7A
  8
0
 10
4765.848525545479788
 20
240.8712554328174917
 30
0.0
 11
4765.8235648986646993
 21
240.7477177251174965
 31
0.0
  0
LINE
  5
DB7B
  8
0
 10
4765.8235648986646993
 20
240.7477177251174965
 30
0.0
 11
4765.8407265772930259
 21
240.6237946463133994
 31
0.0
  0
LINE
  5
DB7C
  8
0
 10
4765.8407265772930259
 20
240.6237946463133994
 30
0.0
 11
4765.8210935947663529
 21
240.4957594831174958
 31
0.0
  0
LINE
  5
DB7D
  8
0
 10
4765.8210935947663529
 20
240.4957594831174958
 30
0.0
 11
4765.8403020027881212
 21
240.3679868857674933
 31
0.0
  0
LINE
  5
DB7E
  8
0
 10
4765.9217745103524067
 20
240.3679868857674933
 30
0.0
 11
4765.9435199128229215
 21
240.4949688712563045
 31
0.0
  0
LINE
  5
DB7F
  8
0
 10
4765.9435199128229215
 20
240.4949688712563045
 30
0.0
 11
4765.921975835264675
 21
240.6216799882174939
 31
0.0
  0
LINE
  5
DB80
  8
0
 10
4765.921975835264675
 20
240.6216799882174939
 30
0.0
 11
4765.9439518950512138
 21
240.7489409906822004
 31
0.0
  0
LINE
  5
DB81
  8
0
 10
4765.9439518950512138
 20
240.7489409906822004
 30
0.0
 11
4765.9256937785066839
 21
240.8712554328174917
 31
0.0
  0
LINE
  5
DB82
  8
0
 10
4766.0448424353307928
 20
240.8712554328174917
 30
0.0
 11
4766.0215078674664255
 21
240.7454382333174863
 31
0.0
  0
LINE
  5
DB83
  8
0
 10
4766.0215078674664255
 20
240.7454382333174863
 30
0.0
 11
4766.0448426701659628
 21
240.6196214602175019
 31
0.0
  0
LINE
  5
DB84
  8
0
 10
4766.0448426701659628
 20
240.6196214602175019
 30
0.0
 11
4766.020331017864919
 21
240.4938038356175127
 31
0.0
  0
LINE
  5
DB85
  8
0
 10
4766.020331017864919
 20
240.4938038356175127
 30
0.0
 11
4766.0448425387648967
 21
240.3679868857674933
 31
0.0
  0
LINE
  5
DB86
  8
0
 10
4766.1339741258434515
 20
240.8657322464092942
 30
0.0
 11
4766.0448426493521765
 21
240.6196215724345109
 31
0.0
  0
LINE
  5
DB87
  8
0
 10
4766.0448426493521765
 20
240.6196215724345109
 30
0.0
 11
4766.1339741258434515
 21
240.3723590693076915
 31
0.0
  0
LINE
  5
DB88
  8
0
 10
4766.0451371148819817
 20
240.3679868857674933
 30
0.0
 11
4766.1339741258434515
 21
240.619836148029691
 31
0.0
  0
LINE
  5
DB89
  8
0
 10
4766.1339741258434515
 20
240.6159606656879077
 30
0.0
 11
4766.0455886243380519
 21
240.8712554328174917
 31
0.0
  0
LINE
  5
DB8A
  8
0
 10
4765.1027430058520622
 20
239.8647183387174948
 30
0.0
 11
4765.1042918811508571
 21
239.9928728822831943
 31
0.0
  0
LINE
  5
DB8B
  8
0
 10
4765.1042918811508571
 20
239.9928728822831943
 30
0.0
 11
4765.1010535805644395
 21
240.1190102267175064
 31
0.0
  0
LINE
  5
DB8C
  8
0
 10
4765.1010535805644395
 20
240.1190102267175064
 30
0.0
 11
4765.1031553390403133
 21
240.2438228020280064
 31
0.0
  0
LINE
  5
DB8D
  8
0
 10
4765.1031553390403133
 20
240.2438228020280064
 30
0.0
 11
4765.1005004358976294
 21
240.3679868857674933
 31
0.0
  0
LINE
  5
DB8E
  8
0
 10
4765.2057053958797042
 20
239.8647183387174948
 30
0.0
 11
4765.2041565205809093
 21
239.9928728822831943
 31
0.0
  0
LINE
  5
DB8F
  8
0
 10
4765.2041565205809093
 20
239.9928728822831943
 30
0.0
 11
4765.2073948211682364
 21
240.1190102267175064
 31
0.0
  0
LINE
  5
DB90
  8
0
 10
4765.2073948211682364
 20
240.1190102267175064
 30
0.0
 11
4765.2052930626923626
 21
240.2438228020280064
 31
0.0
  0
LINE
  5
DB91
  8
0
 10
4765.2052930626923626
 20
240.2438228020280064
 30
0.0
 11
4765.2079479675467155
 21
240.3679869658529071
 31
0.0
  0
LINE
  5
DB92
  8
0
 10
4765.3156956462989911
 20
239.8647183387174948
 30
0.0
 11
4765.3203203648836279
 21
239.9928739490723899
 31
0.0
  0
LINE
  5
DB93
  8
0
 10
4765.3203203648836279
 20
239.9928739490723899
 30
0.0
 11
4765.3106432604608926
 21
240.1190120757165971
 31
0.0
  0
LINE
  5
DB94
  8
0
 10
4765.3106432604608926
 20
240.1190120757165971
 30
0.0
 11
4765.3169200298762007
 21
240.243826595002389
 31
0.0
  0
LINE
  5
DB95
  8
0
 10
4765.3169200298762007
 20
240.243826595002389
 30
0.0
 11
4765.3089889249422413
 21
240.3679868857674933
 31
0.0
  0
LINE
  5
DB96
  8
0
 10
4765.431223446527838
 20
239.8647183387174948
 30
0.0
 11
4765.4171772813660937
 21
239.9921439604175077
 31
0.0
  0
LINE
  5
DB97
  8
0
 10
4765.4171772813660937
 20
239.9921439604175077
 30
0.0
 11
4765.4243642735209505
 21
240.1190130126421138
 31
0.0
  0
LINE
  5
DB98
  8
0
 10
4765.4243642735209505
 20
240.1190130126421138
 30
0.0
 11
4765.4126865640646429
 21
240.2438269995174949
 31
0.0
  0
LINE
  5
DB99
  8
0
 10
4765.4126865640646429
 20
240.2438269995174949
 30
0.0
 11
4765.4221170597938908
 21
240.3679868857674933
 31
0.0
  0
LINE
  5
DB9A
  8
0
 10
4765.5141932153728703
 20
240.3679868857674933
 30
0.0
 11
4765.5273153544867455
 21
240.2438271800174903
 31
0.0
  0
LINE
  5
DB9B
  8
0
 10
4765.5273153544867455
 20
240.2438271800174903
 30
0.0
 11
4765.5180512877777801
 21
240.1172704513894871
 31
0.0
  0
LINE
  5
DB9C
  8
0
 10
4765.5180512877777801
 20
240.1172704513894871
 30
0.0
 11
4765.5342067375659099
 21
239.9914132377174951
 31
0.0
  0
LINE
  5
DB9D
  8
0
 10
4765.5342067375659099
 20
239.9914132377174951
 30
0.0
 11
4765.5252978947255542
 21
239.8647183387174948
 31
0.0
  0
LINE
  5
DB9E
  8
0
 10
4765.6432695074727235
 20
239.8647183387174948
 30
0.0
 11
4765.6234788719739299
 21
239.9904456401395976
 31
0.0
  0
LINE
  5
DB9F
  8
0
 10
4765.6234788719739299
 20
239.9904456401395976
 30
0.0
 11
4765.6355470032804078
 21
240.1160866676256944
 31
0.0
  0
LINE
  5
DBA0
  8
0
 10
4765.6355470032804078
 20
240.1160866676256944
 30
0.0
 11
4765.617511547166032
 21
240.2415987867175033
 31
0.0
  0
LINE
  5
DBA1
  8
0
 10
4765.617511547166032
 20
240.2415987867175033
 30
0.0
 11
4765.6297268666194213
 21
240.3679868857674933
 31
0.0
  0
LINE
  5
DBA2
  8
0
 10
4765.7187405529930402
 20
240.3679868857674933
 30
0.0
 11
4765.735787367566445
 21
240.2394056688175112
 31
0.0
  0
LINE
  5
DBA3
  8
0
 10
4765.735787367566445
 20
240.2394056688175112
 30
0.0
 11
4765.7218538218648973
 21
240.1138796755174951
 31
0.0
  0
LINE
  5
DBA4
  8
0
 10
4765.7218538218648973
 20
240.1138796755174951
 30
0.0
 11
4765.7428192467768895
 21
239.9894783112974892
 31
0.0
  0
LINE
  5
DBA5
  8
0
 10
4765.7428192467768895
 20
239.9894783112974892
 30
0.0
 11
4765.7293376637453548
 21
239.8647183387174948
 31
0.0
  0
LINE
  5
DBA6
  8
0
 10
4765.848525545479788
 20
239.8647183387174948
 30
0.0
 11
4765.8235648986646993
 21
239.9882560464174901
 31
0.0
  0
LINE
  5
DBA7
  8
0
 10
4765.8235648986646993
 20
239.9882560464174901
 30
0.0
 11
4765.8407265772930259
 21
240.1121791252215871
 31
0.0
  0
LINE
  5
DBA8
  8
0
 10
4765.8407265772930259
 20
240.1121791252215871
 30
0.0
 11
4765.8210935947663529
 21
240.2402142884174907
 31
0.0
  0
LINE
  5
DBA9
  8
0
 10
4765.8210935947663529
 20
240.2402142884174907
 30
0.0
 11
4765.8403020027881212
 21
240.3679868857674933
 31
0.0
  0
LINE
  5
DBAA
  8
0
 10
4765.9217745103524067
 20
240.3679868857674933
 30
0.0
 11
4765.9435199128229215
 21
240.2410049002787105
 31
0.0
  0
LINE
  5
DBAB
  8
0
 10
4765.9435199128229215
 20
240.2410049002787105
 30
0.0
 11
4765.921975835264675
 21
240.1142937833174926
 31
0.0
  0
LINE
  5
DBAC
  8
0
 10
4765.921975835264675
 20
240.1142937833174926
 30
0.0
 11
4765.9439518950512138
 21
239.9870327808527861
 31
0.0
  0
LINE
  5
DBAD
  8
0
 10
4765.9439518950512138
 20
239.9870327808527861
 30
0.0
 11
4765.9256937785066839
 21
239.8647183387174948
 31
0.0
  0
LINE
  5
DBAE
  8
0
 10
4766.0448424353307928
 20
239.8647183387174948
 30
0.0
 11
4766.0215078674664255
 21
239.9905355382175003
 31
0.0
  0
LINE
  5
DBAF
  8
0
 10
4766.0215078674664255
 20
239.9905355382175003
 30
0.0
 11
4766.0448426701659628
 21
240.1163523113175131
 31
0.0
  0
LINE
  5
DBB0
  8
0
 10
4766.0448426701659628
 20
240.1163523113175131
 30
0.0
 11
4766.020331017864919
 21
240.2421699359175022
 31
0.0
  0
LINE
  5
DBB1
  8
0
 10
4766.020331017864919
 20
240.2421699359175022
 30
0.0
 11
4766.0448425387648967
 21
240.3679868857674933
 31
0.0
  0
LINE
  5
DBB2
  8
0
 10
4766.1339741258434515
 20
239.8702415251256923
 30
0.0
 11
4766.0448426493521765
 21
240.1163521991005041
 31
0.0
  0
LINE
  5
DBB3
  8
0
 10
4766.0448426493521765
 20
240.1163521991005041
 30
0.0
 11
4766.1339741258434515
 21
240.3636147022272951
 31
0.0
  0
LINE
  5
DBB4
  8
0
 10
4766.0451371148819817
 20
240.3679868857674933
 30
0.0
 11
4766.1339741258434515
 21
240.1161376235052103
 31
0.0
  0
LINE
  5
DBB5
  8
0
 10
4766.1339741258434515
 20
240.1200131058471072
 30
0.0
 11
4766.0455886243380519
 21
239.8647183387174948
 31
0.0
  0
LINE
  5
DBB6
  8
0
 10
4765.8485135455439377
 20
239.8647183387174948
 30
0.0
 11
4764.9957093812663516
 21
240.871256275348486
 31
0.0
  0
LINE
  5
DBB7
  8
0
 10
4765.2146134462827831
 20
240.8712554328174917
 30
0.0
 11
4766.0448322176716829
 21
239.8647183387174948
 31
0.0
  0
LINE
  5
DBB8
  8
0
 10
4765.4312234433082267
 20
240.8712554328174917
 30
0.0
 11
4766.0448426380580713
 21
240.1163521382011936
 31
0.0
  0
LINE
  5
DBB9
  8
0
 10
4766.044842494524346
 20
240.3679868857674933
 30
0.0
 11
4765.6432696261226738
 21
240.8712554328174917
 31
0.0
  0
LINE
  5
DBBA
  8
0
 10
4765.8485248987171872
 20
240.8712554328174917
 30
0.0
 11
4766.0448425870881692
 21
240.6196210337874959
 31
0.0
  0
LINE
  5
DBBB
  8
0
 10
4765.8485397148788252
 20
239.8647183387174948
 30
0.0
 11
4766.044841698536402
 21
240.1163572986656902
 31
0.0
  0
LINE
  5
DBBC
  8
0
 10
4765.6432823451295917
 20
239.8647183387174948
 30
0.0
 11
4766.044842278733995
 21
240.3679882204982903
 31
0.0
  0
LINE
  5
DBBD
  8
0
 10
4765.4312365917112402
 20
239.8647183387174948
 30
0.0
 11
4766.0448424951900961
 21
240.6196224036580986
 31
0.0
  0
LINE
  5
DBBE
  8
0
 10
4765.2146257011318085
 20
239.8647183387174948
 30
0.0
 11
4766.0448406644027273
 21
240.8712554328174917
 31
0.0
  0
LINE
  5
DBBF
  8
0
 10
4764.9957234378944122
 20
239.8647183387174948
 30
0.0
 11
4765.848524244642249
 21
240.8712554328174917
 31
0.0
  0
LINE
  5
DBC0
  8
0
 10
4764.9957093812663516
 20
240.1190086530600922
 30
0.0
 11
4765.6432692187372595
 21
240.8712554328174917
 31
0.0
  0
LINE
  5
DBC1
  8
0
 10
4764.9957093812663516
 20
240.3679866341335867
 30
0.0
 11
4765.4312234269364126
 21
240.8712554328174917
 31
0.0
  0
LINE
  5
DBC2
  8
0
 10
4764.9957093812663516
 20
240.6169640174695132
 30
0.0
 11
4765.2055785516577089
 21
240.8607602926647928
 31
0.0
  0
LINE
  5
DBC3
  8
0
 10
4764.9957093812663516
 20
240.3679890549346112
 30
0.0
 11
4765.4312081733105515
 21
239.8647183387174948
 31
0.0
  0
LINE
  5
DBC4
  8
0
 10
4764.9957093812663516
 20
240.1189999155531041
 30
0.0
 11
4765.2055781318249501
 21
239.8752482159272859
 31
0.0
  0
ARC
  5
DBC5
  8
0
 10
4766.0842526474134502
 20
239.2781926247322986
 30
0.0
 40
0.0191876986760554
 50
90.8478284562534242
 51
177.9377549392949902
  0
LINE
  5
DBC6
  8
0
 10
4766.0650773761672099
 20
239.2788830978174985
 30
0.0
 11
4766.0650773761672099
 21
239.235573580817487
 31
0.0
  0
ARC
  5
DBC7
  8
0
 10
4766.014360826846314
 20
239.2358463087965106
 30
0.0
 40
0.0507172826102282
 50
277.5917159642534102
 51
359.6918952148453741
  0
ARC
  5
DBC8
  8
0
 10
4766.1007896124965555
 20
239.0105403479533948
 30
0.0
 40
0.0300802495892614
 50
93.2039054044177391
 51
179.9366992206055897
  0
ARC
  5
DBC9
  8
0
 10
4766.0606588426071539
 20
239.0105846847276894
 30
0.0
 40
0.0100505447929983
 50
275.0775974585791914
 51
359.9366992206055897
  0
LINE
  5
DBCA
  8
0
 10
4766.030709381266206
 20
239.0005735808175018
 30
0.0
 11
4766.030709381266206
 21
238.9805735808174916
 31
0.0
  0
ARC
  5
DBCB
  8
0
 10
4766.1166404383784538
 20
238.9428622540503113
 30
0.0
 40
0.0380330191525034
 50
32.3267389355578629
 51
82.5426554477929244
  0
ARC
  5
DBCC
  8
0
 10
4766.4310047345443309
 20
239.1630488682586986
 30
0.0
 40
0.3458192123177379
 50
215.3029054713258859
 51
258.0636708010898133
  0
ARC
  5
DBCD
  8
0
 10
4766.3537093813147294
 20
238.8055577804339009
 30
0.0
 40
0.0199999999506231
 50
359.9999999532017796
 51
73.227518660439074
  0
ARC
  5
DBCE
  8
0
 10
4766.3537093812656167
 20
238.6988576791175092
 30
0.0
 40
0.0199999999999985
 50
290.3805802773281926
 51
0.0
  0
ARC
  5
DBCF
  8
0
 10
4766.3857131065569774
 20
238.5912367845820086
 30
0.0
 40
0.0923326838638251
 50
105.7344062714048931
 51
162.3027571440200916
  0
ARC
  5
DBD0
  8
0
 10
4766.2878307888659037
 20
238.6205735808175064
 30
0.0
 40
0.0099999999999998
 50
270.0000000000521254
 51
352.7104290858637228
  0
LINE
  5
DBD1
  8
0
 10
4765.1003892675826137
 20
239.5631636740716885
 30
0.0
 11
4765.3196978511068664
 21
239.3084087456716986
 31
0.0
  0
LINE
  5
DBD2
  8
0
 10
4765.1031553390403133
 20
239.5599505288112141
 30
0.0
 11
4765.1005004358976294
 21
239.4357864450716988
 31
0.0
  0
LINE
  5
DBD3
  8
0
 10
4765.2052243585294491
 20
239.5631636740716885
 30
0.0
 11
4765.2079479675467155
 21
239.4357863649863134
 31
0.0
  0
LINE
  5
DBD4
  8
0
 10
4765.3169200298762007
 20
239.5599467358366894
 30
0.0
 11
4765.3089889249422413
 21
239.4357864450716988
 31
0.0
  0
LINE
  5
DBD5
  8
0
 10
4765.4124421925698698
 20
239.5631636740716885
 30
0.0
 11
4765.4221170597938908
 21
239.4357864450716988
 31
0.0
  0
LINE
  5
DBD6
  8
0
 10
4765.5141932153728703
 20
239.4357864450716988
 30
0.0
 11
4765.5273153544867455
 21
239.5599461508217018
 31
0.0
  0
LINE
  5
DBD7
  8
0
 10
4765.6174159484626216
 20
239.5631636740716885
 30
0.0
 11
4765.6297268666194213
 21
239.4357864450716988
 31
0.0
  0
LINE
  5
DBD8
  8
0
 10
4765.7187405529930402
 20
239.4357864450716988
 30
0.0
 11
4765.7356277473681985
 21
239.5631636740716885
 31
0.0
  0
LINE
  5
DBD9
  8
0
 10
4765.8210935947663529
 20
239.5635590424217014
 30
0.0
 11
4765.8403020027881212
 21
239.4357864450716988
 31
0.0
  0
LINE
  5
DBDA
  8
0
 10
4765.9217745103524067
 20
239.4357864450716988
 30
0.0
 11
4765.9435199128229215
 21
239.5627684305605101
 31
0.0
  0
LINE
  5
DBDB
  8
0
 10
4766.0200270459854437
 20
239.5631636740716885
 30
0.0
 11
4766.0448425387648967
 21
239.4357864450716988
 31
0.0
  0
LINE
  5
DBDC
  8
0
 10
4766.0451371148819817
 20
239.4357864450716988
 30
0.0
 11
4766.0900680080167149
 21
239.5631636740716885
 31
0.0
  0
LINE
  5
DBDD
  8
0
 10
4765.1031553390403133
 20
239.311622361332212
 30
0.0
 11
4765.1005004358976294
 21
239.4357864450716988
 31
0.0
  0
LINE
  5
DBDE
  8
0
 10
4765.2052243484704377
 20
239.3084087456716986
 30
0.0
 11
4765.2079479675467155
 21
239.435786525156999
 31
0.0
  0
LINE
  5
DBDF
  8
0
 10
4765.3169200298762007
 20
239.3116261543065946
 30
0.0
 11
4765.3089889249422413
 21
239.4357864450716988
 31
0.0
  0
LINE
  5
DBE0
  8
0
 10
4765.4124421568412799
 20
239.3084087456716986
 30
0.0
 11
4765.4221170597938908
 21
239.4357864450716988
 31
0.0
  0
LINE
  5
DBE1
  8
0
 10
4765.5141932153728703
 20
239.4357864450716988
 30
0.0
 11
4765.5273153544867455
 21
239.3116267393216958
 31
0.0
  0
LINE
  5
DBE2
  8
0
 10
4765.6174159029988004
 20
239.3084087456716986
 30
0.0
 11
4765.6297268666194213
 21
239.4357864450716988
 31
0.0
  0
LINE
  5
DBE3
  8
0
 10
4765.7187405529930402
 20
239.4357864450716988
 30
0.0
 11
4765.7356278097313407
 21
239.3084087456716986
 31
0.0
  0
LINE
  5
DBE4
  8
0
 10
4765.8210935947663529
 20
239.3080138477216963
 30
0.0
 11
4765.8403020027881212
 21
239.4357864450716988
 31
0.0
  0
LINE
  5
DBE5
  8
0
 10
4765.9217745103524067
 20
239.4357864450716988
 30
0.0
 11
4765.9435199128229215
 21
239.3088044595828876
 31
0.0
  0
LINE
  5
DBE6
  8
0
 10
4766.0200269543411196
 20
239.3084087456716986
 30
0.0
 11
4766.0448425387648967
 21
239.4357864450716988
 31
0.0
  0
LINE
  5
DBE7
  8
0
 10
4766.0896339484761484
 20
239.3084087456716986
 30
0.0
 11
4766.1339741258434515
 21
239.431414261531387
 31
0.0
  0
LINE
  5
DBE8
  8
0
 10
4766.0451371148819817
 20
239.4357864450716988
 30
0.0
 11
4766.0900681739449283
 21
239.3084087456716986
 31
0.0
  0
LINE
  5
DBE9
  8
0
 10
4765.5300344614252026
 20
239.3084087456716986
 30
0.0
 11
4765.3141895777862374
 21
239.5631636740716885
 31
0.0
  0
LINE
  5
DBEA
  8
0
 10
4765.5246586796647534
 20
239.5631636740716885
 30
0.0
 11
4765.7347873722892473
 21
239.3084087456716986
 31
0.0
  0
LINE
  5
DBEB
  8
0
 10
4765.7367647352066342
 20
239.5631636740716885
 30
0.0
 11
4765.9438409463418793
 21
239.3084087456716986
 31
0.0
  0
LINE
  5
DBEC
  8
0
 10
4766.044842494524346
 20
239.4357864450716988
 30
0.0
 11
4765.94320443365541
 21
239.5631636740716885
 31
0.0
  0
LINE
  5
DBED
  8
0
 10
4765.9432063208905674
 20
239.3084087456716986
 30
0.0
 11
4766.044842278733995
 21
239.4357877798024958
 31
0.0
  0
LINE
  5
DBEE
  8
0
 10
4765.7367705713168107
 20
239.3084087456716986
 30
0.0
 11
4765.9438420857859455
 21
239.5631636740716885
 31
0.0
  0
LINE
  5
DBEF
  8
0
 10
4765.5246691243746682
 20
239.3084087456716986
 30
0.0
 11
4765.7347968531639708
 21
239.5631636740716885
 31
0.0
  0
LINE
  5
DBF0
  8
0
 10
4765.3142015347311826
 20
239.3084087456716986
 30
0.0
 11
4765.5300457492521673
 21
239.5631636740716885
 31
0.0
  0
LINE
  5
DBF1
  8
0
 10
4765.1003872924302414
 20
239.3084087456716986
 30
0.0
 11
4765.319689075394308
 21
239.5631636740716885
 31
0.0
  0
LINE
  5
DBF2
  8
0
 10
4764.9957093812663516
 20
239.435786193437707
 30
0.0
 11
4765.1059381140294136
 21
239.5631636740716885
 31
0.0
  0
LINE
  5
DBF3
  8
0
 10
4764.9957093812663516
 20
239.4357886142387031
 30
0.0
 11
4765.1059358997272284
 21
239.3084087456716986
 31
0.0
  0
LINE
  5
DBF4
  8
0
 10
4766.0900680080167149
 20
239.5631636740716885
 30
0.0
 11
4766.1339741258434515
 21
239.4357864450716988
 31
0.0
  0
LINE
  5
DBF5
  8
0
 10
4764.9957093812663516
 20
240.8712554328174917
 30
0.0
 11
4764.9957093812663516
 21
239.8647183387174948
 31
0.0
  0
LINE
  5
DBF6
  8
0
 10
4764.9957093812663516
 20
239.5631636740716885
 30
0.0
 11
4764.9957093812663516
 21
239.3084087456716986
 31
0.0
  0
LINE
  5
DC40
  8
0
 10
4762.3495122327567515
 20
238.6838161864114909
 30
0.0
 11
4759.6419065297750421
 21
238.6838161864114909
 31
0.0
  0
ENDSEC
  0
EOF
