  0
SECTION
  2
HEADER
  9
$ACADVER
  1
AC1009
  9
$INSBASE
 10
4615.7568222649579184
 20
310.1053697352509744
 30
0.0
  9
$EXTMIN
 10
4609.0807651154482301
 20
310.0864513204653008
 30
-0.0000000349181948
  9
$EXTMAX
 10
4617.1825631850424543
 20
319.3194195995491214
 30
0.0000000814935746
  9
$LIMMIN
 10
0.0
 20
0.0
  9
$LIMMAX
 10
11.6929133858000007
 20
8.2677165353999982
  9
$ORTHOMODE
 70
     1
  9
$REGENMODE
 70
     1
  9
$FILLMODE
 70
     1
  9
$QTEXTMODE
 70
     0
  9
$MIRRTEXT
 70
     0
  9
$DRAGMODE
 70
     2
  9
$LTSCALE
 40
0.6431102362
  9
$OSMODE
 70
  4095
  9
$ATTMODE
 70
     1
  9
$TEXTSIZE
 40
0.2
  9
$TRACEWID
 40
0.05
  9
$TEXTSTYLE
  7
STANDARD
  9
$CLAYER
  8
0
  9
$CELTYPE
  6
BYLAYER
  9
$CECOLOR
 62
   256
  9
$DIMSCALE
 40
1.0
  9
$DIMASZ
 40
0.1875
  9
$DIMEXO
 40
0.0625
  9
$DIMDLI
 40
0.4443307087
  9
$DIMRND
 40
0.0
  9
$DIMDLE
 40
0.0
  9
$DIMEXE
 40
0.125
  9
$DIMTP
 40
0.01
  9
$DIMTM
 40
0.01
  9
$DIMTXT
 40
2.0
  9
$DIMCEN
 40
0.1052362205
  9
$DIMTSZ
 40
0.0
  9
$DIMTOL
 70
     1
  9
$DIMLIM
 70
     0
  9
$DIMTIH
 70
     1
  9
$DIMTOH
 70
     1
  9
$DIMSE1
 70
     0
  9
$DIMSE2
 70
     0
  9
$DIMTAD
 70
     0
  9
$DIMZIN
 70
     0
  9
$DIMBLK
  1

  9
$DIMASO
 70
     1
  9
$DIMSHO
 70
     1
  9
$DIMPOST
  1
\X
  9
$DIMAPOST
  1

  9
$DIMALT
 70
     1
  9
$DIMALTD
 70
     2
  9
$DIMALTF
 40
25.3999999999999986
  9
$DIMLFAC
 40
1.0
  9
$DIMTOFL
 70
     0
  9
$DIMTVP
 40
0.0
  9
$DIMTIX
 70
     0
  9
$DIMSOXD
 70
     0
  9
$DIMSAH
 70
     0
  9
$DIMBLK1
  1

  9
$DIMBLK2
  1

  9
$DIMSTYLE
  2
STANDARD
  9
$DIMCLRD
 70
     0
  9
$DIMCLRE
 70
     0
  9
$DIMCLRT
 70
     0
  9
$DIMTFAC
 40
1.0
  9
$DIMGAP
 40
0.09
  9
$LUNITS
 70
     2
  9
$LUPREC
 70
     4
  9
$SKETCHINC
 40
0.1
  9
$FILLETRAD
 40
0.0
  9
$AUNITS
 70
     0
  9
$AUPREC
 70
     0
  9
$MENU
  1
.
  9
$ELEVATION
 40
0.0
  9
$PELEVATION
 40
0.0
  9
$THICKNESS
 40
0.0
  9
$LIMCHECK
 70
     0
  9
$BLIPMODE
 70
     0
  9
$CHAMFERA
 40
0.0
  9
$CHAMFERB
 40
0.0
  9
$SKPOLY
 70
     0
  9
$TDCREATE
 40
2458060.468368056230247
  9
$TDUPDATE
 40
2459480.6896874997764826
  9
$TDINDWG
 40
0.6258751157
  9
$TDUSRTIMER
 40
0.6258751157
  9
$USRTIMER
 70
     1
  9
$ANGBASE
 50
0.0
  9
$ANGDIR
 70
     0
  9
$PDMODE
 70
     0
  9
$PDSIZE
 40
0.3125
  9
$PLINEWID
 40
0.0
  9
$COORDS
 70
     1
  9
$SPLFRAME
 70
     0
  9
$SPLINETYPE
 70
     6
  9
$SPLINESEGS
 70
     8
  9
$ATTDIA
 70
     1
  9
$ATTREQ
 70
     1
  9
$HANDLING
 70
     1
  9
$HANDSEED
  5
21D99
  9
$SURFTAB1
 70
     6
  9
$SURFTAB2
 70
     6
  9
$SURFTYPE
 70
     6
  9
$SURFU
 70
     6
  9
$SURFV
 70
     6
  9
$UCSNAME
  2

  9
$UCSORG
 10
0.0
 20
0.0
 30
0.0
  9
$UCSXDIR
 10
1.0
 20
0.0
 30
0.0
  9
$UCSYDIR
 10
0.0
 20
1.0
 30
0.0
  9
$PUCSNAME
  2

  9
$PUCSORG
 10
0.0
 20
0.0
 30
0.0
  9
$PUCSXDIR
 10
1.0
 20
0.0
 30
0.0
  9
$PUCSYDIR
 10
0.0
 20
1.0
 30
0.0
  9
$USERI1
 70
     0
  9
$USERI2
 70
     0
  9
$USERI3
 70
     0
  9
$USERI4
 70
     0
  9
$USERI5
 70
     0
  9
$USERR1
 40
0.0
  9
$USERR2
 40
0.0
  9
$USERR3
 40
0.0
  9
$USERR4
 40
0.0
  9
$USERR5
 40
0.0
  9
$WORLDVIEW
 70
     1
  9
$SHADEDGE
 70
     3
  9
$SHADEDIF
 70
    70
  9
$TILEMODE
 70
     1
  9
$MAXACTVP
 70
    64
  9
$PLIMCHECK
 70
     0
  9
$PEXTMIN
 10
1.0000000000000000E+20
 20
1.0000000000000000E+20
 30
1.0000000000000000E+20
  9
$PEXTMAX
 10
-1.0000000000000000E+20
 20
-1.0000000000000000E+20
 30
-1.0000000000000000E+20
  9
$PLIMMIN
 10
0.0
 20
0.0
  9
$PLIMMAX
 10
12.0
 20
9.0
  9
$UNITMODE
 70
     0
  9
$VISRETAIN
 70
     1
  9
$PLINEGEN
 70
     0
  9
$PSLTSCALE
 70
     1
  0
ENDSEC
  0
SECTION
  2
TABLES
  0
TABLE
  2
VPORT
 70
     1
  0
VPORT
  2
*ACTIVE
 70
     0
 10
0.0
 20
0.0
 11
1.0
 21
1.0
 12
701.7663077049328422
 22
182.1233303574680917
 13
0.0
 23
0.0
 14
1.0
 24
1.0
 15
0.0
 25
0.0
 16
0.0
 26
0.0
 36
60.4960186965801583
 17
3911.3653564453120453
 27
132.5796051025390057
 37
0.0
 40
9.3061490052058957
 41
1.67063492063492
 42
50.0
 43
0.0
 44
0.0
 50
0.0
 51
0.0
 71
     0
 72
   100
 73
     1
 74
     1
 75
     0
 76
     0
 77
     0
 78
     0
  0
ENDTAB
  0
TABLE
  2
LTYPE
 70
     2
  0
LTYPE
  2
CONTINUOUS
 70
     0
  3
Solid line
 72
    65
 73
     0
 40
0.0
  0
LTYPE
  2
PHANTOM2
 70
     0
  3
___ _ _ ___ _ _ ___ _ _ ___ _ _
 72
    65
 73
     6
 40
1.25
 49
0.625
 49
-0.125
 49
0.125
 49
-0.125
 49
0.125
 49
-0.125
  0
ENDTAB
  0
TABLE
  2
LAYER
 70
     2
  0
LAYER
  2
0
 70
     0
 62
   255
  6
CONTINUOUS
  0
LAYER
  2
DEFPOINTS
 70
     0
 62
     7
  6
CONTINUOUS
  0
ENDTAB
  0
TABLE
  2
STYLE
 70
     1
  0
STYLE
  2
STANDARD
 70
     0
 40
0.0
 41
0.8
 50
0.0
 71
     0
 42
0.2
  3
txt
  4

  0
ENDTAB
  0
TABLE
  2
VIEW
 70
     0
  0
ENDTAB
  0
TABLE
  2
UCS
 70
     0
  0
ENDTAB
  0
TABLE
  2
APPID
 70
    11
  0
APPID
  2
ACAD
 70
     0
  0
APPID
  2
ACAD_MLEADERVER
 70
     0
  0
APPID
  2
ACAD_EXEMPT_FROM_CAD_STANDARDS
 70
     0
  0
APPID
  2
ACAD_NAV_VCDISPLAY
 70
     0
  0
APPID
  2
ACAECLAYERSTANDARD
 70
     0
  0
APPID
  2
ACCMTRANSPARENCY
 70
     0
  0
APPID
  2
ACAD_DSTYLE_DIMJAG
 70
     0
  0
APPID
  2
ACAD_DSTYLE_DIMTALN
 70
     0
  0
APPID
  2
ACDBATTR
 70
     0
  0
APPID
  2
ACADANNOTATIVE
 70
     0
  0
APPID
  2
DCO15
 70
     0
  0
ENDTAB
  0
TABLE
  2
DIMSTYLE
 70
     1
  0
DIMSTYLE
  2
STANDARD
 70
     0
  3

  4

  5

  6

  7

 40
1.0
 41
0.1875
 42
0.0625
 43
0.38
 44
0.125
 45
0.0
 46
0.0
 47
0.01
 48
0.01
140
0.15625
141
0.09
142
0.0
143
25.3999999999999986
144
1.0
145
0.0
146
1.0
147
0.09
 71
     1
 72
     0
 73
     1
 74
     1
 75
     0
 76
     0
 77
     0
 78
     4
170
     0
171
     2
172
     0
173
     0
174
     0
175
     0
176
     0
177
     0
178
     0
  0
ENDTAB
  0
ENDSEC
  0
SECTION
  2
BLOCKS
  0
BLOCK
  8
0
  2
$MODEL_SPACE
 70
     0
 10
0.0
 20
0.0
 30
0.0
  3
$MODEL_SPACE
  1

  0
ENDBLK
  5
21
  8
0
  0
BLOCK
 67
     1
  8
0
  2
$PAPER_SPACE
 70
     0
 10
0.0
 20
0.0
 30
0.0
  3
$PAPER_SPACE
  1

  0
ENDBLK
  5
1D
 67
     1
  8
0
  0
ENDSEC
  0
SECTION
  2
ENTITIES
  0
ATTDEF
  5
211C4
  8
DEFPOINTS
 10
4615.7525169949203701
 20
310.1028113905143186
 30
0.0
 40
0.001
  1
P25007-LV
  3

  2
MODELNUMBER
 70
     0
1001
ACDBATTR
1070
     0
1070
     1
  0
ATTDEF
  5
211C5
  8
DEFPOINTS
 10
4615.7525169949203701
 20
310.1011445501351886
 30
0.0
 40
0.001
  1
SCRIPT
  3

  2
TRADENAME
 70
     0
1001
ACDBATTR
1070
     0
1070
     1
  0
ATTDEF
  5
211C6
  8
DEFPOINTS
 10
4615.7525169949203701
 20
310.0994780571809883
 30
0.0
 40
0.001
  1
BATHROOM SINK FAUCET
  3

  2
PRODUCT
 70
     0
1001
ACDBATTR
1070
     0
1070
     1
  0
LINE
  5
21C00
  8
0
 10
4614.698322265007846
 20
310.1053697352509744
 30
0.0
 11
4616.8153222649070813
 21
310.1053697352509744
 31
0.0
  0
LINE
  5
21C01
  8
0
 10
4614.8338206589742185
 20
310.3967127352510147
 30
0.0
 11
4616.6798238709407087
 21
310.3967127352510147
 31
0.0
  0
LINE
  5
21C02
  8
0
 10
4614.8783475847912996
 20
310.4097127352509915
 30
0.0
 11
4616.6352969451254467
 21
310.4097127352509915
 31
0.0
  0
LINE
  5
21C03
  8
0
 10
4614.6325813773592017
 20
310.2552251983448173
 30
0.0
 11
4614.8220649538807265
 21
310.3928930751046096
 31
0.0
  0
ARC
  5
21C04
  8
0
 10
4614.6382759176331092
 20
310.1072781502501812
 30
0.0
 40
0.060076666691933
 50
358.1796173249770163
 51
73.2778473289929764
  0
ARC
  5
21C05
  8
0
 10
4614.6637857194918979
 20
310.2150306159305728
 30
0.0
 40
0.0508853163825001
 50
127.8233350784109064
 51
260.6992797689222243
  0
LINE
  5
21C06
  8
0
 10
4614.6555618266856982
 20
310.1648142539510218
 30
0.0
 11
4616.8580827032301386
 21
310.1648142539510218
 31
0.0
  0
ARC
  5
21C07
  8
0
 10
4614.8338206589742185
 20
310.376712735250976
 30
0.0
 40
0.02
 50
90.0
 51
126.0000000114824985
  0
LINE
  5
21C08
  8
0
 10
4614.9118222650076859
 20
310.4097127352509915
 30
0.0
 11
4614.9118222650076859
 21
310.3967127352510147
 31
0.0
  0
ARC
  5
21C09
  8
0
 10
4613.7592966242118564
 20
312.1497806600648914
 30
0.0
 40
2.032049882031381
 50
303.0474373546550737
 51
308.4158013315711173
  0
ARC
  5
21C0A
  8
0
 10
4614.0047114176722971
 20
311.4499361229204055
 30
0.0
 40
1.3531340848530331
 50
318.7427791060588902
 51
356.6441045284142888
  0
ARC
  5
21C0B
  8
0
 10
4605.3939223256738842
 20
312.1983124187921135
 30
0.0
 40
9.9959206142987718
 50
355.2509104218888183
 51
0.0679921012489275
  0
ARC
  5
21C0C
  8
0
 10
4614.8783475847912996
 20
310.4297127352509733
 30
0.0
 40
0.02
 50
123.0474373546479967
 51
270.0
  0
ARC
  5
21C0D
  8
0
 10
4614.8883481692091664
 20
310.4167130291554031
 30
0.0
 40
0.020000061004419
 50
193.3637374369349118
 51
270.2008896351056251
  0
ARC
  5
21C0E
  8
0
 10
4614.3963529578131784
 20
311.4022423194130056
 30
0.0
 40
1.0510646996651469
 50
306.5263734996436824
 51
336.3830962792176251
  0
ARC
  5
21C0F
  8
0
 10
4613.709461658413602
 20
311.478446668525919
 30
0.0
 40
1.723234342403092
 50
343.2273766024126758
 51
0.934567656861679
  0
ARC
  5
21C10
  8
0
 10
4799.1393176973651862
 20
303.7820597932312126
 30
0.0
 40
183.8691787209673976
 50
177.4793904005013019
 51
177.5922490898130945
  0
ARC
  5
21C11
  8
0
 10
4612.0911073246834349
 20
311.9275661331267884
 30
0.0
 40
3.3574526163001699
 50
358.9901941619340846
 51
4.5101023961858271
  0
ARC
  5
21C12
  8
0
 10
4615.7579150803221637
 20
313.0946769177214719
 30
0.0
 40
0.9580328402431018
 50
246.9104290357925038
 51
269.9346434493717197
  0
ARC
  5
21C13
  8
0
 10
4615.4143413574383885
 20
312.2879436048734192
 30
0.0
 40
0.0811860507613681
 50
179.8987886034454107
 51
246.6808382706672944
  0
LINE
  5
21C14
  8
0
 10
4615.3331571375083513
 20
312.4375156328509888
 30
0.0
 11
4615.3331878742546905
 21
312.2858374897181193
 31
0.0
  0
ARC
  5
21C15
  8
0
 10
4615.4143331549348659
 20
312.4375872985617093
 30
0.0
 40
0.0811760494271898
 50
112.6664550951715995
 51
180.0509598366691932
  0
ARC
  5
21C16
  8
0
 10
4615.7561662136913583
 20
311.6403872044562036
 30
0.0
 40
0.9485698764699725
 50
89.9603730071151944
 51
113.1628167925811965
  0
LINE
  5
21C17
  8
0
 10
4615.4818195238067347
 20
314.8730345949509797
 30
0.0
 11
4615.3996288406824533
 21
312.5194013751012108
 31
0.0
  0
ARC
  5
21C18
  8
0
 10
4609.803328740190409
 20
315.1477146228244237
 30
0.0
 40
5.68513031489565
 50
357.2306464427711035
 51
4.1045896333572607
  0
ARC
  5
21C19
  8
0
 10
4611.4043512008011021
 20
315.3493691632094169
 30
0.0
 40
4.074699592680477
 50
2.8876236103196931
 51
34.5854354762370875
  0
ARC
  5
21C1A
  8
0
 10
4612.6198334341443115
 20
316.0518349945252794
 30
0.0
 40
2.6776003811496452
 50
36.974658810399923
 51
90.0863219279417535
  0
ARC
  5
21C1B
  8
0
 10
4612.5899474636453306
 20
314.89387455731611
 30
0.0
 40
3.8356449001708959
 50
89.6138287850958051
 51
113.2190092443075002
  0
ARC
  5
21C1C
  8
0
 10
4611.7694568904416883
 20
316.5941707998280776
 30
0.0
 40
1.9513848453674081
 50
110.7607423122841936
 51
160.6255856966022861
  0
LINE
  5
21C1D
  8
0
 10
4609.2570139634281077
 20
317.2181339064509871
 30
0.0
 11
4609.8955592470229021
 21
317.2181339064509871
 31
0.0
  0
ARC
  5
21C1E
  8
0
 10
4611.7193957367007897
 20
316.4680694666540148
 30
0.0
 40
2.6195019195157609
 50
117.7273078881498947
 51
162.316511804694386
  0
ARC
  5
21C1F
  8
0
 10
4612.5963397565656123
 20
314.762953341443108
 30
0.0
 40
4.5368655574931678
 50
90.1845711759397659
 51
117.5115691955056008
  0
ARC
  5
21C20
  8
0
 10
4612.6117329700082337
 20
315.9382100469525767
 30
0.0
 40
3.361719247225976
 50
22.3792118147534183
 51
90.5114532278360713
  0
ARC
  5
21C21
  8
0
 10
4610.9112490921779681
 20
315.2935006861198985
 30
0.0
 40
5.1798470855871512
 50
4.2016336999934873
 51
21.8119687898250199
  0
ARC
  5
21C22
  8
0
 10
4605.5802149242826999
 20
314.8439663689326835
 30
0.0
 40
10.5296476786485993
 50
0.1585996234517293
 51
4.515816091137788
  0
ARC
  5
21C23
  8
0
 10
21577.8286630774200603
 20
535.9750581542917871
 30
0.0
 40
16963.1598502425695187
 50
180.7468282516418014
 51
180.7548198081211126
  0
ARC
  5
21C24
  8
0
 10
4609.2570139634281077
 20
317.2531339064510121
 30
0.0
 40
0.035
 50
162.3165118046788962
 51
270.0
  0
ARC
  5
21C25
  8
0
 10
4609.8955592470229021
 20
317.2531339064510121
 30
0.0
 40
0.035
 50
270.0
 51
340.6255856965869953
  0
ARC
  5
21C26
  8
0
 10
4611.5386571297549381
 20
316.7609038717482122
 30
0.0
 40
1.8265465868194399
 50
128.7040094832713066
 51
164.6097210775751876
  0
ARC
  5
21C27
  8
0
 10
4612.5828244187960081
 20
315.0261412712674769
 30
0.0
 40
3.8427364016119538
 50
90.0163953585420842
 51
124.6766215498076065
  0
ARC
  5
21C28
  8
0
 10
4612.6141982952131002
 20
316.0390987960977895
 30
0.0
 40
2.8299650401412348
 50
34.5103455442212521
 51
90.6574761713890354
  0
ARC
  5
21C29
  8
0
 10
4611.5327004447926811
 20
315.3905848164965278
 30
0.0
 40
4.0893143813798289
 50
2.7461380305948011
 51
33.4126906649130717
  0
ARC
  5
21C2A
  8
0
 10
4609.1155081716497079
 20
315.1295794915217812
 30
0.0
 40
6.5178465341006007
 50
357.7453021604981132
 51
4.0199654389127408
  0
ARC
  5
21C2B
  8
0
 10
4494.1712712210992322
 20
318.6202252068172243
 30
0.0
 40
121.5148240977621015
 50
357.1426720423006032
 51
358.2329292783036863
  0
LINE
  5
21C2C
  8
0
 10
4609.4517742656080372
 20
317.2533668993510219
 30
0.0
 11
4609.4517742864818501
 21
317.2181339064509871
 31
0.0
  0
ARC
  5
21C2D
  8
0
 10
4611.8001600932630026
 20
316.4215900045646208
 30
0.0
 40
2.491338756218302
 50
112.8812663032029064
 51
160.4963176780584035
  0
ARC
  5
21C2E
  8
0
 10
4612.6318395813868847
 20
314.6638533995488274
 30
0.0
 40
4.4349123045789618
 50
90.6296439339978832
 51
113.9508987113221963
  0
ARC
  5
21C2F
  8
0
 10
4612.6933744985371959
 20
316.0838291147289851
 30
0.0
 40
3.0166848711089691
 50
41.5753759213319469
 51
92.0948354183026225
  0
ARC
  5
21C30
  8
0
 10
4611.8132742752159174
 20
315.5123727871944084
 30
0.0
 40
4.0573153633280077
 50
1.7130223092675281
 51
39.3642074938533995
  0
ARC
  5
21C31
  8
0
 10
4605.0050004603972411
 20
314.8159276416823786
 30
0.0
 40
10.8945084994892305
 50
0.3007479204077865
 51
4.3046191351074743
  0
ARC
  5
21C32
  8
0
 10
5009.8555141251481473
 20
316.9410242779488271
 30
0.0
 40
393.9615825382097114
 50
180.3007479204077868
 51
180.6349561680459033
  0
ARC
  5
21C33
  8
0
 10
4609.745718446299179
 20
317.2503285262259283
 30
0.0
 40
0.03223176337842
 50
272.7509286725365882
 51
351.6641408725474207
  0
LINE
  5
21C34
  8
0
 10
4616.8810631525557255
 20
310.2552251983448173
 30
0.0
 11
4616.6915795760342007
 21
310.3928930751046096
 31
0.0
  0
ARC
  5
21C35
  8
0
 10
4616.8753686122818181
 20
310.1072781502501812
 30
0.0
 40
0.060076666691933
 50
106.7221526710069952
 51
181.8203826750228984
  0
ARC
  5
21C36
  8
0
 10
4616.8498588104239388
 20
310.2150306159305728
 30
0.0
 40
0.0508853163825001
 50
279.3007202310777757
 51
52.1766649215890865
  0
ARC
  5
21C37
  8
0
 10
4616.6798238709407087
 20
310.376712735250976
 30
0.0
 40
0.02
 50
53.9999999885174731
 51
90.0
  0
LINE
  5
21C38
  8
0
 10
4616.6018222649072413
 20
310.4097127352509915
 30
0.0
 11
4616.6018222649072413
 21
310.3967127352510147
 31
0.0
  0
ARC
  5
21C39
  8
0
 10
4617.7543479057039804
 20
312.1497806600648914
 30
0.0
 40
2.032049882031381
 50
231.5841986684289964
 51
236.9525626453448979
  0
ARC
  5
21C3A
  8
0
 10
4617.5089331122426302
 20
311.4499361229204055
 30
0.0
 40
1.3531340848530331
 50
183.3558954715857112
 51
221.2572208939411951
  0
ARC
  5
21C3B
  8
0
 10
4626.1197222042401336
 20
312.1983124187921135
 30
0.0
 40
9.9959206142987718
 50
179.9320078987510954
 51
184.7490895781112101
  0
ARC
  5
21C3C
  8
0
 10
4616.6352969451254467
 20
310.4297127352509733
 30
0.0
 40
0.02
 50
270.0
 51
56.9525626453520033
  0
ARC
  5
21C3D
  8
0
 10
4616.6252963607048514
 20
310.4167130291554031
 30
0.0
 40
0.020000061004419
 50
269.7991103648944886
 51
346.6362625630650882
  0
ARC
  5
21C3E
  8
0
 10
4617.1172915721017489
 20
311.4022423194130056
 30
0.0
 40
1.0510646996651041
 50
203.6169037207793906
 51
233.4736265003583071
  0
ARC
  5
21C3F
  8
0
 10
4617.8041828715013253
 20
311.478446668525919
 30
0.0
 40
1.723234342403092
 50
179.0654323431382977
 51
196.7726233975872958
  0
ARC
  5
21C40
  8
0
 10
4432.3743268325497411
 20
303.7820597932312126
 30
0.0
 40
183.8691787209673976
 50
2.4077509101868571
 51
2.5206095994986399
  0
ARC
  5
21C41
  8
0
 10
4619.4225372052305829
 20
311.9275661331267884
 30
0.0
 40
3.3574526163001699
 50
175.4898976038140859
 51
181.009805838065887
  0
ARC
  5
21C42
  8
0
 10
4615.7557294495909446
 20
313.0946769177214719
 30
0.0
 40
0.9580328402430804
 50
270.0653565506282803
 51
293.0895709642073825
  0
ARC
  5
21C43
  8
0
 10
4616.0993031724783577
 20
312.2879436048734192
 30
0.0
 40
0.0811860507613681
 50
293.3191617293326772
 51
0.1012113965546228
  0
LINE
  5
21C44
  8
0
 10
4616.180487392408395
 20
312.4375156328509888
 30
0.0
 11
4616.1804566556602367
 21
312.2858374897181193
 31
0.0
  0
ARC
  5
21C45
  8
0
 10
4616.0993113749800614
 20
312.4375872985617093
 30
0.0
 40
0.0811760494271898
 50
359.9490401633307783
 51
67.3335449048283863
  0
ARC
  5
21C46
  8
0
 10
4615.757478316225388
 20
311.6403872044562036
 30
0.0
 40
0.9485698764699725
 50
66.8371832074187466
 51
90.0396269928848341
  0
ENDSEC
  0
EOF
