  0
SECTION
  2
HEADER
  9
$ACADVER
  1
AC1009
  9
$INSBASE
 10
4637.2002731739312367
 20
312.7206005723091948
 30
0.0
  9
$EXTMIN
 10
4630.1872199984636609
 20
312.7109669759789199
 30
-0.0000000349181948
  9
$EXTMAX
 10
4644.3602447096864125
 20
321.9216402270482149
 30
0.0000000814935746
  9
$LIMMIN
 10
0.0
 20
0.0
  9
$LIMMAX
 10
11.6929133858000007
 20
8.2677165353999982
  9
$ORTHOMODE
 70
     1
  9
$REGENMODE
 70
     1
  9
$FILLMODE
 70
     1
  9
$QTEXTMODE
 70
     0
  9
$MIRRTEXT
 70
     0
  9
$DRAGMODE
 70
     2
  9
$LTSCALE
 40
0.6431102362
  9
$OSMODE
 70
  4095
  9
$ATTMODE
 70
     1
  9
$TEXTSIZE
 40
0.2
  9
$TRACEWID
 40
0.05
  9
$TEXTSTYLE
  7
STANDARD
  9
$CLAYER
  8
0
  9
$CELTYPE
  6
BYLAYER
  9
$CECOLOR
 62
   256
  9
$DIMSCALE
 40
1.0
  9
$DIMASZ
 40
0.1875
  9
$DIMEXO
 40
0.0625
  9
$DIMDLI
 40
0.4443307087
  9
$DIMRND
 40
0.0
  9
$DIMDLE
 40
0.0
  9
$DIMEXE
 40
0.125
  9
$DIMTP
 40
0.01
  9
$DIMTM
 40
0.01
  9
$DIMTXT
 40
2.0
  9
$DIMCEN
 40
0.1052362205
  9
$DIMTSZ
 40
0.0
  9
$DIMTOL
 70
     1
  9
$DIMLIM
 70
     0
  9
$DIMTIH
 70
     1
  9
$DIMTOH
 70
     1
  9
$DIMSE1
 70
     0
  9
$DIMSE2
 70
     0
  9
$DIMTAD
 70
     0
  9
$DIMZIN
 70
     0
  9
$DIMBLK
  1

  9
$DIMASO
 70
     1
  9
$DIMSHO
 70
     1
  9
$DIMPOST
  1
\X
  9
$DIMAPOST
  1

  9
$DIMALT
 70
     1
  9
$DIMALTD
 70
     2
  9
$DIMALTF
 40
25.3999999999999986
  9
$DIMLFAC
 40
1.0
  9
$DIMTOFL
 70
     0
  9
$DIMTVP
 40
0.0
  9
$DIMTIX
 70
     0
  9
$DIMSOXD
 70
     0
  9
$DIMSAH
 70
     0
  9
$DIMBLK1
  1

  9
$DIMBLK2
  1

  9
$DIMSTYLE
  2
STANDARD
  9
$DIMCLRD
 70
     0
  9
$DIMCLRE
 70
     0
  9
$DIMCLRT
 70
     0
  9
$DIMTFAC
 40
1.0
  9
$DIMGAP
 40
0.09
  9
$LUNITS
 70
     2
  9
$LUPREC
 70
     4
  9
$SKETCHINC
 40
0.1
  9
$FILLETRAD
 40
0.0
  9
$AUNITS
 70
     0
  9
$AUPREC
 70
     0
  9
$MENU
  1
.
  9
$ELEVATION
 40
0.0
  9
$PELEVATION
 40
0.0
  9
$THICKNESS
 40
0.0
  9
$LIMCHECK
 70
     0
  9
$BLIPMODE
 70
     0
  9
$CHAMFERA
 40
0.0
  9
$CHAMFERB
 40
0.0
  9
$SKPOLY
 70
     0
  9
$TDCREATE
 40
2458060.468368056230247
  9
$TDUPDATE
 40
2459480.6899537038989365
  9
$TDINDWG
 40
0.627009375
  9
$TDUSRTIMER
 40
0.627009375
  9
$USRTIMER
 70
     1
  9
$ANGBASE
 50
0.0
  9
$ANGDIR
 70
     0
  9
$PDMODE
 70
     0
  9
$PDSIZE
 40
0.3125
  9
$PLINEWID
 40
0.0
  9
$COORDS
 70
     1
  9
$SPLFRAME
 70
     0
  9
$SPLINETYPE
 70
     6
  9
$SPLINESEGS
 70
     8
  9
$ATTDIA
 70
     1
  9
$ATTREQ
 70
     1
  9
$HANDLING
 70
     1
  9
$HANDSEED
  5
21F42
  9
$SURFTAB1
 70
     6
  9
$SURFTAB2
 70
     6
  9
$SURFTYPE
 70
     6
  9
$SURFU
 70
     6
  9
$SURFV
 70
     6
  9
$UCSNAME
  2

  9
$UCSORG
 10
0.0
 20
0.0
 30
0.0
  9
$UCSXDIR
 10
1.0
 20
0.0
 30
0.0
  9
$UCSYDIR
 10
0.0
 20
1.0
 30
0.0
  9
$PUCSNAME
  2

  9
$PUCSORG
 10
0.0
 20
0.0
 30
0.0
  9
$PUCSXDIR
 10
1.0
 20
0.0
 30
0.0
  9
$PUCSYDIR
 10
0.0
 20
1.0
 30
0.0
  9
$USERI1
 70
     0
  9
$USERI2
 70
     0
  9
$USERI3
 70
     0
  9
$USERI4
 70
     0
  9
$USERI5
 70
     0
  9
$USERR1
 40
0.0
  9
$USERR2
 40
0.0
  9
$USERR3
 40
0.0
  9
$USERR4
 40
0.0
  9
$USERR5
 40
0.0
  9
$WORLDVIEW
 70
     1
  9
$SHADEDGE
 70
     3
  9
$SHADEDIF
 70
    70
  9
$TILEMODE
 70
     1
  9
$MAXACTVP
 70
    64
  9
$PLIMCHECK
 70
     0
  9
$PEXTMIN
 10
1.0000000000000000E+20
 20
1.0000000000000000E+20
 30
1.0000000000000000E+20
  9
$PEXTMAX
 10
-1.0000000000000000E+20
 20
-1.0000000000000000E+20
 30
-1.0000000000000000E+20
  9
$PLIMMIN
 10
0.0
 20
0.0
  9
$PLIMMAX
 10
12.0
 20
9.0
  9
$UNITMODE
 70
     0
  9
$VISRETAIN
 70
     1
  9
$PLINEGEN
 70
     0
  9
$PSLTSCALE
 70
     1
  0
ENDSEC
  0
SECTION
  2
TABLES
  0
TABLE
  2
VPORT
 70
     1
  0
VPORT
  2
*ACTIVE
 70
     0
 10
0.0
 20
0.0
 11
1.0
 21
1.0
 12
725.9083759087625367
 22
184.7366984989743912
 13
0.0
 23
0.0
 14
1.0
 24
1.0
 15
0.0
 25
0.0
 16
0.0
 26
0.0
 36
60.4960186965801583
 17
3911.3653564453120453
 27
132.5796051025390057
 37
0.0
 40
9.2836772662693647
 41
1.67063492063492
 42
50.0
 43
0.0
 44
0.0
 50
0.0
 51
0.0
 71
     0
 72
   100
 73
     1
 74
     1
 75
     0
 76
     0
 77
     0
 78
     0
  0
ENDTAB
  0
TABLE
  2
LTYPE
 70
     2
  0
LTYPE
  2
CONTINUOUS
 70
     0
  3
Solid line
 72
    65
 73
     0
 40
0.0
  0
LTYPE
  2
PHANTOM2
 70
     0
  3
___ _ _ ___ _ _ ___ _ _ ___ _ _
 72
    65
 73
     6
 40
1.25
 49
0.625
 49
-0.125
 49
0.125
 49
-0.125
 49
0.125
 49
-0.125
  0
ENDTAB
  0
TABLE
  2
LAYER
 70
     2
  0
LAYER
  2
0
 70
     0
 62
   255
  6
CONTINUOUS
  0
LAYER
  2
DEFPOINTS
 70
     0
 62
     7
  6
CONTINUOUS
  0
ENDTAB
  0
TABLE
  2
STYLE
 70
     1
  0
STYLE
  2
STANDARD
 70
     0
 40
0.0
 41
0.8
 50
0.0
 71
     0
 42
0.2
  3
txt
  4

  0
ENDTAB
  0
TABLE
  2
VIEW
 70
     0
  0
ENDTAB
  0
TABLE
  2
UCS
 70
     0
  0
ENDTAB
  0
TABLE
  2
APPID
 70
    11
  0
APPID
  2
ACAD
 70
     0
  0
APPID
  2
ACAD_MLEADERVER
 70
     0
  0
APPID
  2
ACAD_EXEMPT_FROM_CAD_STANDARDS
 70
     0
  0
APPID
  2
ACAD_NAV_VCDISPLAY
 70
     0
  0
APPID
  2
ACAECLAYERSTANDARD
 70
     0
  0
APPID
  2
ACCMTRANSPARENCY
 70
     0
  0
APPID
  2
ACAD_DSTYLE_DIMJAG
 70
     0
  0
APPID
  2
ACAD_DSTYLE_DIMTALN
 70
     0
  0
APPID
  2
ACDBATTR
 70
     0
  0
APPID
  2
ACADANNOTATIVE
 70
     0
  0
APPID
  2
DCO15
 70
     0
  0
ENDTAB
  0
TABLE
  2
DIMSTYLE
 70
     1
  0
DIMSTYLE
  2
STANDARD
 70
     0
  3

  4

  5

  6

  7

 40
1.0
 41
0.1875
 42
0.0625
 43
0.38
 44
0.125
 45
0.0
 46
0.0
 47
0.01
 48
0.01
140
0.15625
141
0.09
142
0.0
143
25.3999999999999986
144
1.0
145
0.0
146
1.0
147
0.09
 71
     1
 72
     0
 73
     1
 74
     1
 75
     0
 76
     0
 77
     0
 78
     4
170
     0
171
     2
172
     0
173
     0
174
     0
175
     0
176
     0
177
     0
178
     0
  0
ENDTAB
  0
ENDSEC
  0
SECTION
  2
BLOCKS
  0
BLOCK
  8
0
  2
$MODEL_SPACE
 70
     0
 10
0.0
 20
0.0
 30
0.0
  3
$MODEL_SPACE
  1

  0
ENDBLK
  5
21
  8
0
  0
BLOCK
 67
     1
  8
0
  2
$PAPER_SPACE
 70
     0
 10
0.0
 20
0.0
 30
0.0
  3
$PAPER_SPACE
  1

  0
ENDBLK
  5
1D
 67
     1
  8
0
  0
ENDSEC
  0
SECTION
  2
ENTITIES
  0
ATTDEF
  5
211C4
  8
DEFPOINTS
 10
4637.1951861118495799
 20
312.7190280901497204
 30
0.0
 40
0.001
  1
P25007-LV
  3

  2
MODELNUMBER
 70
     0
1001
ACDBATTR
1070
     0
1070
     1
  0
ATTDEF
  5
211C5
  8
DEFPOINTS
 10
4637.1951861118495799
 20
312.7173612497705903
 30
0.0
 40
0.001
  1
SCRIPT
  3

  2
TRADENAME
 70
     0
1001
ACDBATTR
1070
     0
1070
     1
  0
ATTDEF
  5
211C6
  8
DEFPOINTS
 10
4637.1951861118495799
 20
312.7156947568163901
 30
0.0
 40
0.001
  1
BATHROOM SINK FAUCET
  3

  2
PRODUCT
 70
     0
1001
ACDBATTR
1070
     0
1070
     1
  0
LINE
  5
21DA7
  8
0
 10
4632.1417731739811643
 20
312.7206005723091948
 30
0.0
 11
4634.2587731738822185
 21
312.7206005723091948
 31
0.0
  0
LINE
  5
21DA8
  8
0
 10
4632.2772715679466273
 20
313.0119435723091783
 30
0.0
 11
4634.1232747799149365
 21
313.0119435723091783
 31
0.0
  0
LINE
  5
21DA9
  8
0
 10
4632.3230210169176644
 20
313.024943572309212
 30
0.0
 11
4634.077315016042121
 21
313.024943572309212
 31
0.0
  0
LINE
  5
21DAA
  8
0
 10
4632.076032286334339
 20
312.8704560354029809
 30
0.0
 11
4632.2655158628540448
 21
313.0081239121627732
 31
0.0
  0
ARC
  5
21DAB
  8
0
 10
4632.0817268266064275
 20
312.7225089873084016
 30
0.0
 40
0.060076666691933
 50
358.1796173249770163
 51
73.2778473289929764
  0
ARC
  5
21DAC
  8
0
 10
4632.1072366284652162
 20
312.8302614529887933
 30
0.0
 40
0.0508853163825001
 50
127.8233350784109064
 51
260.6992797689222243
  0
LINE
  5
21DAD
  8
0
 10
4632.099012735658107
 20
312.7800450910091854
 30
0.0
 11
4634.3015336122025474
 21
312.7800450910091854
 31
0.0
  0
ARC
  5
21DAE
  8
0
 10
4632.2772715679466273
 20
312.9919435723091965
 30
0.0
 40
0.02
 50
90.0
 51
126.0000000114824985
  0
LINE
  5
21DAF
  8
0
 10
4632.3552731739800947
 20
313.024943572309212
 30
0.0
 11
4632.3552731739800947
 21
313.0119435723091783
 31
0.0
  0
LINE
  5
21DB0
  8
0
 10
4634.3245140615281343
 20
312.8704560354029809
 30
0.0
 11
4634.1350304850066095
 21
313.0081239121627732
 31
0.0
  0
ARC
  5
21DB1
  8
0
 10
4634.3188195212551364
 20
312.7225089873084016
 30
0.0
 40
0.060076666691933
 50
106.7221526710069952
 51
181.8203826750228984
  0
ARC
  5
21DB2
  8
0
 10
4634.2933097193972571
 20
312.8302614529887933
 30
0.0
 40
0.0508853163825001
 50
279.3007202310777757
 51
52.1766649215890865
  0
ARC
  5
21DB3
  8
0
 10
4634.1232747799149365
 20
312.9919435723091965
 30
0.0
 40
0.02
 50
53.9999999885174731
 51
90.0
  0
LINE
  5
21DB4
  8
0
 10
4634.0452731738805596
 20
313.024943572309212
 30
0.0
 11
4634.0452731738805596
 21
313.0119435723091783
 31
0.0
  0
LINE
  5
21DB5
  8
0
 10
4636.1417731739811643
 20
312.7206005723091948
 30
0.0
 11
4638.258773173881309
 21
312.7206005723091948
 31
0.0
  0
LINE
  5
21DB6
  8
0
 10
4636.2772715679466273
 20
313.0119435723091783
 30
0.0
 11
4638.1232747799149365
 21
313.0119435723091783
 31
0.0
  0
LINE
  5
21DB7
  8
0
 10
4636.0760322863334295
 20
312.8704560354029809
 30
0.0
 11
4636.2655158628549543
 21
313.0081239121627732
 31
0.0
  0
ARC
  5
21DB8
  8
0
 10
4636.0817268266064275
 20
312.7225089873084016
 30
0.0
 40
0.060076666691933
 50
358.1796173249770163
 51
73.2778473289929764
  0
ARC
  5
21DB9
  8
0
 10
4636.1072366284652162
 20
312.8302614529887933
 30
0.0
 40
0.0508853163825001
 50
127.8233350784109064
 51
260.6992797689222243
  0
LINE
  5
21DBA
  8
0
 10
4636.0990127356590165
 20
312.7800450910091854
 30
0.0
 11
4638.3015336122025474
 21
312.7800450910091854
 31
0.0
  0
ARC
  5
21DBB
  8
0
 10
4636.2772715679466273
 20
312.9919435723091965
 30
0.0
 40
0.02
 50
90.0
 51
126.0000000114824985
  0
LINE
  5
21DBC
  8
0
 10
4638.3245140615290438
 20
312.8704560354029809
 30
0.0
 11
4638.1350304850066095
 21
313.0081239121627732
 31
0.0
  0
ARC
  5
21DBD
  8
0
 10
4638.3188195212551364
 20
312.7225089873084016
 30
0.0
 40
0.060076666691933
 50
106.7221526710069952
 51
181.8203826750228984
  0
ARC
  5
21DBE
  8
0
 10
4638.2933097193972571
 20
312.8302614529887933
 30
0.0
 40
0.0508853163825001
 50
279.3007202310777757
 51
52.1766649215890865
  0
ARC
  5
21DBF
  8
0
 10
4638.1232747799149365
 20
312.9919435723091965
 30
0.0
 40
0.02
 50
53.9999999885174731
 51
90.0
  0
ARC
  5
21DC0
  8
0
 10
4631.4036766391800484
 20
314.61247663723492
 30
0.0
 40
1.797259739551951
 50
300.3617010282350748
 51
317.6796327037362175
  0
ARC
  5
21DC1
  8
0
 10
4632.3230210169176644
 20
313.0449435723093075
 30
0.0
 40
0.0199999999999998
 50
123.0474373546569069
 51
270.0
  0
ARC
  5
21DC2
  8
0
 10
4631.6319777448097739
 20
314.1313223810465729
 30
0.0
 40
1.320061397299003
 50
326.4840820148302214
 51
359.5861310395338251
  0
ARC
  5
21DC3
  8
0
 10
8651.2023912922413729
 20
33.3196825785357831
 30
0.0
 40
4028.0498993009518927
 50
175.997426923128387
 51
176.0025730552623031
  0
ARC
  5
21DC4
  8
0
 10
4632.668675887108293
 20
314.3063975003054793
 30
0.0
 40
0.490070378600795
 50
67.1792576237720169
 51
89.9781005910585208
  0
ARC
  5
21DC5
  8
0
 10
4632.7764915100669896
 20
314.5729321135074201
 30
0.0
 40
0.2026226038685655
 50
2.3591705635474729
 51
66.0483425305765053
  0
ARC
  5
21DC6
  8
0
 10
4632.3425598181647729
 20
314.5429469611203217
 30
0.0
 40
0.6375355896646506
 50
354.5768414381095113
 51
3.4464486678680579
  0
ARC
  5
21DC7
  8
0
 10
4632.6108689050834073
 20
312.6698650967646245
 30
0.0
 40
2.127393376653735
 50
88.4378817380692652
 51
91.5652267355888227
  0
ARC
  5
21DC8
  8
0
 10
4628.5006614132789764
 20
463.0869750494118193
 30
0.0
 40
148.3458626263067117
 50
270.6901945432766183
 51
271.5652407142089828
  0
LINE
  5
21DC9
  8
0
 10
4630.2475172684307836
 20
315.164087691114787
 30
0.0
 11
4630.2475172684307836
 21
314.7919755378168247
 31
0.0
  0
LINE
  5
21DCA
  8
0
 10
4630.3106967067305959
 20
315.0526785637092075
 30
0.0
 11
4630.3106967520297985
 21
314.9033178640091819
 31
0.0
  0
LINE
  5
21DCB
  8
0
 10
4630.3106967067305959
 20
315.0526785640835783
 30
0.0
 11
4632.5536269910307965
 21
315.0248617336092138
 31
0.0
  0
ARC
  5
21DCC
  8
0
 10
4630.2876172684309495
 20
315.164087691114787
 30
0.0
 40
0.0401
 50
90.0
 51
180.0
  0
ARC
  5
21DCD
  8
0
 10
4630.2876172684309495
 20
314.7919755378168247
 30
0.0
 40
0.0401
 50
180.0
 51
270.0
  0
LINE
  5
21DCE
  8
0
 10
4630.3106967369167251
 20
315.0526785637092075
 30
0.0
 11
4630.2592622865049634
 21
315.1924426730403752
 31
0.0
  0
LINE
  5
21DCF
  8
0
 10
4630.3106967520297985
 20
314.903317864609221
 30
0.0
 11
4630.2592622865049634
 21
314.7636205558911797
 31
0.0
  0
LINE
  5
21DD0
  8
0
 10
4630.3106967520297985
 20
314.903317864609221
 30
0.0
 11
4632.5535498466306308
 21
314.9311182065092112
 31
0.0
  0
ARC
  5
21DD1
  8
0
 10
4632.6147471393787782
 20
314.0203196927453178
 30
0.0
 40
0.9128521464697209
 50
73.890755712097814
 51
93.8439722901460414
  0
ARC
  5
21DD2
  8
0
 10
4632.766684125480424
 20
314.5658503803163057
 30
0.0
 40
0.3466261651182787
 50
17.9771882439293194
 51
72.9985981407593982
  0
ARC
  5
21DD3
  8
0
 10
4632.5392794276103814
 20
314.5332535771439098
 30
0.0
 40
0.5743274622583197
 50
354.9532745107804885
 51
14.0654546088310308
  0
ARC
  5
21DD4
  8
0
 10
4602.3072912018196803
 20
315.9975713137600906
 30
0.0
 40
30.8413140384542999
 50
355.6141613033481121
 51
357.1846566259068823
  0
ARC
  5
21DD5
  8
0
 10
4631.4931891865398939
 20
313.7634430653307049
 30
0.0
 40
1.570037998481576
 50
333.4515629810297241
 51
355.4559526897662067
  0
ARC
  5
21DD6
  8
0
 10
4632.9316425774659365
 20
313.0465328140114138
 30
0.0
 40
0.0372010474351989
 50
155.925602016663305
 51
215.474434135160692
  0
ARC
  5
21DD7
  8
0
 10
4632.5959760816404014
 20
313.4216709446508844
 30
0.0
 40
1.603750027677658
 50
77.670485915382514
 51
91.5131449368965946
  0
ARC
  5
21DD8
  8
0
 10
4632.8474959256900547
 20
314.5723969085524914
 30
0.0
 40
0.4258567914512116
 50
24.9263565157121008
 51
77.670485915382514
  0
ARC
  5
21DD9
  8
0
 10
4632.5034334141482759
 20
314.4608374836383859
 30
0.0
 40
0.7861103260848167
 50
1.4386470538918601
 51
21.7295224258508384
  0
ARC
  5
21DDA
  8
0
 10
-3525352.9682048829272389
 20
-198691.2917418516881298
 30
0.0
 40
3535591.3615065459161997
 50
3.2266736617561889
 51
3.2266794852913421
  0
ARC
  5
21DDB
  8
0
 10
4641.4678298146291127
 20
314.446249309073778
 30
0.0
 40
8.1647564992482913
 50
182.2774990175909977
 51
186.0909456561242905
  0
ARC
  5
21DDC
  8
0
 10
4634.8708489258588088
 20
313.7493491772655716
 30
0.0
 40
1.5310875384290139
 50
186.3536274594557938
 51
206.693956227988906
  0
ARC
  5
21DDD
  8
0
 10
4633.4686462247664167
 20
313.0465554873712222
 30
0.0
 40
0.0374332907034798
 50
324.7359953649036015
 51
23.6081450534049608
  0
LINE
  5
21DDE
  8
0
 10
4632.5527592413300226
 20
315.1595161669092136
 30
0.0
 11
4630.2876172684309495
 21
315.2041876911147824
 31
0.0
  0
ARC
  5
21DDF
  8
0
 10
4632.5501766082516042
 20
312.3897678924890897
 30
0.0
 40
2.7697494784992061
 50
83.7484879302302829
 51
89.9465749527231964
  0
ARC
  5
21DE0
  8
0
 10
4632.8161979096703362
 20
314.512888603783324
 30
0.0
 40
0.631162314599659
 50
41.6243492656874707
 51
86.7679139383960063
  0
ARC
  5
21DE1
  8
0
 10
4632.6483718167446568
 20
314.4944888641505827
 30
0.0
 40
0.7750226016802662
 50
359.1279247830199211
 51
34.3805856814155817
  0
ARC
  5
21DE2
  8
0
 10
5997.7588993451117858
 20
409.7050004690540277
 30
0.0
 40
1367.6545261124460922
 50
183.992421917271713
 51
184.007578432814995
  0
ARC
  5
21DE3
  8
0
 10
4635.0512821196316509
 20
314.1831303979760719
 30
0.0
 40
1.60391397030505
 50
182.1918668238342036
 51
203.1253035692332958
  0
ARC
  5
21DE4
  8
0
 10
4634.6601844322085526
 20
314.1699065082062248
 30
0.0
 40
1.247094789159477
 50
209.6375358767737964
 51
242.7008643316387122
  0
ARC
  5
21DE5
  8
0
 10
4634.0771252169151921
 20
313.0453575176081813
 30
0.0
 40
0.0204148276107774
 50
270.5326934812576951
 51
358.5827899932552896
  0
ARC
  5
21DE6
  8
0
 10
4634.0768425889964419
 20
313.0444213024508144
 30
0.0
 40
0.0206957055358556
 50
1.194152018931341
 51
56.6447431514698465
  0
ARC
  5
21DE7
  8
0
 10
4635.9160267152992674
 20
313.5976813033797157
 30
0.0
 40
0.6820501765849745
 50
306.2793129985744258
 51
348.3082995938833051
  0
ARC
  5
21DE8
  8
0
 10
4630.7803557428305794
 20
314.4853470636684278
 30
0.0
 40
5.8935435719510414
 50
349.9755465037200111
 51
359.8682049742488971
  0
ARC
  5
21DE9
  8
0
 10
4618.3609521746384416
 20
315.2419444232230035
 30
0.0
 40
18.3291188848445117
 50
357.5918335457770922
 51
359.5661176517592139
  0
ARC
  5
21DEA
  8
0
 10
4470.2809928036913334
 20
318.125996117854811
 30
0.0
 40
166.436005849614304
 50
358.959323028464496
 51
0.5877738514169755
  0
LINE
  5
21DEB
  8
0
 10
4636.5656113054910747
 20
319.8333647435092075
 30
0.0
 11
4637.8349350423713986
 21
319.8333647435092075
 31
0.0
  0
ARC
  5
21DEC
  8
0
 10
4637.2017987075378187
 20
320.9013362613599156
 30
0.0
 40
1.013825017636115
 50
90.0862147497332728
 51
119.6485195798751988
  0
ARC
  5
21DED
  8
0
 10
4636.7454491298949506
 20
321.7064278175635081
 30
0.0
 40
0.0884084591490231
 50
120.7233998478044015
 51
167.7260163021522033
  0
ARC
  5
21DEE
  8
0
 10
4678.9214652611508427
 20
317.4553834382405171
 30
0.0
 40
42.4775504942488027
 50
174.2308909783494926
 51
175.4979451306880094
  0
ARC
  5
21DEF
  8
0
 10
4647.0497924036226323
 20
319.8234932576046958
 30
0.0
 40
10.5192771209403908
 50
174.7301544350256108
 51
179.7547799832007058
  0
ARC
  5
21DF0
  8
0
 10
4636.5656113054910747
 20
319.8683647435092894
 30
0.0
 40
0.035
 50
179.7547799832038891
 51
270.0
  0
ARC
  5
21DF1
  8
0
 10
4636.3317339917557547
 20
313.0319442377195855
 30
0.0
 40
0.0200006658559756
 50
127.3104616879260931
 51
269.9879051769358966
  0
LINE
  5
21DF2
  8
0
 10
4642.258773173881309
 20
312.7206005723091948
 30
0.0
 11
4640.1417731739811643
 21
312.7206005723091948
 31
0.0
  0
LINE
  5
21DF3
  8
0
 10
4642.1232747799149365
 20
313.0119435723091783
 30
0.0
 11
4640.2772715679466273
 21
313.0119435723091783
 31
0.0
  0
LINE
  5
21DF4
  8
0
 10
4642.07752533094299
 20
313.024943572309212
 30
0.0
 11
4640.3232313318203524
 21
313.024943572309212
 31
0.0
  0
LINE
  5
21DF5
  8
0
 10
4642.3245140615290438
 20
312.8704560354029809
 30
0.0
 11
4642.1350304850066095
 21
313.0081239121627732
 31
0.0
  0
ARC
  5
21DF6
  8
0
 10
4642.3188195212551364
 20
312.7225089873084016
 30
0.0
 40
0.060076666691933
 50
106.7221526710069952
 51
181.8203826750228984
  0
ARC
  5
21DF7
  8
0
 10
4642.2933097193981666
 20
312.8302614529887933
 30
0.0
 40
0.0508853163825001
 50
279.3007202310777757
 51
52.1766649215890865
  0
LINE
  5
21DF8
  8
0
 10
4642.3015336122025474
 20
312.7800450910091854
 30
0.0
 11
4640.0990127356590165
 21
312.7800450910091854
 31
0.0
  0
ARC
  5
21DF9
  8
0
 10
4642.1232747799149365
 20
312.9919435723091965
 30
0.0
 40
0.02
 50
53.9999999885174731
 51
90.0
  0
LINE
  5
21DFA
  8
0
 10
4642.0452731738796501
 20
313.024943572309212
 30
0.0
 11
4642.0452731738796501
 21
313.0119435723091783
 31
0.0
  0
LINE
  5
21DFB
  8
0
 10
4640.0760322863334295
 20
312.8704560354029809
 30
0.0
 11
4640.2655158628540448
 21
313.0081239121627732
 31
0.0
  0
ARC
  5
21DFC
  8
0
 10
4640.081726826607337
 20
312.7225089873084016
 30
0.0
 40
0.060076666691933
 50
358.1796173249770163
 51
73.2778473289929764
  0
ARC
  5
21DFD
  8
0
 10
4640.1072366284643067
 20
312.8302614529887933
 30
0.0
 40
0.0508853163825001
 50
127.8233350784109064
 51
260.6992797689222243
  0
ARC
  5
21DFE
  8
0
 10
4640.2772715679466273
 20
312.9919435723091965
 30
0.0
 40
0.02
 50
90.0
 51
126.0000000114824985
  0
LINE
  5
21DFF
  8
0
 10
4640.3552731739800947
 20
313.024943572309212
 30
0.0
 11
4640.3552731739800947
 21
313.0119435723091783
 31
0.0
  0
ARC
  5
21E00
  8
0
 10
4642.996869708680606
 20
314.61247663723492
 30
0.0
 40
1.797259739551951
 50
222.3203672962638109
 51
239.6382989717648115
  0
ARC
  5
21E01
  8
0
 10
4642.07752533094299
 20
313.0449435723093075
 30
0.0
 40
0.0199999999999998
 50
270.0
 51
56.9525626453431286
  0
ARC
  5
21E02
  8
0
 10
4642.7685686030508805
 20
314.1313223810465729
 30
0.0
 40
1.320061397299003
 50
180.4138689604662034
 51
213.515917985169807
  0
ARC
  5
21E03
  8
0
 10
623.1981550556191678
 20
33.3196825785357831
 30
0.0
 40
4028.0498993009518927
 50
3.997426944737712
 51
4.002573076871565
  0
ARC
  5
21E04
  8
0
 10
4641.7318704607532709
 20
314.3063975003054793
 30
0.0
 40
0.490070378600795
 50
90.021899408941465
 51
112.8207423762279973
  0
ARC
  5
21E05
  8
0
 10
4641.6240548377936648
 20
314.5729321135074201
 30
0.0
 40
0.2026226038685655
 50
113.9516574694234947
 51
177.640829436452492
  0
ARC
  5
21E06
  8
0
 10
4642.0579865296977005
 20
314.5429469611203217
 30
0.0
 40
0.6375355896646506
 50
176.5535513321318888
 51
185.4231585618904035
  0
ARC
  5
21E07
  8
0
 10
4641.7896774427781565
 20
312.6698650967646245
 30
0.0
 40
2.127393376653735
 50
88.434773264411163
 51
91.562118261930749
  0
ARC
  5
21E08
  8
0
 10
4645.899884934581678
 20
463.0869750494118193
 30
0.0
 40
148.3458626263067117
 50
268.4347592857910172
 51
269.3098054567233817
  0
LINE
  5
21E09
  8
0
 10
4644.1530290794307803
 20
315.164087691114787
 30
0.0
 11
4644.1530290794307803
 21
314.7919755378168247
 31
0.0
  0
LINE
  5
21E0A
  8
0
 10
4644.0898496411300584
 20
315.0526785637092075
 30
0.0
 11
4644.0898495958308558
 21
314.9033178640091819
 31
0.0
  0
LINE
  5
21E0B
  8
0
 10
4644.0898496411300584
 20
315.0526785640835783
 30
0.0
 11
4641.8469193568298579
 21
315.0248617336092138
 31
0.0
  0
ARC
  5
21E0C
  8
0
 10
4644.1129290794297049
 20
315.164087691114787
 30
0.0
 40
0.0401
 50
0.0
 51
90.0
  0
ARC
  5
21E0D
  8
0
 10
4644.1129290794297049
 20
314.7919755378168247
 30
0.0
 40
0.0401
 50
270.0
 51
0.0
  0
LINE
  5
21E0E
  8
0
 10
4644.0898496109448388
 20
315.0526785637092075
 30
0.0
 11
4644.1412840613556909
 21
315.1924426730403752
 31
0.0
  0
LINE
  5
21E0F
  8
0
 10
4644.0898495958308558
 20
314.903317864609221
 30
0.0
 11
4644.1412840613556909
 21
314.7636205558911797
 31
0.0
  0
LINE
  5
21E10
  8
0
 10
4644.0898495958308558
 20
314.903317864609221
 30
0.0
 11
4641.8469965012309331
 21
314.9311182065092112
 31
0.0
  0
ARC
  5
21E11
  8
0
 10
4641.7857992084818761
 20
314.0203196927453178
 30
0.0
 40
0.9128521464697209
 50
86.1560277098539444
 51
106.1092442879022002
  0
ARC
  5
21E12
  8
0
 10
4641.6338622223811399
 20
314.5658503803163057
 30
0.0
 40
0.3466261651182787
 50
107.0014018592406018
 51
162.0228117560675969
  0
ARC
  5
21E13
  8
0
 10
4641.8612669202520919
 20
314.5332535771439098
 30
0.0
 40
0.5743274622583197
 50
165.9345453911689106
 51
185.0467254892193978
  0
ARC
  5
21E14
  8
0
 10
4672.0932551460418836
 20
315.9975713137600906
 30
0.0
 40
30.8413140384542999
 50
182.8153433740930893
 51
184.3858386966518026
  0
ARC
  5
21E15
  8
0
 10
4642.9073571613207605
 20
313.7634430653307049
 30
0.0
 40
1.570037998481576
 50
184.5440473102337933
 51
206.5484370189701906
  0
ARC
  5
21E16
  8
0
 10
4641.4689037703956274
 20
313.0465328140114138
 30
0.0
 40
0.0372010474351989
 50
324.5255658648392796
 51
24.0743979833367092
  0
ARC
  5
21E17
  8
0
 10
4641.804570266222072
 20
313.4216709446508844
 30
0.0
 40
1.603750027677658
 50
88.4868550631034054
 51
102.3295140846175002
  0
ARC
  5
21E18
  8
0
 10
4641.5530504221733281
 20
314.5723969085524914
 30
0.0
 40
0.4258567914512116
 50
102.3295140846175002
 51
155.0736434842879135
  0
ARC
  5
21E19
  8
0
 10
4641.8971129337141974
 20
314.4608374836383859
 30
0.0
 40
0.7861103260848167
 50
158.2704775741491972
 51
178.5613529461080873
  0
ARC
  5
21E1A
  8
0
 10
3534627.3687512311153114
 20
-198691.2917418516881298
 30
0.0
 40
3535591.3615065459161997
 50
176.7733205147085869
 51
176.7733263382438054
  0
ARC
  5
21E1B
  8
0
 10
4632.9327165332342702
 20
314.446249309073778
 30
0.0
 40
8.1647564992482913
 50
353.9090543438755958
 51
357.7225009824089739
  0
ARC
  5
21E1C
  8
0
 10
4639.5296974220036645
 20
313.7493491772655716
 30
0.0
 40
1.5310875384290139
 50
333.3060437720109803
 51
353.646372540544121
  0
ARC
  5
21E1D
  8
0
 10
4640.9319001230960566
 20
313.0465554873712222
 30
0.0
 40
0.0374332907034798
 50
156.3918549465950036
 51
215.2640046350963985
  0
LINE
  5
21E1E
  8
0
 10
4641.8477871065297222
 20
315.1595161669092136
 30
0.0
 11
4644.1129290794297049
 21
315.2041876911147824
 31
0.0
  0
ARC
  5
21E1F
  8
0
 10
4641.8503697396090502
 20
312.3897678924890897
 30
0.0
 40
2.7697494784992061
 50
90.0534250472768178
 51
96.2515120697697171
  0
ARC
  5
21E20
  8
0
 10
4641.5843484381921371
 20
314.512888603783324
 30
0.0
 40
0.631162314599659
 50
93.2320860616039937
 51
138.3756507343125008
  0
ARC
  5
21E21
  8
0
 10
4641.8105671173661904
 20
314.4769099608159877
 30
0.0
 40
0.8333454826386891
 50
146.889101004628202
 51
179.6023885309334105
  0
ARC
  5
21E22
  8
0
 10
3276.6416399414379157
 20
409.7050009629911074
 30
0.0
 40
1367.6545331910119785
 50
355.9924215672173773
 51
356.0075780826826986
  0
ARC
  5
21E23
  8
0
 10
4639.3492642282290035
 20
314.1831303979760719
 30
0.0
 40
1.60391397030505
 50
336.8746964307666758
 51
357.8081331761657111
  0
ARC
  5
21E24
  8
0
 10
4639.7403619156511922
 20
314.1699065082062248
 30
0.0
 40
1.247094789159477
 50
297.2991356683613162
 51
330.3624641232261752
  0
ARC
  5
21E25
  8
0
 10
4640.3229247100907742
 20
313.044852608729002
 30
0.0
 40
0.0199113974408802
 50
122.165087159474794
 51
180.0000000000065086
  0
ARC
  5
21E26
  8
0
 10
4640.3229247100907742
 20
313.044852608729002
 30
0.0
 40
0.0199113974408825
 50
179.9999999999870113
 51
270.8823501951891899
  0
ARC
  5
21E27
  8
0
 10
4638.484519632563206
 20
313.5976813033797157
 30
0.0
 40
0.6820501765849745
 50
191.6917004061166097
 51
233.7206870014256026
  0
ARC
  5
21E28
  8
0
 10
4643.6201906050291655
 20
314.4853470636684278
 30
0.0
 40
5.8935435719510414
 50
180.1317950257509892
 51
190.0244534962799037
  0
ARC
  5
21E29
  8
0
 10
4656.0395941732240317
 20
315.2419444232230035
 30
0.0
 40
18.3291188848445117
 50
180.4338823482407008
 51
182.4081664542229078
  0
ARC
  5
21E2A
  8
0
 10
4804.1195535441720494
 20
318.125996117854811
 30
0.0
 40
166.436005849614304
 50
179.4122261485829881
 51
181.0406769715353903
  0
ARC
  5
21E2B
  8
0
 10
4637.1987476403237451
 20
320.9013362613599156
 30
0.0
 40
1.013825017636115
 50
60.3514804201248083
 51
89.9137852502667272
  0
ARC
  5
21E2C
  8
0
 10
4637.6550972179657037
 20
321.7064278175635081
 30
0.0
 40
0.0884084591490231
 50
12.2739836978477896
 51
59.2766001521956127
  0
ARC
  5
21E2D
  8
0
 10
4595.4790810867098116
 20
317.4553834382405171
 30
0.0
 40
42.4775504942488027
 50
4.5020548693119578
 51
5.7691090216504666
  0
ARC
  5
21E2E
  8
0
 10
4627.3507539442389316
 20
319.8234932576046958
 30
0.0
 40
10.5192771209403908
 50
0.2452200167993394
 51
5.2698455649743954
  0
ARC
  5
21E2F
  8
0
 10
4637.8349350423713986
 20
319.8683647435092894
 30
0.0
 40
0.035
 50
270.0
 51
0.2452200167960826
  0
ARC
  5
21E30
  8
0
 10
4638.0688123561048997
 20
313.0319442377195855
 30
0.0
 40
0.0200006658559756
 50
270.0120948230641034
 51
52.6895383120738998
  0
ENDSEC
  0
EOF
