  0
SECTION
  2
HEADER
  9
$ACADVER
  1
AC1009
  9
$INSBASE
 10
4226.5701867141942785
 20
181.5839480280124008
 30
0.0
  9
$EXTMIN
 10
4221.3004451214628716
 20
175.0460745434920113
 30
0.0
  9
$EXTMAX
 10
4231.8399283069229568
 20
182.8562482573530872
 30
0.0
  9
$LIMMIN
 10
0.0
 20
0.0
  9
$LIMMAX
 10
11.6929133858000007
 20
8.2677165353999982
  9
$ORTHOMODE
 70
     1
  9
$REGENMODE
 70
     1
  9
$FILLMODE
 70
     1
  9
$QTEXTMODE
 70
     0
  9
$MIRRTEXT
 70
     0
  9
$DRAGMODE
 70
     2
  9
$LTSCALE
 40
0.6431102362
  9
$OSMODE
 70
  4095
  9
$ATTMODE
 70
     1
  9
$TEXTSIZE
 40
0.2
  9
$TRACEWID
 40
0.05
  9
$TEXTSTYLE
  7
STANDARD
  9
$CLAYER
  8
0
  9
$CELTYPE
  6
BYLAYER
  9
$CECOLOR
 62
   256
  9
$DIMSCALE
 40
1.0
  9
$DIMASZ
 40
0.1875
  9
$DIMEXO
 40
0.0625
  9
$DIMDLI
 40
0.4443307087
  9
$DIMRND
 40
0.0
  9
$DIMDLE
 40
0.0
  9
$DIMEXE
 40
0.125
  9
$DIMTP
 40
0.01
  9
$DIMTM
 40
0.01
  9
$DIMTXT
 40
2.0
  9
$DIMCEN
 40
0.1052362205
  9
$DIMTSZ
 40
0.0
  9
$DIMTOL
 70
     1
  9
$DIMLIM
 70
     0
  9
$DIMTIH
 70
     1
  9
$DIMTOH
 70
     1
  9
$DIMSE1
 70
     0
  9
$DIMSE2
 70
     0
  9
$DIMTAD
 70
     0
  9
$DIMZIN
 70
     0
  9
$DIMBLK
  1

  9
$DIMASO
 70
     1
  9
$DIMSHO
 70
     1
  9
$DIMPOST
  1
\X
  9
$DIMAPOST
  1

  9
$DIMALT
 70
     1
  9
$DIMALTD
 70
     2
  9
$DIMALTF
 40
25.3999999999999986
  9
$DIMLFAC
 40
1.0
  9
$DIMTOFL
 70
     0
  9
$DIMTVP
 40
0.0
  9
$DIMTIX
 70
     0
  9
$DIMSOXD
 70
     0
  9
$DIMSAH
 70
     0
  9
$DIMBLK1
  1

  9
$DIMBLK2
  1

  9
$DIMSTYLE
  2
STANDARD
  9
$DIMCLRD
 70
     0
  9
$DIMCLRE
 70
     0
  9
$DIMCLRT
 70
     0
  9
$DIMTFAC
 40
1.0
  9
$DIMGAP
 40
0.09
  9
$LUNITS
 70
     2
  9
$LUPREC
 70
     4
  9
$SKETCHINC
 40
0.1
  9
$FILLETRAD
 40
0.0
  9
$AUNITS
 70
     0
  9
$AUPREC
 70
     0
  9
$MENU
  1
.
  9
$ELEVATION
 40
0.0
  9
$PELEVATION
 40
0.0
  9
$THICKNESS
 40
0.0
  9
$LIMCHECK
 70
     0
  9
$BLIPMODE
 70
     0
  9
$CHAMFERA
 40
0.0
  9
$CHAMFERB
 40
0.0
  9
$SKPOLY
 70
     0
  9
$TDCREATE
 40
2458060.468368056230247
  9
$TDUPDATE
 40
2459477.3814467592164874
  9
$TDINDWG
 40
0.4422408565
  9
$TDUSRTIMER
 40
0.4422408565
  9
$USRTIMER
 70
     1
  9
$ANGBASE
 50
0.0
  9
$ANGDIR
 70
     0
  9
$PDMODE
 70
     0
  9
$PDSIZE
 40
0.3125
  9
$PLINEWID
 40
0.0
  9
$COORDS
 70
     1
  9
$SPLFRAME
 70
     0
  9
$SPLINETYPE
 70
     6
  9
$SPLINESEGS
 70
     8
  9
$ATTDIA
 70
     1
  9
$ATTREQ
 70
     1
  9
$HANDLING
 70
     1
  9
$HANDSEED
  5
DF1F
  9
$SURFTAB1
 70
     6
  9
$SURFTAB2
 70
     6
  9
$SURFTYPE
 70
     6
  9
$SURFU
 70
     6
  9
$SURFV
 70
     6
  9
$UCSNAME
  2

  9
$UCSORG
 10
0.0
 20
0.0
 30
0.0
  9
$UCSXDIR
 10
1.0
 20
0.0
 30
0.0
  9
$UCSYDIR
 10
0.0
 20
1.0
 30
0.0
  9
$PUCSNAME
  2

  9
$PUCSORG
 10
0.0
 20
0.0
 30
0.0
  9
$PUCSXDIR
 10
1.0
 20
0.0
 30
0.0
  9
$PUCSYDIR
 10
0.0
 20
1.0
 30
0.0
  9
$USERI1
 70
     0
  9
$USERI2
 70
     0
  9
$USERI3
 70
     0
  9
$USERI4
 70
     0
  9
$USERI5
 70
     0
  9
$USERR1
 40
0.0
  9
$USERR2
 40
0.0
  9
$USERR3
 40
0.0
  9
$USERR4
 40
0.0
  9
$USERR5
 40
0.0
  9
$WORLDVIEW
 70
     1
  9
$SHADEDGE
 70
     3
  9
$SHADEDIF
 70
    70
  9
$TILEMODE
 70
     1
  9
$MAXACTVP
 70
    64
  9
$PLIMCHECK
 70
     0
  9
$PEXTMIN
 10
1.0000000000000000E+20
 20
1.0000000000000000E+20
 30
1.0000000000000000E+20
  9
$PEXTMAX
 10
-1.0000000000000000E+20
 20
-1.0000000000000000E+20
 30
-1.0000000000000000E+20
  9
$PLIMMIN
 10
0.0
 20
0.0
  9
$PLIMMAX
 10
12.0
 20
9.0
  9
$UNITMODE
 70
     0
  9
$VISRETAIN
 70
     1
  9
$PLINEGEN
 70
     0
  9
$PSLTSCALE
 70
     1
  0
ENDSEC
  0
SECTION
  2
TABLES
  0
TABLE
  2
VPORT
 70
     1
  0
VPORT
  2
*ACTIVE
 70
     0
 10
0.0
 20
0.0
 11
1.0
 21
1.0
 12
422.9339661045777916
 22
52.9525327939427513
 13
0.0
 23
0.0
 14
1.0
 24
1.0
 15
0.0
 25
0.0
 16
0.0
 26
0.0
 36
17.1152628219792007
 17
3803.5440673828129547
 27
125.9952621967499056
 37
0.0
 40
7.9020971682416477
 41
2.7718023255813948
 42
50.0
 43
0.0
 44
0.0
 50
0.0
 51
0.0
 71
     0
 72
   100
 73
     1
 74
     1
 75
     0
 76
     0
 77
     0
 78
     0
  0
ENDTAB
  0
TABLE
  2
LTYPE
 70
     2
  0
LTYPE
  2
CONTINUOUS
 70
     0
  3
Solid line
 72
    65
 73
     0
 40
0.0
  0
LTYPE
  2
PHANTOM2
 70
     0
  3
___ _ _ ___ _ _ ___ _ _ ___ _ _
 72
    65
 73
     6
 40
1.25
 49
0.625
 49
-0.125
 49
0.125
 49
-0.125
 49
0.125
 49
-0.125
  0
ENDTAB
  0
TABLE
  2
LAYER
 70
     2
  0
LAYER
  2
0
 70
     0
 62
   255
  6
CONTINUOUS
  0
LAYER
  2
DEFPOINTS
 70
     0
 62
     7
  6
CONTINUOUS
  0
ENDTAB
  0
TABLE
  2
STYLE
 70
     1
  0
STYLE
  2
STANDARD
 70
     0
 40
0.0
 41
0.8
 50
0.0
 71
     0
 42
0.2
  3
txt
  4

  0
ENDTAB
  0
TABLE
  2
VIEW
 70
     0
  0
ENDTAB
  0
TABLE
  2
UCS
 70
     0
  0
ENDTAB
  0
TABLE
  2
APPID
 70
     9
  0
APPID
  2
ACAD
 70
     0
  0
APPID
  2
ACAD_MLEADERVER
 70
     0
  0
APPID
  2
ACAD_EXEMPT_FROM_CAD_STANDARDS
 70
     0
  0
APPID
  2
ACAD_NAV_VCDISPLAY
 70
     0
  0
APPID
  2
ACAECLAYERSTANDARD
 70
     0
  0
APPID
  2
ACCMTRANSPARENCY
 70
     0
  0
APPID
  2
ACAD_DSTYLE_DIMJAG
 70
     0
  0
APPID
  2
ACAD_DSTYLE_DIMTALN
 70
     0
  0
APPID
  2
ACDBATTR
 70
     0
  0
ENDTAB
  0
TABLE
  2
DIMSTYLE
 70
     1
  0
DIMSTYLE
  2
STANDARD
 70
     0
  3

  4

  5

  6

  7

 40
1.0
 41
0.1875
 42
0.0625
 43
0.38
 44
0.125
 45
0.0
 46
0.0
 47
0.01
 48
0.01
140
0.15625
141
0.09
142
0.0
143
25.3999999999999986
144
1.0
145
0.0
146
1.0
147
0.09
 71
     1
 72
     0
 73
     1
 74
     1
 75
     0
 76
     0
 77
     0
 78
     4
170
     0
171
     2
172
     0
173
     0
174
     0
175
     0
176
     0
177
     0
178
     0
  0
ENDTAB
  0
ENDSEC
  0
SECTION
  2
BLOCKS
  0
BLOCK
  8
0
  2
$MODEL_SPACE
 70
     0
 10
0.0
 20
0.0
 30
0.0
  3
$MODEL_SPACE
  1

  0
ENDBLK
  5
21
  8
0
  0
BLOCK
 67
     1
  8
0
  2
$PAPER_SPACE
 70
     0
 10
0.0
 20
0.0
 30
0.0
  3
$PAPER_SPACE
  1

  0
ENDBLK
  5
1D
 67
     1
  8
0
  0
ENDSEC
  0
SECTION
  2
ENTITIES
  0
ATTDEF
  5
C4C4
  8
DEFPOINTS
 10
4226.5706493974666955
 20
181.5882936991876875
 30
0.0
 40
0.001
  1
P25007-CR
  3

  2
MODELNUMBER
 70
     0
1001
ACDBATTR
1070
     0
1070
     1
  0
ATTDEF
  5
C4C5
  8
DEFPOINTS
 10
4226.5706493974666955
 20
181.5866270325209939
 30
0.0
 40
0.001
  1
SCRIPT
  3

  2
TRADENAME
 70
     0
1001
ACDBATTR
1070
     0
1070
     1
  0
ATTDEF
  5
C4C6
  8
DEFPOINTS
 10
4226.5706493974666955
 20
181.5849603658543003
 30
0.0
 40
0.001
  1
BATHROOM SINK FAUCET
  3

  2
PRODUCT
 70
     0
1001
ACDBATTR
1070
     0
1070
     1
  0
ARC
  5
DCBD
  8
0
 10
4222.570186714110605
 20
181.5839480288994991
 30
0.0
 40
1.1430800608577649
 50
195.3855650736620078
 51
254.6167593384020904
  0
ARC
  5
DCBE
  8
0
 10
4222.570186714110605
 20
181.5839480288994991
 30
0.0
 40
1.1430800608577649
 50
285.3832406698662112
 51
344.6144349267016196
  0
ARC
  5
DCBF
  8
0
 10
4222.570186714110605
 20
181.5839480288994991
 30
0.0
 40
1.1430800608577649
 50
15.3835242042565703
 51
74.6096916979775244
  0
ARC
  5
DCC0
  8
0
 10
4222.570186714110605
 20
181.5839480288994991
 30
0.0
 40
1.1430800608577649
 50
105.3903082936446935
 51
164.616475795379813
  0
ARC
  5
DCC1
  8
0
 10
4222.570186714110605
 20
181.5839480288994991
 30
0.0
 40
0.8985790037184205
 50
198.9887221266600932
 51
251.0126581609214043
  0
ARC
  5
DCC2
  8
0
 10
4222.570186714110605
 20
181.5839480288994991
 30
0.0
 40
0.8985790037184205
 50
288.9873418497679722
 51
341.0112778738081261
  0
ARC
  5
DCC3
  8
0
 10
4222.570186714110605
 20
181.5839480288994991
 30
0.0
 40
0.8985790037184205
 50
18.9873422244253689
 51
71.004109099930858
  0
ARC
  5
DCC4
  8
0
 10
4222.570186714110605
 20
181.5839480288994991
 30
0.0
 40
0.8985790037184205
 50
108.995890889213797
 51
161.0126577751063905
  0
ARC
  5
DCC5
  8
0
 10
4222.570186714193369
 20
181.5839480288994991
 30
0.0
 40
0.934757311203305
 50
198.3322101917594011
 51
251.6693416690727929
  0
ARC
  5
DCC6
  8
0
 10
4222.570186714193369
 20
181.5839480288994991
 30
0.0
 40
0.934757311203305
 50
288.3306583309271787
 51
341.6677898082406273
  0
ARC
  5
DCC7
  8
0
 10
4222.570186714193369
 20
181.5839480288994991
 30
0.0
 40
0.934757311203305
 50
18.3306713597339197
 51
71.6599434621143132
  0
ARC
  5
DCC8
  8
0
 10
4222.570186714193369
 20
181.5839480288994991
 30
0.0
 40
0.934757311203305
 50
108.340056537885701
 51
161.6693286402660874
  0
ARC
  5
DCC9
  8
0
 10
4222.1240397483707056
 20
182.0301069658256949
 30
0.0
 40
0.1710050774902425
 50
322.4647058120378915
 51
1.536089448532495
  0
ARC
  5
DCCA
  8
0
 10
4222.1240404622631104
 20
182.030106417338402
 30
0.0
 40
0.1710041772238511
 50
284.0556435415930991
 51
322.4647058120378915
  0
ARC
  5
DCCB
  8
0
 10
4222.1240052203611413
 20
182.0302471823628991
 30
0.0
 40
0.1711492867816582
 50
267.9183719617549855
 51
284.0556435415930991
  0
ARC
  5
DCCC
  8
0
 10
4582.7164923443096995
 20
8565.2694393985257193
 30
0.0
 40
8391.1619270235005388
 50
267.5318520934844173
 51
267.5370337914885113
  0
ARC
  5
DCCD
  8
0
 10
4221.3572441239912223
 20
181.8442495003125998
 30
0.0
 40
0.0476662718500127
 50
87.1505139232578756
 51
175.2432236552052984
  0
ARC
  5
DCCE
  8
0
 10
4214.647551591170668
 20
181.9502363742842022
 30
0.0
 40
6.6629717384095368
 50
356.8486491892343793
 51
359.1225609395950755
  0
ARC
  5
DCCF
  8
0
 10
4224.4714926953629401
 20
181.5799874626748078
 30
0.0
 40
3.171047573899461
 50
179.9284388537157895
 51
184.6786437216107117
  0
ARC
  5
DCD0
  8
0
 10
4221.3596168293333903
 20
181.324717128392507
 30
0.0
 40
0.0487228888842288
 50
183.9809343208021915
 51
269.9986759483504102
  0
ARC
  5
DCD1
  8
0
 10
2387.7213310456008912
 20
42680.2334757280768827
 30
0.0
 40
42538.4956994524618494
 50
272.4705221745383028
 51
272.4715410937998854
  0
ARC
  5
DCD2
  8
0
 10
4222.1236758629083852
 20
181.1366695456684113
 30
0.0
 40
0.172139184696869
 50
65.5632500027444678
 51
92.7571614508594422
  0
ARC
  5
DCD3
  8
0
 10
4222.1243527055075901
 20
181.1380193975639088
 30
0.0
 40
0.1706302623634393
 50
21.0447061431255307
 51
65.5826558817079217
  0
ARC
  5
DCD4
  8
0
 10
4222.1246856931657021
 20
181.1378937830438076
 30
0.0
 40
0.170364757103421
 50
357.4974621265876067
 51
21.1243485517173184
  0
ARC
  5
DCD5
  8
0
 10
33157.8022457793122157
 20
-1065.1848663345740533
 30
0.0
 40
28962.3356781534494075
 50
177.53367042493079
 51
177.5351695327152015
  0
ARC
  5
DCD6
  8
0
 10
4222.3123034128630024
 20
180.3731112104104
 30
0.0
 40
0.0500152859066661
 50
179.6973671706084872
 51
262.6823106287750988
  0
ARC
  5
DCD7
  8
0
 10
4222.9431760370625852
 20
191.574672364872697
 30
0.0
 40
11.26920069571465
 50
266.7583479921132152
 51
268.1032711733827227
  0
LINE
  5
DCD8
  8
0
 10
4222.2434211069930825
 20
181.9077579152713042
 30
0.0
 11
4222.570186714110605
 21
181.5839480288994991
 31
0.0
  0
LINE
  5
DCD9
  8
0
 10
4222.5701867145971846
 20
181.5839480284184049
 30
0.0
 11
4222.2457394390976333
 21
181.2579377819814965
 31
0.0
  0
ARC
  5
DCDA
  8
0
 10
4222.5700015583661298
 20
179.9093942633174947
 30
0.0
 40
2.946853994035624
 50
89.9963831237444509
 51
95.141191538990654
  0
ARC
  5
DCDB
  8
0
 10
4222.3102385257943752
 20
182.7965380310963894
 30
0.0
 40
0.0480480383160335
 50
95.141191538990654
 51
182.4082815434466056
  0
ARC
  5
DCDC
  8
0
 10
4450.0754530348467597
 20
192.3757081775997051
 30
0.0
 40
228.0146101500675968
 50
182.4082815434466056
 51
182.5331183376526099
  0
ARC
  5
DCDD
  8
0
 10
4119.6544163907046823
 20
177.7578539269360931
 30
0.0
 40
102.7296159822765986
 50
2.4113552697991132
 51
2.5331183376526698
  0
ARC
  5
DCDE
  8
0
 10
4389.8083694788938374
 20
189.1342948028799071
 30
0.0
 40
167.6637673986386119
 50
182.4113552697990883
 51
182.4268749181003955
  0
ARC
  5
DCDF
  8
0
 10
4222.5701867142752235
 20
181.5839480288994991
 30
0.0
 40
1.1430800608577649
 50
285.3832406615978812
 51
344.6144349263379922
  0
ARC
  5
DCE0
  8
0
 10
4222.5701867142752235
 20
181.5839480288994991
 30
0.0
 40
1.1430800608577649
 50
15.3835242046202207
 51
74.6096917063553207
  0
ARC
  5
DCE1
  8
0
 10
4222.5701867142752235
 20
181.5839480288994991
 30
0.0
 40
0.8985790037184205
 50
288.9873418390786242
 51
341.0112778733399068
  0
ARC
  5
DCE2
  8
0
 10
4222.5701867142752235
 20
181.5839480288994991
 30
0.0
 40
0.8985790037184205
 50
18.9873422248935313
 51
71.0041091107861462
  0
ARC
  5
DCE3
  8
0
 10
4222.570186714193369
 20
181.5839480288994991
 30
0.0
 40
0.934757311203305
 50
288.3306583309271787
 51
341.6677898082406273
  0
ARC
  5
DCE4
  8
0
 10
4222.570186714193369
 20
181.5839480288994991
 30
0.0
 40
0.934757311203305
 50
18.3306713597339197
 51
71.6599434621143132
  0
ARC
  5
DCE5
  8
0
 10
4223.0163336800151228
 20
182.0301069658256949
 30
0.0
 40
0.1710050774902425
 50
178.4639105514675066
 51
217.5352941879621085
  0
ARC
  5
DCE6
  8
0
 10
4223.0163329661236276
 20
182.030106417338402
 30
0.0
 40
0.1710041772238511
 50
217.5352941879621085
 51
255.9443564584069009
  0
ARC
  5
DCE7
  8
0
 10
4223.0163682080255967
 20
182.0302471823628991
 30
0.0
 40
0.1711492867816582
 50
255.9443564584069009
 51
272.0816280382450145
  0
ARC
  5
DCE8
  8
0
 10
3862.4238810840761289
 20
8565.2694393985257193
 30
0.0
 40
8391.1619270235005388
 50
272.4629662085114887
 51
272.4681479065155827
  0
ARC
  5
DCE9
  8
0
 10
4223.7831293043946062
 20
181.8442495003125998
 30
0.0
 40
0.0476662718500127
 50
4.7567763447963571
 51
92.8494860767421386
  0
ARC
  5
DCEA
  8
0
 10
4230.4928218372151605
 20
181.9502363742842022
 30
0.0
 40
6.6629717384095368
 50
180.8774390604048961
 51
183.151350810765507
  0
ARC
  5
DCEB
  8
0
 10
4220.6688807330237978
 20
181.5799874626748078
 30
0.0
 40
3.171047573899461
 50
355.321356278389203
 51
0.0715611462842072
  0
ARC
  5
DCEC
  8
0
 10
4223.7807565990542571
 20
181.324717128392507
 30
0.0
 40
0.0487228888842288
 50
270.0013240516494761
 51
356.0190656791978085
  0
ARC
  5
DCED
  8
0
 10
6057.4190423827858467
 20
42680.2334757280768827
 30
0.0
 40
42538.4956994524618494
 50
267.5284589062000009
 51
267.5294778254615835
  0
ARC
  5
DCEE
  8
0
 10
4223.0166975654783528
 20
181.1366695456684113
 30
0.0
 40
0.172139184696869
 50
87.2428385491405862
 51
114.4367499972555038
  0
ARC
  5
DCEF
  8
0
 10
4223.0160207228791478
 20
181.1380193975639088
 30
0.0
 40
0.1706302623634393
 50
114.4173441182921067
 51
158.9552938568743912
  0
ARC
  5
DCF0
  8
0
 10
4223.0156877352201263
 20
181.1378937830438076
 30
0.0
 40
0.170364757103421
 50
158.8756514482826958
 51
182.5025378734123933
  0
ARC
  5
DCF1
  8
0
 10
-24712.6618723509200208
 20
-1065.1848663345740533
 30
0.0
 40
28962.3356781534494075
 50
2.4648304672847878
 51
2.466329575069186
  0
ARC
  5
DCF2
  8
0
 10
4222.828070015522826
 20
180.3731112104104
 30
0.0
 40
0.0500152859066661
 50
277.3176893712247875
 51
0.3026328293914621
  0
ARC
  5
DCF3
  8
0
 10
4222.1971973913232432
 20
191.574672364872697
 30
0.0
 40
11.26920069571465
 50
271.8967288266172773
 51
273.2416520078867848
  0
LINE
  5
DCF4
  8
0
 10
4222.8969523213936554
 20
181.9077579152713042
 30
0.0
 11
4222.5701867142752235
 21
181.5839480288994991
 31
0.0
  0
LINE
  5
DCF5
  8
0
 10
4222.5701867137886438
 20
181.5839480284184049
 30
0.0
 11
4222.8946339892891046
 21
181.2579377819814965
 31
0.0
  0
ARC
  5
DCF6
  8
0
 10
4222.5703718700224272
 20
179.9093942633174947
 30
0.0
 40
2.946853994035624
 50
84.8588084610093745
 51
90.0036168762555633
  0
ARC
  5
DCF7
  8
0
 10
4222.8301349025932723
 20
182.7965380310963894
 30
0.0
 40
0.0480480383160335
 50
357.5917184565532807
 51
84.8588084610093745
  0
ARC
  5
DCF8
  8
0
 10
3995.0649203935381593
 20
192.3757081775997051
 30
0.0
 40
228.0146101500675968
 50
357.4668816623473049
 51
357.5917184565532807
  0
ARC
  5
DCF9
  8
0
 10
4325.4859570376811462
 20
177.7578539269360931
 30
0.0
 40
102.7296159822765986
 50
177.4668816623473049
 51
177.5886447302009117
  0
ARC
  5
DCFA
  8
0
 10
4055.3320039494938101
 20
189.1342948028799071
 30
0.0
 40
167.6637673986386119
 50
357.5731250818980129
 51
357.5886447302008833
  0
ARC
  5
DCFB
  8
0
 10
4226.5701867141942785
 20
181.5839480290212862
 30
0.0
 40
1.1435696410698171
 50
296.1541097985153783
 51
243.8458902014845933
  0
ARC
  5
DCFC
  8
0
 10
4226.5701867141942785
 20
181.5839480290212862
 30
0.0
 40
0.8897476276771927
 50
304.1305784999968864
 51
235.8694215000022041
  0
ARC
  5
DCFD
  8
0
 10
4226.5701867141942785
 20
181.5839480290212862
 30
0.0
 40
0.9347573111000002
 50
302.3450287318066785
 51
237.6549712681932078
  0
ARC
  5
DCFE
  8
0
 10
4226.6549549591964023
 20
176.7838000238097891
 30
0.0
 40
1.7397917979765061
 50
252.5085250911866126
 51
267.2072598594349984
  0
ARC
  5
DD00
  8
0
 10
4227.1794523274884341
 20
177.7847166000402979
 30
0.0
 40
2.8590350076599429
 50
244.3888822523817907
 51
248.5091295643514115
  0
ARC
  5
DD01
  8
0
 10
4225.9873159012477117
 20
175.2815853904712924
 30
0.0
 40
0.0868085309847053
 50
181.1669372810980008
 51
239.7650782696487965
  0
ARC
  5
DD02
  8
0
 10
4361.0388881934341043
 20
174.5519424420097891
 30
0.0
 40
135.1403230259394945
 50
179.5827961432925122
 51
179.6913995090650928
  0
ARC
  5
DD03
  8
0
 10
4199.6358649362000506
 20
177.7451909096353972
 30
0.0
 40
26.3590265010628002
 50
355.1922443401870737
 51
357.2401914441268787
  0
ARC
  5
DD04
  8
0
 10
4172.1504975544321496
 20
179.2769577090930966
 30
0.0
 40
53.8866644645206705
 50
357.0205269612962979
 51
359.0796344234365733
  0
ARC
  5
DD05
  8
0
 10
-253558.4854910442081746
 20
4492.4928441041847691
 30
0.0
 40
257820.6117321676865686
 50
359.04123183141661
 51
359.0419689082285117
  0
ARC
  5
DD06
  8
0
 10
4226.5701867141942785
 20
181.1679794377295138
 30
0.0
 40
0.7701239039997958
 50
90.0
 51
112.2083264077877942
  0
ARC
  5
DD07
  8
0
 10
4226.5701867141942785
 20
181.1679794377288886
 30
0.0
 40
0.7701239040004026
 50
112.2083264077877942
 51
125.9243829999764017
  0
ARC
  5
DD08
  8
0
 10
4226.1647008456066033
 20
181.7276346179629911
 30
0.0
 40
0.0790141367524503
 50
125.9243829999764017
 51
179.9966153199104042
  0
ARC
  5
DD09
  8
0
 10
4226.4854184691912451
 20
176.7838000238097891
 30
0.0
 40
1.739791797976574
 50
272.7927401406170134
 51
287.4914749088134158
  0
ARC
  5
DD0A
  8
0
 10
4225.9609211008983038
 20
177.7847166000402979
 30
0.0
 40
2.8590350076599429
 50
291.4908704356486169
 51
295.6111177476182093
  0
ARC
  5
DD0B
  8
0
 10
4227.1530575271381167
 20
175.2815853904712924
 30
0.0
 40
0.0868085309847082
 50
300.234921730351175
 51
358.8330627189018855
  0
ARC
  5
DD0C
  8
0
 10
4092.1014852310249807
 20
174.5519424419829875
 30
0.0
 40
135.1403230298670906
 50
0.3086004909364788
 51
0.4172038567074603
  0
ARC
  5
DD0D
  8
0
 10
4253.5045084921857779
 20
177.7451909096353972
 30
0.0
 40
26.3590265010628002
 50
182.7598085558730077
 51
184.8077556598128126
  0
ARC
  5
DD0E
  8
0
 10
4280.9898758739545883
 20
179.2769577090930966
 30
0.0
 40
53.8866644645206705
 50
180.9203655765633982
 51
182.9794730387019968
  0
ARC
  5
DD0F
  8
0
 10
262011.6258644725894555
 20
4492.4928441041847691
 30
0.0
 40
257820.6117321676865686
 50
180.9580310917714883
 51
180.95876816858339
  0
ARC
  5
DD10
  8
0
 10
4226.5701867141942785
 20
181.1679794377295138
 30
0.0
 40
0.7701239039997958
 50
67.7916735922121632
 51
90.0
  0
ARC
  5
DD11
  8
0
 10
4226.5701867141942785
 20
181.1679794377288886
 30
0.0
 40
0.7701239040004026
 50
54.0756170000236267
 51
67.7916735922121632
  0
ARC
  5
DD12
  8
0
 10
4226.9756725827792252
 20
181.7276346179629911
 30
0.0
 40
0.0790141367524503
 50
0.0033846800895899
 51
54.0756170000236267
  0
ARC
  5
DD13
  8
0
 10
4230.5701867142752235
 20
181.5839480288994991
 30
0.0
 40
1.1430800608577649
 50
285.3832406615978812
 51
344.6144349263379922
  0
ARC
  5
DD14
  8
0
 10
4230.5701867142752235
 20
181.5839480288994991
 30
0.0
 40
1.1430800608577649
 50
195.3855650732982951
 51
254.6167593301339025
  0
ARC
  5
DD15
  8
0
 10
4230.5701867142752235
 20
181.5839480288994991
 30
0.0
 40
1.1430800608577649
 50
105.390308302022504
 51
164.6164757957434119
  0
ARC
  5
DD16
  8
0
 10
4230.5701867142752235
 20
181.5839480288994991
 30
0.0
 40
1.1430800608577649
 50
15.3835242046202207
 51
74.6096917063553207
  0
ARC
  5
DD17
  8
0
 10
4230.5701867142752235
 20
181.5839480288994991
 30
0.0
 40
0.8985790037184205
 50
288.9873418390786242
 51
341.0112778733399068
  0
ARC
  5
DD18
  8
0
 10
4230.5701867142752235
 20
181.5839480288994991
 30
0.0
 40
0.8985790037184205
 50
198.9887221261919024
 51
251.0126581502319993
  0
ARC
  5
DD19
  8
0
 10
4230.5701867142752235
 20
181.5839480288994991
 30
0.0
 40
0.8985790037184205
 50
108.9958909000690994
 51
161.0126577755746098
  0
ARC
  5
DD1A
  8
0
 10
4230.5701867142752235
 20
181.5839480288994991
 30
0.0
 40
0.8985790037184205
 50
18.9873422248935313
 51
71.0041091107861462
  0
ARC
  5
DD1B
  8
0
 10
4230.570186714193369
 20
181.5839480288994991
 30
0.0
 40
0.934757311203305
 50
288.3306583309271787
 51
341.6677898082406273
  0
ARC
  5
DD1C
  8
0
 10
4230.570186714193369
 20
181.5839480288994991
 30
0.0
 40
0.934757311203305
 50
198.3322101917594011
 51
251.6693416690727929
  0
ARC
  5
DD1D
  8
0
 10
4230.570186714193369
 20
181.5839480288994991
 30
0.0
 40
0.934757311203305
 50
108.340056537885701
 51
161.6693286402660874
  0
ARC
  5
DD1E
  8
0
 10
4230.570186714193369
 20
181.5839480288994991
 30
0.0
 40
0.934757311203305
 50
18.3306713597339197
 51
71.6599434621143132
  0
ARC
  5
DD1F
  8
0
 10
4231.0163336800151228
 20
182.0301069658256949
 30
0.0
 40
0.1710050774902425
 50
178.4639105514675066
 51
217.5352941879621085
  0
ARC
  5
DD20
  8
0
 10
4231.0163329661227181
 20
182.030106417338402
 30
0.0
 40
0.1710041772238511
 50
217.5352941879621085
 51
255.9443564584069009
  0
ARC
  5
DD21
  8
0
 10
4231.0163682080255967
 20
182.0302471823628991
 30
0.0
 40
0.1711492867816582
 50
255.9443564584069009
 51
272.0816280382450145
  0
ARC
  5
DD22
  8
0
 10
3870.4238810840770384
 20
8565.2694393985257193
 30
0.0
 40
8391.1619270235005388
 50
272.4629662085114887
 51
272.4681479065155827
  0
ARC
  5
DD23
  8
0
 10
4231.7831293043946062
 20
181.8442495003125998
 30
0.0
 40
0.0476662718500127
 50
4.7567763447963571
 51
92.8494860767421386
  0
ARC
  5
DD24
  8
0
 10
4238.4928218372151605
 20
181.9502363742842022
 30
0.0
 40
6.6629717384095368
 50
180.8774390604048961
 51
183.151350810765507
  0
ARC
  5
DD25
  8
0
 10
4228.6688807330237978
 20
181.5799874626748078
 30
0.0
 40
3.171047573899461
 50
355.321356278389203
 51
0.0715611462842072
  0
ARC
  5
DD26
  8
0
 10
4231.7807565990533476
 20
181.324717128392507
 30
0.0
 40
0.0487228888842288
 50
270.0013240516494761
 51
356.0190656791978085
  0
ARC
  5
DD27
  8
0
 10
6065.4190423827849372
 20
42680.2334757280768827
 30
0.0
 40
42538.4956994524618494
 50
267.5284589062000009
 51
267.5294778254615835
  0
ARC
  5
DD28
  8
0
 10
4231.0166975654783528
 20
181.1366695456684113
 30
0.0
 40
0.172139184696869
 50
87.2428385491405862
 51
114.4367499972555038
  0
ARC
  5
DD29
  8
0
 10
4231.0160207228782383
 20
181.1380193975639088
 30
0.0
 40
0.1706302623634393
 50
114.4173441182921067
 51
158.9552938568743912
  0
ARC
  5
DD2A
  8
0
 10
4231.0156877352210358
 20
181.1378937830438076
 30
0.0
 40
0.170364757103421
 50
158.8756514482826958
 51
182.5025378734123933
  0
ARC
  5
DD2B
  8
0
 10
-24704.6618723509200208
 20
-1065.1848663345740533
 30
0.0
 40
28962.3356781534494075
 50
2.4648304672847878
 51
2.466329575069186
  0
ARC
  5
DD2C
  8
0
 10
4230.828070015522826
 20
180.3731112104104
 30
0.0
 40
0.0500152859066661
 50
277.3176893712247875
 51
0.3026328293914621
  0
ARC
  5
DD2D
  8
0
 10
4230.1971973913232432
 20
191.574672364872697
 30
0.0
 40
11.26920069571465
 50
271.8967288266172773
 51
273.2416520078867848
  0
LINE
  5
DD2E
  8
0
 10
4230.8969523213927459
 20
181.9077579152713042
 30
0.0
 11
4230.5701867142752235
 21
181.5839480288994991
 31
0.0
  0
LINE
  5
DD2F
  8
0
 10
4230.5701867137895533
 20
181.5839480284184049
 30
0.0
 11
4230.8946339892891046
 21
181.2579377819814965
 31
0.0
  0
ARC
  5
DD30
  8
0
 10
4230.5703718700224272
 20
179.9093942633174947
 30
0.0
 40
2.946853994035624
 50
84.8588084610093745
 51
90.0036168762555633
  0
ARC
  5
DD31
  8
0
 10
4230.8301349025932723
 20
182.7965380310963894
 30
0.0
 40
0.0480480383160335
 50
357.5917184565532807
 51
84.8588084610093745
  0
ARC
  5
DD32
  8
0
 10
4003.0649203935390688
 20
192.3757081775997051
 30
0.0
 40
228.0146101500675968
 50
357.4668816623473049
 51
357.5917184565532807
  0
ARC
  5
DD33
  8
0
 10
4333.4859570376811462
 20
177.7578539269360931
 30
0.0
 40
102.7296159822765986
 50
177.4668816623473049
 51
177.5886447302009117
  0
ARC
  5
DD34
  8
0
 10
4063.3320039494929006
 20
189.1342948028799071
 30
0.0
 40
167.6637673986386119
 50
357.5731250818980129
 51
357.5886447302008833
  0
ARC
  5
DD35
  8
0
 10
4230.570186714110605
 20
181.5839480288994991
 30
0.0
 40
1.1430800608577649
 50
195.3855650736620078
 51
254.6167593384020904
  0
ARC
  5
DD36
  8
0
 10
4230.570186714110605
 20
181.5839480288994991
 30
0.0
 40
1.1430800608577649
 50
105.3903082936446935
 51
164.616475795379813
  0
ARC
  5
DD37
  8
0
 10
4230.570186714110605
 20
181.5839480288994991
 30
0.0
 40
0.8985790037184205
 50
198.9887221266600932
 51
251.0126581609214043
  0
ARC
  5
DD38
  8
0
 10
4230.570186714110605
 20
181.5839480288994991
 30
0.0
 40
0.8985790037184205
 50
108.995890889213797
 51
161.0126577751063905
  0
ARC
  5
DD39
  8
0
 10
4230.570186714193369
 20
181.5839480288994991
 30
0.0
 40
0.934757311203305
 50
198.3322101917594011
 51
251.6693416690727929
  0
ARC
  5
DD3A
  8
0
 10
4230.570186714193369
 20
181.5839480288994991
 30
0.0
 40
0.934757311203305
 50
108.340056537885701
 51
161.6693286402660874
  0
ARC
  5
DD3B
  8
0
 10
4230.1240397483707056
 20
182.0301069658256949
 30
0.0
 40
0.1710050774902425
 50
322.4647058120378915
 51
1.536089448532495
  0
ARC
  5
DD3C
  8
0
 10
4230.1240404622631104
 20
182.030106417338402
 30
0.0
 40
0.1710041772238511
 50
284.0556435415930991
 51
322.4647058120378915
  0
ARC
  5
DD3D
  8
0
 10
4230.1240052203611413
 20
182.0302471823628991
 30
0.0
 40
0.1711492867816582
 50
267.9183719617549855
 51
284.0556435415930991
  0
ARC
  5
DD3E
  8
0
 10
4590.7164923443096995
 20
8565.2694393985257193
 30
0.0
 40
8391.1619270235005388
 50
267.5318520934844173
 51
267.5370337914885113
  0
ARC
  5
DD3F
  8
0
 10
4229.3572441239912223
 20
181.8442495003125998
 30
0.0
 40
0.0476662718500127
 50
87.1505139232578756
 51
175.2432236552052984
  0
ARC
  5
DD40
  8
0
 10
4222.647551591170668
 20
181.9502363742842022
 30
0.0
 40
6.6629717384095368
 50
356.8486491892343793
 51
359.1225609395950755
  0
ARC
  5
DD41
  8
0
 10
4232.4714926953629401
 20
181.5799874626748078
 30
0.0
 40
3.171047573899461
 50
179.9284388537157895
 51
184.6786437216107117
  0
ARC
  5
DD42
  8
0
 10
4229.3596168293333903
 20
181.324717128392507
 30
0.0
 40
0.0487228888842288
 50
183.9809343208021915
 51
269.9986759483504102
  0
ARC
  5
DD43
  8
0
 10
2395.7213310456008912
 20
42680.2334757280768827
 30
0.0
 40
42538.4956994524618494
 50
272.4705221745383028
 51
272.4715410937998854
  0
ARC
  5
DD44
  8
0
 10
4230.1236758629083852
 20
181.1366695456684113
 30
0.0
 40
0.172139184696869
 50
65.5632500027444678
 51
92.7571614508594422
  0
ARC
  5
DD45
  8
0
 10
4230.1243527055075901
 20
181.1380193975639088
 30
0.0
 40
0.1706302623634393
 50
21.0447061431255307
 51
65.5826558817079217
  0
ARC
  5
DD46
  8
0
 10
4230.1246856931647926
 20
181.1378937830438076
 30
0.0
 40
0.170364757103421
 50
357.4974621265876067
 51
21.1243485517173184
  0
ARC
  5
DD47
  8
0
 10
33165.8022457792976638
 20
-1065.1848663345740533
 30
0.0
 40
28962.3356781534494075
 50
177.53367042493079
 51
177.5351695327152015
  0
ARC
  5
DD48
  8
0
 10
4230.3123034128630024
 20
180.3731112104104
 30
0.0
 40
0.0500152859066661
 50
179.6973671706084872
 51
262.6823106287750988
  0
ARC
  5
DD49
  8
0
 10
4230.9431760370625852
 20
191.574672364872697
 30
0.0
 40
11.26920069571465
 50
266.7583479921132152
 51
268.1032711733827227
  0
LINE
  5
DD4A
  8
0
 10
4230.2434211069930825
 20
181.9077579152713042
 30
0.0
 11
4230.570186714110605
 21
181.5839480288994991
 31
0.0
  0
LINE
  5
DD4B
  8
0
 10
4230.5701867145962751
 20
181.5839480284184049
 30
0.0
 11
4230.2457394390967238
 21
181.2579377819814965
 31
0.0
  0
ARC
  5
DD4C
  8
0
 10
4230.5700015583652203
 20
179.9093942633174947
 30
0.0
 40
2.946853994035624
 50
89.9963831237444509
 51
95.141191538990654
  0
ARC
  5
DD4D
  8
0
 10
4230.3102385257943752
 20
182.7965380310963894
 30
0.0
 40
0.0480480383160335
 50
95.141191538990654
 51
182.4082815434466056
  0
ARC
  5
DD4E
  8
0
 10
4458.0754530348467597
 20
192.3757081775997051
 30
0.0
 40
228.0146101500675968
 50
182.4082815434466056
 51
182.5331183376526099
  0
ARC
  5
DD4F
  8
0
 10
4127.6544163907046823
 20
177.7578539269360931
 30
0.0
 40
102.7296159822765986
 50
2.4113552697991132
 51
2.5331183376526698
  0
ARC
  5
DD50
  8
0
 10
4397.8083694788938374
 20
189.1342948028799071
 30
0.0
 40
167.6637673986386119
 50
182.4113552697990883
 51
182.4268749181003955
  0
ENDSEC
  0
EOF
