  0
SECTION
  2
HEADER
  9
$ACADVER
  1
AC1009
  9
$INSBASE
 10
4226.5698578599767643
 20
181.5841234133681894
 30
0.0
  9
$EXTMIN
 10
4221.0516353040993636
 20
181.5841234133681894
 30
0.0
  9
$EXTMAX
 10
4227.7251495802402133
 20
184.9408647986091125
 30
0.0
  9
$LIMMIN
 10
0.0
 20
0.0
  9
$LIMMAX
 10
11.6929133858000007
 20
8.2677165353999982
  9
$ORTHOMODE
 70
     1
  9
$REGENMODE
 70
     1
  9
$FILLMODE
 70
     1
  9
$QTEXTMODE
 70
     0
  9
$MIRRTEXT
 70
     0
  9
$DRAGMODE
 70
     2
  9
$LTSCALE
 40
0.6431102362
  9
$OSMODE
 70
  4095
  9
$ATTMODE
 70
     1
  9
$TEXTSIZE
 40
0.2
  9
$TRACEWID
 40
0.05
  9
$TEXTSTYLE
  7
STANDARD
  9
$CLAYER
  8
0
  9
$CELTYPE
  6
BYLAYER
  9
$CECOLOR
 62
   256
  9
$DIMSCALE
 40
1.0
  9
$DIMASZ
 40
0.1875
  9
$DIMEXO
 40
0.0625
  9
$DIMDLI
 40
0.4443307087
  9
$DIMRND
 40
0.0
  9
$DIMDLE
 40
0.0
  9
$DIMEXE
 40
0.125
  9
$DIMTP
 40
0.01
  9
$DIMTM
 40
0.01
  9
$DIMTXT
 40
2.0
  9
$DIMCEN
 40
0.1052362205
  9
$DIMTSZ
 40
0.0
  9
$DIMTOL
 70
     1
  9
$DIMLIM
 70
     0
  9
$DIMTIH
 70
     1
  9
$DIMTOH
 70
     1
  9
$DIMSE1
 70
     0
  9
$DIMSE2
 70
     0
  9
$DIMTAD
 70
     0
  9
$DIMZIN
 70
     0
  9
$DIMBLK
  1

  9
$DIMASO
 70
     1
  9
$DIMSHO
 70
     1
  9
$DIMPOST
  1
\X
  9
$DIMAPOST
  1

  9
$DIMALT
 70
     1
  9
$DIMALTD
 70
     2
  9
$DIMALTF
 40
25.3999999999999986
  9
$DIMLFAC
 40
1.0
  9
$DIMTOFL
 70
     0
  9
$DIMTVP
 40
0.0
  9
$DIMTIX
 70
     0
  9
$DIMSOXD
 70
     0
  9
$DIMSAH
 70
     0
  9
$DIMBLK1
  1

  9
$DIMBLK2
  1

  9
$DIMSTYLE
  2
STANDARD
  9
$DIMCLRD
 70
     0
  9
$DIMCLRE
 70
     0
  9
$DIMCLRT
 70
     0
  9
$DIMTFAC
 40
1.0
  9
$DIMGAP
 40
0.09
  9
$LUNITS
 70
     2
  9
$LUPREC
 70
     4
  9
$SKETCHINC
 40
0.1
  9
$FILLETRAD
 40
0.0
  9
$AUNITS
 70
     0
  9
$AUPREC
 70
     0
  9
$MENU
  1
.
  9
$ELEVATION
 40
0.0
  9
$PELEVATION
 40
0.0
  9
$THICKNESS
 40
0.0
  9
$LIMCHECK
 70
     0
  9
$BLIPMODE
 70
     0
  9
$CHAMFERA
 40
0.0
  9
$CHAMFERB
 40
0.0
  9
$SKPOLY
 70
     0
  9
$TDCREATE
 40
2458060.468368056230247
  9
$TDUPDATE
 40
2459477.3803356480784714
  9
$TDINDWG
 40
0.4333635417
  9
$TDUSRTIMER
 40
0.4333635417
  9
$USRTIMER
 70
     1
  9
$ANGBASE
 50
0.0
  9
$ANGDIR
 70
     0
  9
$PDMODE
 70
     0
  9
$PDSIZE
 40
0.3125
  9
$PLINEWID
 40
0.0
  9
$COORDS
 70
     1
  9
$SPLFRAME
 70
     0
  9
$SPLINETYPE
 70
     6
  9
$SPLINESEGS
 70
     8
  9
$ATTDIA
 70
     1
  9
$ATTREQ
 70
     1
  9
$HANDLING
 70
     1
  9
$HANDSEED
  5
E3F4
  9
$SURFTAB1
 70
     6
  9
$SURFTAB2
 70
     6
  9
$SURFTYPE
 70
     6
  9
$SURFU
 70
     6
  9
$SURFV
 70
     6
  9
$UCSNAME
  2

  9
$UCSORG
 10
0.0
 20
0.0
 30
0.0
  9
$UCSXDIR
 10
1.0
 20
0.0
 30
0.0
  9
$UCSYDIR
 10
0.0
 20
1.0
 30
0.0
  9
$PUCSNAME
  2

  9
$PUCSORG
 10
0.0
 20
0.0
 30
0.0
  9
$PUCSXDIR
 10
1.0
 20
0.0
 30
0.0
  9
$PUCSYDIR
 10
0.0
 20
1.0
 30
0.0
  9
$USERI1
 70
     0
  9
$USERI2
 70
     0
  9
$USERI3
 70
     0
  9
$USERI4
 70
     0
  9
$USERI5
 70
     0
  9
$USERR1
 40
0.0
  9
$USERR2
 40
0.0
  9
$USERR3
 40
0.0
  9
$USERR4
 40
0.0
  9
$USERR5
 40
0.0
  9
$WORLDVIEW
 70
     1
  9
$SHADEDGE
 70
     3
  9
$SHADEDIF
 70
    70
  9
$TILEMODE
 70
     1
  9
$MAXACTVP
 70
    64
  9
$PLIMCHECK
 70
     0
  9
$PEXTMIN
 10
1.0000000000000000E+20
 20
1.0000000000000000E+20
 30
1.0000000000000000E+20
  9
$PEXTMAX
 10
-1.0000000000000000E+20
 20
-1.0000000000000000E+20
 30
-1.0000000000000000E+20
  9
$PLIMMIN
 10
0.0
 20
0.0
  9
$PLIMMAX
 10
12.0
 20
9.0
  9
$UNITMODE
 70
     0
  9
$VISRETAIN
 70
     1
  9
$PLINEGEN
 70
     0
  9
$PSLTSCALE
 70
     1
  0
ENDSEC
  0
SECTION
  2
TABLES
  0
TABLE
  2
VPORT
 70
     1
  0
VPORT
  2
*ACTIVE
 70
     0
 10
0.0
 20
0.0
 11
1.0
 21
1.0
 12
420.7620831573657938
 22
57.3731083158962392
 13
0.0
 23
0.0
 14
1.0
 24
1.0
 15
0.0
 25
0.0
 16
0.0
 26
0.0
 36
17.1152628219792007
 17
3803.5440673828129547
 27
125.9952621967499056
 37
0.0
 40
3.4028662826801428
 41
2.7718023255813948
 42
50.0
 43
0.0
 44
0.0
 50
0.0
 51
0.0
 71
     0
 72
   100
 73
     1
 74
     1
 75
     0
 76
     0
 77
     0
 78
     0
  0
ENDTAB
  0
TABLE
  2
LTYPE
 70
     2
  0
LTYPE
  2
CONTINUOUS
 70
     0
  3
Solid line
 72
    65
 73
     0
 40
0.0
  0
LTYPE
  2
PHANTOM2
 70
     0
  3
___ _ _ ___ _ _ ___ _ _ ___ _ _
 72
    65
 73
     6
 40
1.25
 49
0.625
 49
-0.125
 49
0.125
 49
-0.125
 49
0.125
 49
-0.125
  0
ENDTAB
  0
TABLE
  2
LAYER
 70
     2
  0
LAYER
  2
0
 70
     0
 62
   255
  6
CONTINUOUS
  0
LAYER
  2
DEFPOINTS
 70
     0
 62
     7
  6
CONTINUOUS
  0
ENDTAB
  0
TABLE
  2
STYLE
 70
     1
  0
STYLE
  2
STANDARD
 70
     0
 40
0.0
 41
0.8
 50
0.0
 71
     0
 42
0.2
  3
txt
  4

  0
ENDTAB
  0
TABLE
  2
VIEW
 70
     0
  0
ENDTAB
  0
TABLE
  2
UCS
 70
     0
  0
ENDTAB
  0
TABLE
  2
APPID
 70
     9
  0
APPID
  2
ACAD
 70
     0
  0
APPID
  2
ACAD_MLEADERVER
 70
     0
  0
APPID
  2
ACAD_EXEMPT_FROM_CAD_STANDARDS
 70
     0
  0
APPID
  2
ACAD_NAV_VCDISPLAY
 70
     0
  0
APPID
  2
ACAECLAYERSTANDARD
 70
     0
  0
APPID
  2
ACCMTRANSPARENCY
 70
     0
  0
APPID
  2
ACAD_DSTYLE_DIMJAG
 70
     0
  0
APPID
  2
ACAD_DSTYLE_DIMTALN
 70
     0
  0
APPID
  2
ACDBATTR
 70
     0
  0
ENDTAB
  0
TABLE
  2
DIMSTYLE
 70
     1
  0
DIMSTYLE
  2
STANDARD
 70
     0
  3

  4

  5

  6

  7

 40
1.0
 41
0.1875
 42
0.0625
 43
0.38
 44
0.125
 45
0.0
 46
0.0
 47
0.01
 48
0.01
140
0.15625
141
0.09
142
0.0
143
25.3999999999999986
144
1.0
145
0.0
146
1.0
147
0.09
 71
     1
 72
     0
 73
     1
 74
     1
 75
     0
 76
     0
 77
     0
 78
     4
170
     0
171
     2
172
     0
173
     0
174
     0
175
     0
176
     0
177
     0
178
     0
  0
ENDTAB
  0
ENDSEC
  0
SECTION
  2
BLOCKS
  0
BLOCK
  8
0
  2
$MODEL_SPACE
 70
     0
 10
0.0
 20
0.0
 30
0.0
  3
$MODEL_SPACE
  1

  0
ENDBLK
  5
21
  8
0
  0
BLOCK
 67
     1
  8
0
  2
$PAPER_SPACE
 70
     0
 10
0.0
 20
0.0
 30
0.0
  3
$PAPER_SPACE
  1

  0
ENDBLK
  5
1D
 67
     1
  8
0
  0
ENDSEC
  0
SECTION
  2
ENTITIES
  0
ATTDEF
  5
C4C4
  8
DEFPOINTS
 10
4226.5706493974666955
 20
181.5882936991876875
 30
0.0
 40
0.001
  1
P25006-LV
  3

  2
MODELNUMBER
 70
     0
1001
ACDBATTR
1070
     0
1070
     1
  0
ATTDEF
  5
C4C5
  8
DEFPOINTS
 10
4226.5706493974666955
 20
181.5866270325209939
 30
0.0
 40
0.001
  1
SCRIPT
  3

  2
TRADENAME
 70
     0
1001
ACDBATTR
1070
     0
1070
     1
  0
ATTDEF
  5
C4C6
  8
DEFPOINTS
 10
4226.5706493974666955
 20
181.5849603658543003
 30
0.0
 40
0.001
  1
BATHROOM SINK FAUCET
  3

  2
PRODUCT
 70
     0
1001
ACDBATTR
1070
     0
1070
     1
  0
ARC
  5
E221
  8
0
 10
4222.1527786798751549
 20
180.9163406838922015
 30
0.0
 40
4.025190243501739
 50
84.8111283318086038
 51
88.9576117328187337
  0
ARC
  5
E222
  8
0
 10
4222.0887722123461572
 20
181.2887715979555878
 30
0.0
 40
3.6613707032414431
 50
75.662329427268233
 51
83.2863478898430856
  0
ARC
  5
E223
  8
0
 10
4221.5382667034346014
 20
179.1349698619636968
 30
0.0
 40
5.8844132654304877
 50
61.7018181029240296
 51
75.662329427268233
  0
ARC
  5
E224
  8
0
 10
4389.8234619131635554
 20
491.6982542639515259
 30
0.0
 40
349.1025071738089878
 50
241.701818102923994
 51
241.884914820737805
  0
LINE
  5
E225
  8
0
 10
4225.522791852012233
 20
181.5841234133681894
 30
0.0
 11
4227.6397918520124222
 21
181.5841234133681894
 31
0.0
  0
ARC
  5
E226
  8
0
 10
4225.4638237724157079
 20
181.5936757217064041
 30
0.0
 40
0.059736764273787
 50
350.7985196919083251
 51
2.1326907692673971
  0
ARC
  5
E227
  8
0
 10
4225.4695069456493002
 20
181.5944952688346063
 30
0.0
 40
0.054030444329318
 50
1.488477174520012
 51
18.6496110793014083
  0
ARC
  5
E228
  8
0
 10
4225.4622039232172028
 20
181.5920389071295915
 30
0.0
 40
0.0617354942188094
 50
18.6422081283017604
 51
72.4809907673562037
  0
ARC
  5
E229
  8
0
 10
4225.492215798784855
 20
181.7052414609889013
 30
0.0
 40
0.0555194409843563
 50
204.457956505246301
 51
258.121324286766594
  0
ARC
  5
E22A
  8
0
 10
4225.4925233395533724
 20
181.6990080968930954
 30
0.0
 40
0.0535338811914562
 50
130.846046854954011
 51
198.2367259170652005
  0
ARC
  5
E22B
  8
0
 10
4225.5309981579575833
 20
181.6660603086484969
 30
0.0
 40
0.103896662393068
 50
125.7742321300652009
 51
135.0167562820109879
  0
LINE
  5
E22C
  8
0
 10
4225.4702609117002794
 20
181.7503544565682034
 30
0.0
 11
4225.6473122082006739
 21
181.8716467532682088
 31
0.0
  0
ARC
  5
E22D
  8
0
 10
4225.6590679133014419
 20
181.8554664133681911
 30
0.0
 40
0.0200000000000061
 50
90.0
 51
126.0000000000817977
  0
LINE
  5
E22E
  8
0
 10
4225.6590679133014419
 20
181.8754664133682866
 30
0.0
 11
4227.5050711254007183
 21
181.8754664133682866
 31
0.0
  0
LINE
  5
E22F
  8
0
 10
4225.7033412831387977
 20
181.8884664133682065
 30
0.0
 11
4227.4606500288000461
 21
181.8884664133682065
 31
0.0
  0
ARC
  5
E230
  8
0
 10
4225.7034919660000014
 20
181.9084672962682134
 30
0.0
 40
0.020001450499999
 50
124.2777377163800026
 51
269.568352624339127
  0
ARC
  5
E231
  8
0
 10
4224.333853570617066
 20
183.9179588645530998
 30
0.0
 40
2.411863203857854
 50
304.2777377163836832
 51
307.7507615324248036
  0
LINE
  5
E232
  8
0
 10
4225.522791852012233
 20
181.5841234133681894
 30
0.0
 11
4227.6397918520124222
 21
181.5841234133681894
 31
0.0
  0
LINE
  5
E233
  8
0
 10
4225.7370695193003485
 20
181.8754664133682866
 30
0.0
 11
4225.7370695193003485
 21
181.8884664133682065
 31
0.0
  0
LINE
  5
E234
  8
0
 10
4225.4807876775739715
 20
181.6509109320682001
 30
0.0
 11
4227.6833299582012842
 21
181.6509109320682001
 31
0.0
  0
LINE
  5
E235
  8
0
 10
4225.4702609117002794
 20
181.7503544565682034
 30
0.0
 11
4227.6938781270000618
 21
181.7503544565682034
 31
0.0
  0
ARC
  5
E236
  8
0
 10
4227.7008892043977539
 20
181.5857439064226071
 30
0.0
 40
0.0611188388822316
 50
170.4359940191168903
 51
181.5193072418946088
  0
ARC
  5
E237
  8
0
 10
4227.6946320929509966
 20
181.5944952688346063
 30
0.0
 40
0.054030444329318
 50
161.3503889206986059
 51
178.5115228254800002
  0
ARC
  5
E238
  8
0
 10
4227.7019610538163761
 20
181.5920226378738107
 30
0.0
 40
0.0617652727423883
 50
107.5563448108196951
 51
161.3511831526388107
  0
ARC
  5
E239
  8
0
 10
4227.671939821972046
 20
181.705228555630498
 30
0.0
 40
0.0554990038898789
 50
281.8430431666038203
 51
335.5470834105515223
  0
ARC
  5
E23A
  8
0
 10
4227.6716156990487434
 20
181.6990080968930954
 30
0.0
 40
0.0535338811914562
 50
341.7632740829346858
 51
49.1539531450459535
  0
ARC
  5
E23B
  8
0
 10
4227.6331408806427135
 20
181.6660603086484969
 30
0.0
 40
0.103896662393068
 50
44.9832437179889908
 51
54.2257678699347423
  0
LINE
  5
E23C
  8
0
 10
4227.6938781269000174
 20
181.7503544565682034
 30
0.0
 11
4227.5168268304014418
 21
181.8716467532682088
 31
0.0
  0
ARC
  5
E23D
  8
0
 10
4227.5050711253006739
 20
181.8554664133681911
 30
0.0
 40
0.0200000000000061
 50
53.9999999999182165
 51
90.0
  0
ARC
  5
E23E
  8
0
 10
4227.4606475444716125
 20
181.9084674614574055
 30
0.0
 40
0.0200010482434911
 50
270.007116705754413
 51
55.7231127364753291
  0
ARC
  5
E23F
  8
0
 10
4228.8302854679832308
 20
183.9179588645530998
 30
0.0
 40
2.411863203857854
 50
232.2492384675751964
 51
235.7222622836162884
  0
LINE
  5
E240
  8
0
 10
4227.4270695193008578
 20
181.8754664133682866
 30
0.0
 11
4227.4270695193008578
 21
181.8884664133682065
 31
0.0
  0
ARC
  5
E241
  8
0
 10
4222.361669760726727
 20
174.884985503746492
 30
0.0
 40
10.0567943810596905
 50
90.7729335173081893
 51
91.0282960768602436
  0
ARC
  5
E242
  8
0
 10
4222.2290082610816171
 20
183.4260126939493887
 30
0.0
 40
1.5149025150005351
 50
91.8089073130569062
 51
113.6664832493603967
  0
ARC
  5
E243
  8
0
 10
4222.2299221147450226
 20
183.6083022632695929
 30
0.0
 40
1.3503404966254531
 50
116.8083572385483961
 51
150.3224839810640105
  0
ARC
  5
E244
  8
0
 10
4221.0866593698337965
 20
184.2587193948411084
 30
0.0
 40
0.0350240657361865
 50
148.7674405164590041
 51
252.9807381104646993
  0
LINE
  5
E245
  8
0
 10
4221.076408064588577
 20
184.2252291586302988
 30
0.0
 11
4221.7316326130194284
 21
184.0254504133127114
 31
0.0
  0
ARC
  5
E246
  8
0
 10
4221.7418630988358927
 20
184.0589492368038123
 30
0.0
 40
0.035026190419727
 50
253.017414527417003
 51
269.9948997722794957
  0
ARC
  5
E247
  8
0
 10
4221.7400925958472726
 20
184.0622233684636058
 30
0.0
 40
0.0383410786346399
 50
272.6420645247185917
 51
324.0825449886668252
  0
ARC
  5
E248
  8
0
 10
4222.1956441628217362
 20
183.7609630467676141
 30
0.0
 40
0.5078510703742922
 50
128.114677528806709
 51
146.7071691251067875
  0
ARC
  5
E249
  8
0
 10
4222.3295572419938253
 20
183.5902674383233943
 30
0.0
 40
0.7248066038720086
 50
101.1481154253925041
 51
128.114677528806709
  0
ARC
  5
E24A
  8
0
 10
4222.4264183947525453
 20
183.0987472404599998
 30
0.0
 40
1.225779844496155
 50
78.6019575390767358
 51
101.1481154253925041
  0
ARC
  5
E24B
  8
0
 10
4222.2641584129023613
 20
181.8982215059347993
 30
0.0
 40
2.4359504583515408
 50
76.0272648529855672
 51
80.4414357717605242
  0
ARC
  5
E24C
  8
0
 10
4221.7965627861203757
 20
180.2810518299666001
 30
0.0
 40
4.1186611016687831
 50
69.1864511685145231
 51
75.146956106384394
  0
ARC
  5
E24D
  8
0
 10
4219.2820672182560884
 20
173.6663079208354077
 30
0.0
 40
11.1952086316576391
 50
62.0026143268822381
 51
69.1864511685145231
  0
ARC
  5
E24E
  8
0
 10
4216.1605163019366955
 20
167.7948782111809862
 30
0.0
 40
17.844852754359259
 50
61.0783842526197773
 51
62.0026143268822381
  0
ARC
  5
E24F
  8
0
 10
4223.1128692027687066
 20
180.3778214919908862
 30
0.0
 40
3.468981564557283
 50
44.5856953849091227
 51
61.0783842526197773
  0
ARC
  5
E250
  8
0
 10
4224.389412475874451
 20
181.6360356661436128
 30
0.0
 40
1.6765905257082321
 50
29.2707780444762911
 51
44.5856953849091227
  0
ARC
  5
E251
  8
0
 10
4225.456477588357302
 20
182.2426821605558871
 30
0.0
 40
0.4492192870082083
 50
359.975744761778401
 51
28.3191394840749098
  0
ARC
  5
E252
  8
0
 10
4225.5762065850003637
 20
182.2425474487415045
 30
0.0
 40
0.3294902547797537
 50
334.8781152251111166
 51
359.9903563093275238
  0
ARC
  5
E253
  8
0
 10
4225.6180250973493457
 20
182.2135949165545128
 30
0.0
 40
0.279463912169346
 50
313.5191909085297084
 51
336.6128448521740779
  0
ARC
  5
E254
  8
0
 10
4221.8770937026965839
 20
183.7950725225385895
 30
0.0
 40
0.7346766998910725
 50
143.3291314422083929
 51
148.9961117633567085
  0
ARC
  5
E255
  8
0
 10
4222.355556945837634
 20
183.5870682543549037
 30
0.0
 40
1.248342293170964
 50
132.0964299540910076
 51
148.7951189356078032
  0
ARC
  5
E256
  8
0
 10
4222.1739192820868993
 20
183.7661494263610962
 30
0.0
 40
0.9938036894474777
 50
99.2990112888826957
 51
131.2474097706646035
  0
ARC
  5
E257
  8
0
 10
4222.3037239209943436
 20
183.0062909770616102
 30
0.0
 40
1.7646591841832171
 50
84.8747172098342304
 51
99.4716049287271744
  0
ARC
  5
E258
  8
0
 10
4222.1356671433422889
 20
181.1498507211867945
 30
0.0
 40
3.628690393116464
 50
74.2947948650875247
 51
84.8503701289604351
  0
ARC
  5
E259
  8
0
 10
4221.3906599152805939
 20
178.6037074166345917
 30
0.0
 40
6.2815057125271512
 50
63.0630458438772408
 51
74.039544114601
  0
ARC
  5
E25A
  8
0
 10
4216.4455050056903929
 20
168.5056879309526892
 30
0.0
 40
17.5249345949214614
 50
60.8471215988233993
 51
63.6053431077802571
  0
ARC
  5
E25B
  8
0
 10
4250.4275429052313484
 20
229.3748670179124076
 30
0.0
 40
52.1875899538566514
 50
240.8192490102468923
 51
241.2330082605583925
  0
ARC
  5
E25C
  8
0
 10
4219.2777456066105515
 20
185.1900390462598125
 30
0.0
 40
2.6118933808740059
 50
334.2738706852089194
 51
335.5140419508367131
  0
ARC
  5
E25D
  8
0
 10
4222.2113488879977012
 20
183.741563693453287
 30
0.0
 40
0.6661241217792953
 50
126.5234130632475029
 51
146.6787987957058021
  0
ARC
  5
E25E
  8
0
 10
4222.3695460707367602
 20
183.499155306642308
 30
0.0
 40
0.9552318660082622
 50
91.0345710792572476
 51
125.4952700680552056
  0
ARC
  5
E25F
  8
0
 10
4222.3846957235846276
 20
182.5264589404281139
 30
0.0
 40
1.9280447164873129
 50
74.9445600199546647
 51
90.9627889194896255
  0
ARC
  5
E260
  8
0
 10
4221.1293601429779301
 20
178.1652006128394135
 30
0.0
 40
6.4661679022055907
 50
66.0928602112251298
 51
74.2410460836303514
  0
ARC
  5
E261
  8
0
 10
4219.176936983680207
 20
173.3584424682996996
 30
0.0
 40
11.6528939038880299
 50
63.0265506540650122
 51
66.8945980612298001
  0
ARC
  5
E262
  8
0
 10
4218.8554283952053083
 20
172.7504682586007903
 30
0.0
 40
12.3405645188986206
 50
59.7762005398303131
 51
62.9765449671027611
  0
ARC
  5
E263
  8
0
 10
4222.8732737134178024
 20
179.7135383451949906
 30
0.0
 40
4.301644845925412
 50
45.6526482206273627
 51
59.3315919215873109
  0
ARC
  5
E264
  8
0
 10
4223.9285671245352205
 20
180.948312207484804
 30
0.0
 40
2.6831751335901228
 50
33.3963384869291389
 51
43.336023456315047
  0
LINE
  5
E265
  8
0
 10
4226.9896976462632665
 20
183.3764160709476982
 30
0.0
 11
4227.0475348102982025
 21
182.8457429241009891
 31
0.0
  0
ARC
  5
E266
  8
0
 10
4230.2722151898942684
 20
183.1971953561429132
 30
0.0
 40
3.2437759420980852
 50
186.2200190651651042
 51
194.3928326319999087
  0
ARC
  5
E267
  8
0
 10
4227.9947850481739806
 20
182.6394230377376005
 30
0.0
 40
0.8995508416707696
 50
196.0383754377014043
 51
212.5008173833838043
  0
ARC
  5
E268
  8
0
 10
4227.9695640036752593
 20
182.6057788127305912
 30
0.0
 40
0.8603301009728648
 50
211.5135658964198058
 51
220.6589084700792114
  0
LINE
  5
E269
  8
0
 10
4226.2249733637181635
 20
184.5391375550682085
 30
0.0
 11
4226.9376103403055822
 21
184.5391375550682085
 31
0.0
  0
LINE
  5
E26A
  8
0
 10
4226.2064918520127321
 20
184.2691825550681983
 30
0.0
 11
4226.956091852011923
 21
184.2691825550681983
 31
0.0
  0
ARC
  5
E26B
  8
0
 10
4225.9843437895742682
 20
184.0115197314229931
 30
0.0
 40
0.3412104957735542
 50
3.507259434476282
 51
22.8042768801720293
  0
ARC
  5
E26C
  8
0
 10
4226.1476873330420858
 20
184.0801973824331128
 30
0.0
 40
0.1640164412997753
 50
22.8042768801720293
 51
51.5985263530102714
  0
ARC
  5
E26D
  8
0
 10
4226.2712896417142474
 20
184.2361364452991097
 30
0.0
 40
0.0349672817453278
 50
182.8906592443958914
 51
231.5985263530102998
  0
LINE
  5
E26E
  8
0
 10
4226.2363668526213587
 20
184.2343730410410956
 30
0.0
 11
4226.2363668520119973
 21
184.249163711323007
 31
0.0
  0
ARC
  5
E26F
  8
0
 10
4226.2163668520115607
 20
184.2491825550681881
 30
0.0
 40
0.0199999999999889
 50
359.9999999999869829
 51
31.7657787233187285
  0
ARC
  5
E270
  8
0
 10
4226.2163668520115607
 20
184.2491825550681881
 30
0.0
 40
0.0200000000000017
 50
31.7657787233228888
 51
90.0
  0
ARC
  5
E271
  8
0
 10
4226.2064918520127321
 20
184.2891825550688054
 30
0.0
 40
0.0200000000007789
 50
180.0000000015143939
 51
269.9997135188688731
  0
LINE
  5
E272
  8
0
 10
4226.1864918520122956
 20
184.2891825550682086
 30
0.0
 11
4226.1864918520068386
 21
184.499137555068188
 31
0.0
  0
ARC
  5
E273
  8
0
 10
4226.2265218119337078
 20
184.4991375550692965
 30
0.0
 40
0.0400299599274519
 50
92.2168817568081636
 51
180.0000000015176909
  0
LINE
  5
E274
  8
0
 10
4226.2363739369120594
 20
184.2337050162682033
 30
0.0
 11
4226.9262097671116862
 21
184.2337050162682033
 31
0.0
  0
ARC
  5
E275
  8
0
 10
4227.1782399144512965
 20
184.0115197314229931
 30
0.0
 40
0.3412104957735542
 50
157.1957231198279885
 51
177.6007314112104893
  0
ARC
  5
E276
  8
0
 10
4227.0148963709843883
 20
184.0801973824331128
 30
0.0
 40
0.1640164412997753
 50
128.4014736469897002
 51
157.1957231198279885
  0
ARC
  5
E277
  8
0
 10
4226.8912940623104078
 20
184.2361364452991097
 30
0.0
 40
0.0349672817453278
 50
308.4014736469897002
 51
357.1093407556040802
  0
LINE
  5
E278
  8
0
 10
4226.926216851404206
 20
184.2343730410410956
 30
0.0
 11
4226.9262168520126579
 21
184.249163711323007
 31
0.0
  0
ARC
  5
E279
  8
0
 10
4226.946216852012185
 20
184.2491825550681881
 30
0.0
 40
0.0199999999999889
 50
148.2342212766812111
 51
180.0000000000129887
  0
ARC
  5
E27A
  8
0
 10
4226.946216852012185
 20
184.2491825550681881
 30
0.0
 40
0.0200000000000017
 50
90.0
 51
148.2342212766770899
  0
ARC
  5
E27B
  8
0
 10
4226.956091852011923
 20
184.2891825550688054
 30
0.0
 40
0.0200000000007789
 50
270.0002864811311269
 51
359.9999999984838723
  0
LINE
  5
E27C
  8
0
 10
4226.9760918520123596
 20
184.2891825550682086
 30
0.0
 11
4226.9760918520178166
 21
184.499137555068188
 31
0.0
  0
ARC
  5
E27D
  8
0
 10
4226.9360618920909474
 20
184.4991375550692965
 30
0.0
 40
0.0400299599274519
 50
359.9999999984822807
 51
87.7831182431918364
  0
ARC
  5
E27F
  8
0
 10
4225.1610108102368031
 20
182.9396382986600997
 30
0.0
 40
1.133253140387499
 50
304.9657607784054107
 51
330.9020532029510946
  0
ARC
  5
E280
  8
0
 10
4225.4253457756676653
 20
182.7568046568023874
 30
0.0
 40
0.8139658415673808
 50
333.0995602036605874
 51
353.5985423238191174
  0
ARC
  5
E281
  8
0
 10
4222.8172814443723837
 20
183.0670674953323953
 30
0.0
 40
3.440406353316916
 50
353.3063622570026041
 51
358.6382954647003203
  0
ARC
  5
E282
  8
0
 10
4218.6143915499369541
 20
183.4997978125628038
 30
0.0
 40
7.6596229861853127
 50
356.148608397186706
 51
358.8513778697579255
  0
ARC
  5
E283
  8
0
 10
4223.2193993242253782
 20
183.4074677563357056
 30
0.0
 40
3.0536896995926259
 50
358.8513778697579255
 51
3.694287709969406
  0
ARC
  5
E284
  8
0
 10
4238.331312917915966
 20
184.3831984490327045
 30
0.0
 40
12.0896911266252598
 50
183.3796289091584129
 51
183.6942877099693874
  0
ARC
  5
E285
  8
0
 10
4226.5779349624872339
 20
184.5513999672066063
 30
0.0
 40
0.9357776673309312
 50
254.4030173380099029
 51
269.5054491603822839
  0
ARC
  5
E286
  8
0
 10
4226.5632284745261131
 20
184.4987165347573921
 30
0.0
 40
0.8810800911251362
 50
250.0530162620563033
 51
254.4030173380099029
  0
ARC
  5
E287
  8
0
 10
4226.7516243396967184
 20
185.0178239528902111
 30
0.0
 40
1.4333169185586421
 50
247.6518364599270114
 51
250.0530162620563033
  0
ARC
  5
E288
  8
0
 10
4226.2367005142750713
 20
183.765309970518814
 30
0.0
 40
0.0790873139411913
 50
178.9402023430243958
 51
247.6518364599270114
  0
LINE
  5
E289
  8
0
 10
4226.1576267293157798
 20
183.7667727618681965
 30
0.0
 11
4226.1576267246146017
 21
183.916243738609495
 31
0.0
  0
ARC
  5
E28A
  8
0
 10
4226.239690883367075
 20
183.9157968290176086
 30
0.0
 40
0.0820653748418219
 50
115.9089620292635061
 51
179.6880814083889106
  0
ARC
  5
E28B
  8
0
 10
4226.5814397384956465
 20
183.1135881528219898
 30
0.0
 40
0.9539432376375142
 50
90.6956483736986456
 51
113.3182299783208009
  0
ARC
  5
E28C
  8
0
 10
4226.1915505022489015
 20
183.7516962099797126
 30
0.0
 40
0.0797274761826055
 50
287.7671920718892125
 51
299.6489643695675227
  0
ARC
  5
E28D
  8
0
 10
4226.2308874091795587
 20
183.6289346254667976
 30
0.0
 40
0.0491825656257308
 50
107.7671920718891982
 51
133.5802536274196086
  0
ARC
  5
E28E
  8
0
 10
4226.0869884943358556
 20
183.7801476905202094
 30
0.0
 40
0.1595571975635324
 50
293.1651110965390217
 51
313.5802536274208023
  0
ARC
  5
E28F
  8
0
 10
4225.9288642644896754
 20
184.1497004814301874
 30
0.0
 40
0.5615180629888974
 50
281.4655555294278884
 51
293.1651110965390217
  0
ARC
  5
E290
  8
0
 10
4225.9091542325122646
 20
184.2468773751745061
 30
0.0
 40
0.660673668167868
 50
266.7686165458674736
 51
281.4655555294278884
  0
ARC
  5
E291
  8
0
 10
4225.916041791339012
 20
184.3688714258121024
 30
0.0
 40
0.7828619935413085
 50
245.1724177517104977
 51
266.7686165458674736
  0
ARC
  5
E292
  8
0
 10
4234.1971023116611832
 20
202.268093653140312
 30
0.0
 40
20.5048831801364884
 50
244.3291731907534086
 51
245.1724177517104977
  0
ARC
  5
E293
  8
0
 10
4228.0583478341486625
 20
188.6638309501281867
 30
0.0
 40
5.7358201800872397
 50
241.3962793660595025
 51
244.1387936237823055
  0
ARC
  5
E294
  8
0
 10
4225.9695641477137542
 20
184.3547279172620108
 30
0.0
 40
0.9471474791633593
 50
244.1387936237823055
 51
265.2984433300466094
  0
ARC
  5
E295
  8
0
 10
4225.952415706155989
 20
184.1462167532276055
 30
0.0
 40
0.7379323397138419
 50
265.2984433300466094
 51
285.4257815952877877
  0
ARC
  5
E296
  8
0
 10
4225.9818545990074199
 20
184.0395270638541092
 30
0.0
 40
0.6272556112161736
 50
285.4257815952877877
 51
297.5673371584600773
  0
ARC
  5
E297
  8
0
 10
4227.4437443563247143
 20
182.1443668697723126
 30
0.0
 40
0.1609787821849712
 50
218.0142672317284109
 51
235.9783711929806032
  0
ARC
  5
E298
  8
0
 10
7554.1750197671299247
 20
546.0069032941770502
 30
0.0
 40
3346.8885607382121634
 50
186.2155035449891898
 51
186.2201248472898101
  0
ARC
  5
E299
  8
0
 10
4226.9118481232935665
 20
183.6373354897424974
 30
0.0
 40
0.049178084452168
 50
8.7042816684708608
 51
82.6642487744852588
  0
ARC
  5
E29A
  8
0
 10
4227.7677386149525773
 20
182.677892617100099
 30
0.0
 40
0.7824966431752206
 50
225.1765126250348032
 51
236.3329817821824861
  0
ARC
  5
E29B
  8
0
 10
4228.122784733485787
 20
183.0351331027767969
 30
0.0
 40
1.286161721269633
 50
208.7817292165806862
 51
225.1765126250348032
  0
ARC
  5
E29C
  8
0
 10
4227.9280920680030249
 20
182.8045456307984864
 30
0.0
 40
1.010327293678106
 50
183.3058825160076992
 51
202.6247064223506982
  0
ARC
  5
E29D
  8
0
 10
4232.6708261058902281
 20
183.2012244676681121
 30
0.0
 40
5.7693451683579191
 50
182.1448103017833944
 51
184.5227460576608962
  0
ARC
  5
E29E
  8
0
 10
4278.2666676552789795
 20
185.3563023955506992
 30
0.0
 40
51.4154976678954512
 50
182.2150237485352875
 51
182.6430954525310995
  0
ARC
  5
E29F
  8
0
 10
4229.5271860378497877
 20
183.47112121947589
 30
0.0
 40
2.6395714706171001
 50
175.5179091829697029
 51
182.2150237485352875
  0
ARC
  5
E2A0
  8
0
 10
4226.5617807574681137
 20
184.5513999672066063
 30
0.0
 40
0.9357776673309312
 50
270.4945508396177161
 51
285.5969826619900118
  0
ARC
  5
E2A1
  8
0
 10
4226.5764872454292345
 20
184.4987165347573921
 30
0.0
 40
0.8810800911251362
 50
285.5969826619900118
 51
289.9469837379436967
  0
ARC
  5
E2A2
  8
0
 10
4226.3880913802577197
 20
185.0178239528902111
 30
0.0
 40
1.4333169185586421
 50
289.9469837379436967
 51
292.348163540073017
  0
ARC
  5
E2A3
  8
0
 10
4226.9030152056811858
 20
183.765309970518814
 30
0.0
 40
0.0790873139411913
 50
292.348163540073017
 51
1.059797656975551
  0
LINE
  5
E2A4
  8
0
 10
4226.9820889906395678
 20
183.7667727618681965
 30
0.0
 11
4226.9820889953398364
 21
183.916243738609495
 31
0.0
  0
ARC
  5
E2A5
  8
0
 10
4226.9000248365891821
 20
183.9157968290176086
 30
0.0
 40
0.0820653748418219
 50
0.3119185916110862
 51
64.0910379707365081
  0
ARC
  5
E2A6
  8
0
 10
4226.5582759814587916
 20
183.1135881528219898
 30
0.0
 40
0.9539432376375142
 50
66.6817700216792133
 51
89.3043516263013686
  0
ENDSEC
  0
EOF
