  0
SECTION
  2
HEADER
  9
$ACADVER
  1
AC1009
  9
$INSBASE
 10
4373.2403006627610011
 20
110.770396860119007
 30
0.0
  9
$EXTMIN
 10
4367.5219940045799376
 20
103.0600028806380948
 30
-0.0000000000000058
  9
$EXTMAX
 10
4378.8804324458997144
 20
112.2581182609507948
 30
0.0000000000000104
  9
$LIMMIN
 10
0.0
 20
0.0
  9
$LIMMAX
 10
11.6929133858000007
 20
8.2677165353999982
  9
$ORTHOMODE
 70
     0
  9
$REGENMODE
 70
     1
  9
$FILLMODE
 70
     1
  9
$QTEXTMODE
 70
     0
  9
$MIRRTEXT
 70
     0
  9
$DRAGMODE
 70
     2
  9
$LTSCALE
 40
0.6431102362
  9
$OSMODE
 70
  4095
  9
$ATTMODE
 70
     1
  9
$TEXTSIZE
 40
0.2
  9
$TRACEWID
 40
0.05
  9
$TEXTSTYLE
  7
STANDARD
  9
$CLAYER
  8
0
  9
$CELTYPE
  6
BYLAYER
  9
$CECOLOR
 62
   256
  9
$DIMSCALE
 40
1.0
  9
$DIMASZ
 40
0.1875
  9
$DIMEXO
 40
0.0625
  9
$DIMDLI
 40
0.4443307087
  9
$DIMRND
 40
0.0
  9
$DIMDLE
 40
0.0
  9
$DIMEXE
 40
0.125
  9
$DIMTP
 40
0.01
  9
$DIMTM
 40
0.01
  9
$DIMTXT
 40
2.0
  9
$DIMCEN
 40
0.1052362205
  9
$DIMTSZ
 40
0.0
  9
$DIMTOL
 70
     1
  9
$DIMLIM
 70
     0
  9
$DIMTIH
 70
     1
  9
$DIMTOH
 70
     1
  9
$DIMSE1
 70
     0
  9
$DIMSE2
 70
     0
  9
$DIMTAD
 70
     0
  9
$DIMZIN
 70
     0
  9
$DIMBLK
  1

  9
$DIMASO
 70
     1
  9
$DIMSHO
 70
     1
  9
$DIMPOST
  1
\X
  9
$DIMAPOST
  1

  9
$DIMALT
 70
     1
  9
$DIMALTD
 70
     2
  9
$DIMALTF
 40
25.3999999999999986
  9
$DIMLFAC
 40
1.0
  9
$DIMTOFL
 70
     0
  9
$DIMTVP
 40
0.0
  9
$DIMTIX
 70
     0
  9
$DIMSOXD
 70
     0
  9
$DIMSAH
 70
     0
  9
$DIMBLK1
  1

  9
$DIMBLK2
  1

  9
$DIMSTYLE
  2
STANDARD
  9
$DIMCLRD
 70
     0
  9
$DIMCLRE
 70
     0
  9
$DIMCLRT
 70
     0
  9
$DIMTFAC
 40
1.0
  9
$DIMGAP
 40
0.09
  9
$LUNITS
 70
     2
  9
$LUPREC
 70
     4
  9
$SKETCHINC
 40
0.1
  9
$FILLETRAD
 40
0.0
  9
$AUNITS
 70
     0
  9
$AUPREC
 70
     0
  9
$MENU
  1
.
  9
$ELEVATION
 40
0.0
  9
$PELEVATION
 40
0.0
  9
$THICKNESS
 40
0.0
  9
$LIMCHECK
 70
     0
  9
$BLIPMODE
 70
     0
  9
$CHAMFERA
 40
0.0
  9
$CHAMFERB
 40
0.0
  9
$SKPOLY
 70
     0
  9
$TDCREATE
 40
2458060.468368056230247
  9
$TDUPDATE
 40
2459506.5744328699074686
  9
$TDINDWG
 40
0.3772408565
  9
$TDUSRTIMER
 40
0.3772408565
  9
$USRTIMER
 70
     1
  9
$ANGBASE
 50
0.0
  9
$ANGDIR
 70
     0
  9
$PDMODE
 70
     0
  9
$PDSIZE
 40
0.3125
  9
$PLINEWID
 40
0.0
  9
$COORDS
 70
     1
  9
$SPLFRAME
 70
     0
  9
$SPLINETYPE
 70
     6
  9
$SPLINESEGS
 70
     8
  9
$ATTDIA
 70
     1
  9
$ATTREQ
 70
     1
  9
$HANDLING
 70
     1
  9
$HANDSEED
  5
B36A
  9
$SURFTAB1
 70
     6
  9
$SURFTAB2
 70
     6
  9
$SURFTYPE
 70
     6
  9
$SURFU
 70
     6
  9
$SURFV
 70
     6
  9
$UCSNAME
  2

  9
$UCSORG
 10
0.0
 20
0.0
 30
0.0
  9
$UCSXDIR
 10
1.0
 20
0.0
 30
0.0
  9
$UCSYDIR
 10
0.0
 20
1.0
 30
0.0
  9
$PUCSNAME
  2

  9
$PUCSORG
 10
0.0
 20
0.0
 30
0.0
  9
$PUCSXDIR
 10
1.0
 20
0.0
 30
0.0
  9
$PUCSYDIR
 10
0.0
 20
1.0
 30
0.0
  9
$USERI1
 70
     0
  9
$USERI2
 70
     0
  9
$USERI3
 70
     0
  9
$USERI4
 70
     0
  9
$USERI5
 70
     0
  9
$USERR1
 40
0.0
  9
$USERR2
 40
0.0
  9
$USERR3
 40
0.0
  9
$USERR4
 40
0.0
  9
$USERR5
 40
0.0
  9
$WORLDVIEW
 70
     1
  9
$SHADEDGE
 70
     3
  9
$SHADEDIF
 70
    70
  9
$TILEMODE
 70
     1
  9
$MAXACTVP
 70
    64
  9
$PLIMCHECK
 70
     0
  9
$PEXTMIN
 10
1.0000000000000000E+20
 20
1.0000000000000000E+20
 30
1.0000000000000000E+20
  9
$PEXTMAX
 10
-1.0000000000000000E+20
 20
-1.0000000000000000E+20
 30
-1.0000000000000000E+20
  9
$PLIMMIN
 10
0.0
 20
0.0
  9
$PLIMMAX
 10
12.0
 20
9.0
  9
$UNITMODE
 70
     0
  9
$VISRETAIN
 70
     1
  9
$PLINEGEN
 70
     0
  9
$PSLTSCALE
 70
     1
  0
ENDSEC
  0
SECTION
  2
TABLES
  0
TABLE
  2
VPORT
 70
     1
  0
VPORT
  2
*ACTIVE
 70
     0
 10
0.0
 20
0.0
 11
1.0
 21
1.0
 12
108.1948655689901955
 22
3.3550482722104671
 13
0.0
 23
0.0
 14
1.0
 24
1.0
 15
0.0
 25
0.0
 16
0.0
 26
0.0
 36
122.0237731519760018
 17
4265.00634765625
 27
104.3040122985839986
 37
0.0
 40
9.27101986153043
 41
1.67063492063492
 42
50.0
 43
0.0
 44
0.0
 50
0.0
 51
0.0
 71
     0
 72
   100
 73
     1
 74
     1
 75
     0
 76
     0
 77
     0
 78
     0
  0
ENDTAB
  0
TABLE
  2
LTYPE
 70
     2
  0
LTYPE
  2
CONTINUOUS
 70
     0
  3
Solid line
 72
    65
 73
     0
 40
0.0
  0
LTYPE
  2
PHANTOM2
 70
     0
  3
___ _ _ ___ _ _ ___ _ _ ___ _ _
 72
    65
 73
     6
 40
1.25
 49
0.625
 49
-0.125
 49
0.125
 49
-0.125
 49
0.125
 49
-0.125
  0
ENDTAB
  0
TABLE
  2
LAYER
 70
     2
  0
LAYER
  2
0
 70
     0
 62
   255
  6
CONTINUOUS
  0
LAYER
  2
DEFPOINTS
 70
     0
 62
     7
  6
CONTINUOUS
  0
ENDTAB
  0
TABLE
  2
STYLE
 70
     1
  0
STYLE
  2
STANDARD
 70
     0
 40
0.0
 41
0.8
 50
0.0
 71
     0
 42
0.2
  3
txt
  4

  0
ENDTAB
  0
TABLE
  2
VIEW
 70
     0
  0
ENDTAB
  0
TABLE
  2
UCS
 70
     0
  0
ENDTAB
  0
TABLE
  2
APPID
 70
    10
  0
APPID
  2
ACAD
 70
     0
  0
APPID
  2
ACAD_MLEADERVER
 70
     0
  0
APPID
  2
ACAD_EXEMPT_FROM_CAD_STANDARDS
 70
     0
  0
APPID
  2
ACAD_NAV_VCDISPLAY
 70
     0
  0
APPID
  2
ACAECLAYERSTANDARD
 70
     0
  0
APPID
  2
ACCMTRANSPARENCY
 70
     0
  0
APPID
  2
ACAD_DSTYLE_DIMJAG
 70
     0
  0
APPID
  2
ACAD_DSTYLE_DIMTALN
 70
     0
  0
APPID
  2
ACDBATTR
 70
     0
  0
APPID
  2
DCO15
 70
     0
  0
ENDTAB
  0
TABLE
  2
DIMSTYLE
 70
     1
  0
DIMSTYLE
  2
STANDARD
 70
     0
  3

  4

  5

  6

  7

 40
1.0
 41
0.1875
 42
0.0625
 43
0.38
 44
0.125
 45
0.0
 46
0.0
 47
0.01
 48
0.01
140
0.15625
141
0.09
142
0.0
143
25.3999999999999986
144
1.0
145
0.0
146
1.0
147
0.09
 71
     1
 72
     0
 73
     1
 74
     1
 75
     0
 76
     0
 77
     0
 78
     4
170
     0
171
     2
172
     0
173
     0
174
     0
175
     0
176
     0
177
     0
178
     0
  0
ENDTAB
  0
ENDSEC
  0
SECTION
  2
BLOCKS
  0
BLOCK
  8
0
  2
$MODEL_SPACE
 70
     0
 10
0.0
 20
0.0
 30
0.0
  3
$MODEL_SPACE
  1

  0
ENDBLK
  5
21
  8
0
  0
BLOCK
 67
     1
  8
0
  2
$PAPER_SPACE
 70
     0
 10
0.0
 20
0.0
 30
0.0
  3
$PAPER_SPACE
  1

  0
ENDBLK
  5
1D
 67
     1
  8
0
  0
ENDSEC
  0
SECTION
  2
ENTITIES
  0
ATTDEF
  5
9852
  8
DEFPOINTS
 10
4373.2351283615980719
 20
110.7682292833312943
 30
0.0
 40
0.001
  1
P25003-CR
  3

  2
MODELNUMBER
 70
     0
1001
ACDBATTR
1070
     0
1070
     1
  0
ATTDEF
  5
9853
  8
DEFPOINTS
 10
4373.2351283615980719
 20
110.7665626166646007
 30
0.0
 40
0.001
  1
SCRIPT
  3

  2
TRADENAME
 70
     0
1001
ACDBATTR
1070
     0
1070
     1
  0
ATTDEF
  5
9854
  8
DEFPOINTS
 10
4373.2351283615980719
 20
110.7648959499978929
 30
0.0
 40
0.001
  1
DECK-MOUNT BATH FAUCET TRIM
  3

  2
PRODUCT
 70
     0
1001
ACDBATTR
1070
     0
1070
     1
  0
ARC
  5
B218
  8
0
 10
4372.4491940245352453
 20
103.3544107539551931
 30
0.0
 40
0.1038363271180255
 50
179.5508592888147064
 51
242.4408096972015869
  0
ARC
  5
B219
  8
0
 10
4373.2569874805758445
 20
104.9853131500010051
 30
0.0
 40
1.9238069841172241
 50
243.5852826764997872
 51
269.5030186337705231
  0
ARC
  5
B21A
  8
0
 10
4344.5899422620550467
 20
103.4962737134013935
 30
0.0
 40
27.7557770186188115
 50
359.7088336968583917
 51
0.2180001724063427
  0
ARC
  5
B21B
  8
0
 10
4680.0680410456334357
 20
96.1661152920691649
 30
0.0
 40
307.8123479388771102
 50
178.0242956788551965
 51
178.6157821807576056
  0
ARC
  5
B21C
  8
0
 10
3783.2181435774718921
 20
127.1201005248312015
 30
0.0
 40
589.571565403039699
 50
358.0227363772769991
 51
358.4289807487332951
  0
ARC
  5
B21D
  8
0
 10
4373.2403006627610011
 20
110.770396860119007
 30
0.0
 40
1.408551840545911
 50
300.3776833506980211
 51
239.6223166493020074
  0
ARC
  5
B21E
  8
0
 10
4373.2403006627610011
 20
110.770396860119007
 30
0.0
 40
1.1124633230084231
 50
110.6946741739909044
 51
230.8795255234107913
  0
ARC
  5
B21F
  8
0
 10
4373.2403006627610011
 20
110.770396860119007
 30
0.0
 40
1.1124633230084231
 50
309.1204744765892087
 51
69.3053258260090672
  0
ARC
  5
B220
  8
0
 10
4373.2386309038301988
 20
110.063486314369996
 30
0.0
 40
1.113176431275108
 50
89.9140565926464035
 51
107.9277165442478008
  0
ARC
  5
B221
  8
0
 10
4373.2211067673306388
 20
110.0747748643851054
 30
0.0
 40
1.0971211564740471
 50
107.2384270609026942
 51
126.5272297885497039
  0
ARC
  5
B222
  8
0
 10
4372.9468092650186009
 20
111.2462628605966017
 30
0.0
 40
0.05999727936843
 50
184.0043299347657921
 51
281.0989718530012169
  0
ARC
  5
B223
  8
0
 10
4372.9802596206936869
 20
111.1409472276315
 30
0.0
 40
0.0500615686666586
 50
18.1265891669833294
 51
102.2076501174493046
  0
LINE
  5
B224
  8
0
 10
4372.8869584524600214
 20
111.2420731389189967
 30
0.0
 11
4372.8448505142878275
 21
111.8442450223002993
 31
0.0
  0
ARC
  5
B225
  8
0
 10
4372.8847530404609643
 20
111.847035304265404
 30
0.0
 40
0.039999965854471
 50
106.7554698154078068
 51
184.0000364677406992
  0
ARC
  5
B226
  8
0
 10
4373.2403006569611534
 20
110.6660897735191043
 30
0.0
 40
1.273307086599885
 50
89.999999739032063
 51
106.7554869546076048
  0
ARC
  5
B227
  8
0
 10
4372.7194060940091731
 20
111.367843448372696
 30
0.0
 40
0.0963291152882512
 50
121.0731748566015966
 51
186.2300834964806882
  0
ARC
  5
B228
  8
0
 10
4372.6699345079277919
 20
111.3624428308698953
 30
0.0
 40
0.0465636202240067
 50
186.2300834964815124
 51
272.9017251516445981
  0
ARC
  5
B229
  8
0
 10
4372.66147742215162
 20
111.5292887415221941
 30
0.0
 40
0.213623729769058
 50
272.9017251516445981
 51
312.2117397907086911
  0
ARC
  5
B22A
  8
0
 10
4372.7695450556047945
 20
111.4101558104703997
 30
0.0
 40
0.0527782490712333
 50
312.2117397907076111
 51
27.8100857384200992
  0
ARC
  5
B22B
  8
0
 10
4372.7338247094658072
 20
111.3566163384490011
 30
0.0
 40
0.1135764649086627
 50
43.4874001478087067
 51
124.3818043889578036
  0
ARC
  5
B22C
  8
0
 10
4369.2403006571103106
 20
110.770396860119007
 30
0.0
 40
1.408551834895148
 50
194.7518878979917076
 51
255.247388922302207
  0
ARC
  5
B22D
  8
0
 10
4369.2403006571103106
 20
110.770396860119007
 30
0.0
 40
1.408551834895148
 50
284.7526521593467237
 51
345.2474817702579912
  0
ARC
  5
B22E
  8
0
 10
4369.2403006571103106
 20
110.770396860119007
 30
0.0
 40
1.408551834895148
 50
14.7525182297419093
 51
75.2473478406532763
  0
ARC
  5
B22F
  8
0
 10
4369.2403006571103106
 20
110.770396860119007
 30
0.0
 40
1.408551834895148
 50
104.7526110776974946
 51
165.2474800347501969
  0
ARC
  5
B230
  8
0
 10
4369.2403006571103106
 20
110.770396860119007
 30
0.0
 40
1.1289370775152641
 50
197.874687552799486
 51
252.1236212086643889
  0
ARC
  5
B231
  8
0
 10
4369.2403006571103106
 20
110.770396860119007
 30
0.0
 40
1.1289370775152641
 50
287.8764307445678128
 51
342.1245153167033095
  0
ARC
  5
B232
  8
0
 10
4369.2403006571103106
 20
110.770396860119007
 30
0.0
 40
1.1289370775152641
 50
17.8754846832959089
 51
72.1235692554321588
  0
ARC
  5
B233
  8
0
 10
4369.2403006571103106
 20
110.770396860119007
 30
0.0
 40
1.1289370775152641
 50
107.8763787913352985
 51
162.1245131219453128
  0
ARC
  5
B234
  8
0
 10
4367.827695666946056
 20
111.0749487376877056
 30
0.0
 40
0.0562108155923971
 50
87.5186366032072414
 51
174.5168770215956044
  0
ARC
  5
B235
  8
0
 10
4371.0446662252988972
 20
110.771177572454107
 30
0.0
 40
3.287491686272193
 50
174.6041672441320998
 51
180.0134741808878971
  0
LINE
  5
B236
  8
0
 10
4367.8301292817222929
 20
111.1311068475977066
 30
0.0
 11
4368.7118425391126948
 21
111.0938580222795053
 31
0.0
  0
ARC
  5
B237
  8
0
 10
4367.827695666946056
 20
110.4658601761502013
 30
0.0
 40
0.0562108155923971
 50
185.4831229784043956
 51
272.4813633967928013
  0
ARC
  5
B238
  8
0
 10
4371.0446662252979877
 20
110.7696313413837998
 30
0.0
 40
3.2874916862710988
 50
179.9865258191113071
 51
185.3958327558686108
  0
LINE
  5
B239
  8
0
 10
4367.8301292817222929
 20
110.4097020662402002
 30
0.0
 11
4368.7118418984764503
 21
110.4469508644940987
 31
0.0
  0
ARC
  5
B23A
  8
0
 10
4369.2403006571103106
 20
110.770396860119007
 30
0.0
 40
1.0909482368383501
 50
198.4270708418619904
 51
251.5710517223232046
  0
ARC
  5
B23B
  8
0
 10
4369.2403006571103106
 20
110.770396860119007
 30
0.0
 40
1.0909482368383501
 50
288.4290021863446896
 51
341.5721020267368999
  0
ARC
  5
B23C
  8
0
 10
4369.2403006571103106
 20
110.770396860119007
 30
0.0
 40
1.0909482368383501
 50
18.4278979732631392
 51
71.570997813655282
  0
ARC
  5
B23D
  8
0
 10
4369.2403006571103106
 20
110.770396860119007
 30
0.0
 40
1.0909482368383501
 50
108.4289482776767954
 51
161.5720997493756101
  0
ARC
  5
B23E
  8
0
 10
4369.2399827348372128
 20
108.9554362537899976
 30
0.0
 40
3.2980834748998178
 50
89.9944683345658234
 51
95.385034486768177
  0
ARC
  5
B23F
  8
0
 10
-24833.2860488427504606
 20
-1120.1866824544119936
 30
0.0
 40
29228.1577776985213859
 50
2.4147880299019562
 51
2.4165185201398391
  0
ARC
  5
B240
  8
0
 10
4368.9357375732270157
 20
112.1830117132434026
 30
0.0
 40
0.0562
 50
95.385034486768177
 51
182.4165185198920085
  0
ARC
  5
B241
  8
0
 10
4368.7202439622033125
 20
111.2904028840973041
 30
0.0
 40
0.1967243416988302
 50
267.5523490163448059
 51
2.404352418277043
  0
ARC
  5
B242
  8
0
 10
4370.652906634775718
 20
111.0749487376877056
 30
0.0
 40
0.0562108155923971
 50
5.4831229784043831
 51
92.4813633967927871
  0
ARC
  5
B243
  8
0
 10
4367.4363775515303132
 20
110.7712087808513957
 30
0.0
 40
3.287049232734252
 50
359.9858476011613106
 51
5.3960148098068252
  0
LINE
  5
B244
  8
0
 10
4370.6504730200003905
 20
111.1311068475977066
 30
0.0
 11
4369.7687597626090792
 21
111.0938580222795053
 31
0.0
  0
ARC
  5
B245
  8
0
 10
4369.2406195668863802
 20
108.9554362537899976
 30
0.0
 40
3.2980834748998178
 50
84.614965513231823
 51
90.0055316654341908
  0
ARC
  5
B246
  8
0
 10
33571.7666511444695061
 20
-1120.1866824544119936
 30
0.0
 40
29228.1577776985213859
 50
177.583481479860211
 51
177.585211970097987
  0
ARC
  5
B247
  8
0
 10
4369.5448647284947583
 20
112.1830117132434026
 30
0.0
 40
0.0562
 50
357.5834814801079915
 51
84.614965513231752
  0
ARC
  5
B248
  8
0
 10
4369.7603583395211899
 20
111.2904028840973041
 30
0.0
 40
0.1967243416988302
 50
177.5956475817228863
 51
272.4476509836551941
  0
ARC
  5
B249
  8
0
 10
4369.2399827348372128
 20
112.5853574664479027
 30
0.0
 40
3.2980834748998178
 50
264.6149655132318799
 51
270.005531665434205
  0
ARC
  5
B24A
  8
0
 10
-24833.2860488427504606
 20
1341.7274761746500644
 30
0.0
 40
29228.1577776985213859
 50
357.5834814798600974
 51
357.585211970097987
  0
ARC
  5
B24B
  8
0
 10
4368.9357375732270157
 20
109.3577820069944977
 30
0.0
 40
0.0562
 50
177.5834814801079915
 51
264.6149655132318799
  0
ARC
  5
B24C
  8
0
 10
4368.7202200832825838
 20
110.250381521986796
 30
0.0
 40
0.1967478091222893
 50
357.5986493349901139
 51
92.440585402304805
  0
ARC
  5
B24D
  8
0
 10
4370.652906634775718
 20
110.4658449825501947
 30
0.0
 40
0.0562108155923971
 50
267.5186366032071987
 51
354.516877021595576
  0
ARC
  5
B24E
  8
0
 10
4367.4363775515303132
 20
110.7695849393864052
 30
0.0
 40
3.2870492327338741
 50
354.6039851901932138
 51
0.0141523988395022
  0
LINE
  5
B24F
  8
0
 10
4370.6504730200003905
 20
110.4096868726401937
 30
0.0
 11
4369.7687597626090792
 21
110.4469356979584944
 31
0.0
  0
ARC
  5
B250
  8
0
 10
4369.2406195668863802
 20
112.5853574664479027
 30
0.0
 40
3.2980834748998178
 50
269.994468334565795
 51
275.3850344867681201
  0
ARC
  5
B251
  8
0
 10
33571.7666511444695061
 20
1341.7274761746500644
 30
0.0
 40
29228.1577776985213859
 50
182.4147880299018993
 51
182.416518520139789
  0
ARC
  5
B252
  8
0
 10
4369.5448647284947583
 20
109.3577820069944977
 30
0.0
 40
0.0562
 50
275.385034486768177
 51
2.416518519891965
  0
ARC
  5
B253
  8
0
 10
4369.7603583395211899
 20
110.2503908361405962
 30
0.0
 40
0.1967243416988302
 50
87.5523490163447775
 51
182.404352418277
  0
LINE
  5
B254
  8
0
 10
4369.6213053004676112
 20
110.3895480096795012
 30
0.0
 11
4368.8592965072693914
 21
111.1512452169450995
 31
0.0
  0
LINE
  5
B255
  8
0
 10
4368.8592960133091765
 20
110.3895489969296051
 30
0.0
 11
4369.621305794453292
 21
111.1512452169450995
 31
0.0
  0
ARC
  5
B256
  8
0
 10
4374.0314073009876665
 20
103.3544107539551931
 30
0.0
 40
0.1038363271180255
 50
297.5591903027984131
 51
0.4491407111852558
  0
ARC
  5
B257
  8
0
 10
4373.22625804004565
 20
104.9742617759105059
 30
0.0
 40
1.9127347878489469
 50
270.4206491396276988
 51
296.4910495501007972
  0
ARC
  5
B258
  8
0
 10
4401.8906590634669556
 20
103.4962737134013935
 30
0.0
 40
27.7557770186188115
 50
179.7819998275936086
 51
180.2911663031416083
  0
ARC
  5
B259
  8
0
 10
4066.4125602798890213
 20
96.1661152920691649
 30
0.0
 40
307.8123479388771102
 50
1.3842178192423611
 51
1.9757043211447489
  0
ARC
  5
B25A
  8
0
 10
4963.2624577480501102
 20
127.1201005248312015
 30
0.0
 40
589.571565403039699
 50
181.5710192512659091
 51
181.9772636227230009
  0
ARC
  5
B25B
  8
0
 10
4373.2419704216936225
 20
110.063486314369996
 30
0.0
 40
1.113176431275108
 50
72.0722834557521708
 51
90.0859434073535965
  0
ARC
  5
B25C
  8
0
 10
4373.259494558192273
 20
110.0747748643851054
 30
0.0
 40
1.0971211564740471
 50
53.4727702114503387
 51
72.7615729390973058
  0
ARC
  5
B25D
  8
0
 10
4373.5337916824746571
 20
111.2462630527666931
 30
0.0
 40
0.0599976698937962
 50
258.9096747867554882
 51
355.9955122068378159
  0
ARC
  5
B25E
  8
0
 10
4373.5003417048274059
 20
111.1409472276315
 30
0.0
 40
0.0500615686666571
 50
77.7923498825507238
 51
161.8734108330197046
  0
ARC
  5
B25F
  8
0
 10
4373.3761251816267759
 20
110.5501176422690008
 30
0.0
 40
0.6538068721006177
 50
72.1554716454152754
 51
78.1013797666842038
  0
LINE
  5
B260
  8
0
 10
4373.5936428730610714
 20
111.2420731389189967
 30
0.0
 11
4373.6357508112341748
 21
111.8442450223002993
 31
0.0
  0
ARC
  5
B261
  8
0
 10
4373.5958482850619475
 20
111.847035304265404
 30
0.0
 40
0.0399999658544735
 50
355.9999635322640756
 51
73.2445301845923922
  0
ARC
  5
B262
  8
0
 10
4373.2403006685617584
 20
110.6660897735191043
 30
0.0
 40
1.273307086599885
 50
73.2445130453923952
 51
90.0000002609679228
  0
ARC
  5
B263
  8
0
 10
4373.7611952315110102
 20
111.367843448372696
 30
0.0
 40
0.0963291152882512
 50
353.7699165035184024
 51
58.9268251433984105
  0
ARC
  5
B264
  8
0
 10
4373.8106668175951199
 20
111.3624428308698953
 30
0.0
 40
0.0465636202240067
 50
267.0982748483554019
 51
353.7699165035184024
  0
ARC
  5
B265
  8
0
 10
4373.8191239033703823
 20
111.5292887415221941
 30
0.0
 40
0.213623729769058
 50
227.7882602092913089
 51
267.0982748483554019
  0
ARC
  5
B266
  8
0
 10
4373.7110562699172078
 20
111.4101558104703997
 30
0.0
 40
0.0527782490712333
 50
152.1899142615799008
 51
227.7882602092923037
  0
ARC
  5
B267
  8
0
 10
4373.7467766160571045
 20
111.3566163384490011
 30
0.0
 40
0.1135764649086627
 50
55.6181956110421183
 51
136.5125998521913004
  0
ARC
  5
B268
  8
0
 10
4377.2403006684107822
 20
110.770396860119007
 30
0.0
 40
1.408551834895148
 50
284.752611077697793
 51
345.2481121020082924
  0
ARC
  5
B269
  8
0
 10
4377.2403006684107822
 20
110.770396860119007
 30
0.0
 40
1.408551834895148
 50
194.7525182297418951
 51
255.2473478406533047
  0
ARC
  5
B26A
  8
0
 10
4377.2403006684107822
 20
110.770396860119007
 30
0.0
 40
1.408551834895148
 50
104.7526521593466953
 51
165.2474817702581049
  0
ARC
  5
B26B
  8
0
 10
4377.2403006684107822
 20
110.770396860119007
 30
0.0
 40
1.408551834895148
 50
14.7525199652497196
 51
75.2473889223024344
  0
ARC
  5
B26C
  8
0
 10
4377.2403006684107822
 20
110.770396860119007
 30
0.0
 40
1.1289370775152641
 50
287.8763787913355827
 51
342.1253124472003719
  0
ARC
  5
B26D
  8
0
 10
4377.2403006684107822
 20
110.770396860119007
 30
0.0
 40
1.1289370775152641
 50
197.8754846832958947
 51
252.1235692554321872
  0
ARC
  5
B26E
  8
0
 10
4377.2403006684107822
 20
110.770396860119007
 30
0.0
 40
1.1289370775152641
 50
107.8764307445677986
 51
162.1245153167033095
  0
ARC
  5
B26F
  8
0
 10
4377.2403006684107822
 20
110.770396860119007
 30
0.0
 40
1.1289370775152641
 50
17.8754868780547085
 51
72.1236212086646731
  0
ARC
  5
B270
  8
0
 10
4378.6529056585768558
 20
111.0749487376877056
 30
0.0
 40
0.0562108155923971
 50
5.4831229784043831
 51
92.4813633967927871
  0
ARC
  5
B271
  8
0
 10
4375.4359351002249241
 20
110.7711775724542065
 30
0.0
 40
3.287491686271133
 50
359.9865258191111934
 51
5.3958327558686721
  0
LINE
  5
B272
  8
0
 10
4378.6504720437987999
 20
111.1311068475977066
 30
0.0
 11
4377.768758786408398
 21
111.0938580222795053
 31
0.0
  0
ARC
  5
B273
  8
0
 10
4378.6529056585768558
 20
110.4658601761502013
 30
0.0
 40
0.0562108155923971
 50
267.5186366032071987
 51
354.516877021595576
  0
ARC
  5
B274
  8
0
 10
4375.4359351002249241
 20
110.7696313413837998
 30
0.0
 40
3.287491686271081
 50
354.604167244131304
 51
0.0134741808887035
  0
LINE
  5
B275
  8
0
 10
4378.6504720437987999
 20
110.4097020662402002
 30
0.0
 11
4377.768759427047371
 21
110.4469508644940987
 31
0.0
  0
ARC
  5
B276
  8
0
 10
4377.2403006684107822
 20
110.770396860119007
 30
0.0
 40
1.0909482368383501
 50
288.4289482776767954
 51
341.5729291581380949
  0
ARC
  5
B277
  8
0
 10
4377.2403006684107822
 20
110.770396860119007
 30
0.0
 40
1.0909482368383501
 50
198.4278979732631001
 51
251.5709978136553104
  0
ARC
  5
B278
  8
0
 10
4377.2403006684107822
 20
110.770396860119007
 30
0.0
 40
1.0909482368383501
 50
108.4290021863447038
 51
161.5721020267368999
  0
ARC
  5
B279
  8
0
 10
4377.2403006684107822
 20
110.770396860119007
 30
0.0
 40
1.0909482368383501
 50
18.4279002506244183
 51
71.5710517223231619
  0
ARC
  5
B27A
  8
0
 10
4377.2406181014075628
 20
108.9554293218191958
 30
0.0
 40
3.298090422194198
 50
84.6149683524812559
 51
90.0055231538570268
  0
ARC
  5
B27B
  8
0
 10
33579.7666501682688249
 20
-1120.1866824544119936
 30
0.0
 40
29228.1577776985213859
 50
177.583481479860211
 51
177.585211970097987
  0
ARC
  5
B27C
  8
0
 10
4377.5448637522940771
 20
112.1830117132434026
 30
0.0
 40
0.0562
 50
357.5834814801079915
 51
84.614965513231752
  0
ARC
  5
B27D
  8
0
 10
4377.7603573633195992
 20
111.2904028840973041
 30
0.0
 40
0.1967243416988302
 50
177.5956475817228863
 51
272.4476509836551941
  0
ARC
  5
B27E
  8
0
 10
4375.8276946907462843
 20
111.0749487376877056
 30
0.0
 40
0.0562108155923971
 50
87.5186366032072414
 51
174.5168770215956044
  0
ARC
  5
B27F
  8
0
 10
4379.0442237739916891
 20
110.7712087808514951
 30
0.0
 40
3.2870492327342302
 50
174.6039851901931002
 51
180.0141523988386894
  0
LINE
  5
B280
  8
0
 10
4375.8301283055216118
 20
111.1311068475977066
 30
0.0
 11
4376.7118415629138326
 21
111.0938580222795053
 31
0.0
  0
ARC
  5
B281
  8
0
 10
4377.2399822479137583
 20
108.9554293218193948
 30
0.0
 40
3.2980904221940199
 50
89.9944768461430158
 51
95.3850316475187867
  0
ARC
  5
B282
  8
0
 10
-24825.2860498189511418
 20
-1120.1866824544119936
 30
0.0
 40
29228.1577776985213859
 50
2.4147880299019562
 51
2.4165185201398391
  0
ARC
  5
B283
  8
0
 10
4376.9357365970281535
 20
112.1830117132434026
 30
0.0
 40
0.0562
 50
95.385034486768248
 51
182.4165185198920085
  0
ARC
  5
B284
  8
0
 10
4376.7202429860017219
 20
111.2904028840973041
 30
0.0
 40
0.1967243416988302
 50
267.5523490163448059
 51
2.404352418277043
  0
ARC
  5
B285
  8
0
 10
4377.2406181014075628
 20
112.585364398418406
 30
0.0
 40
3.2980904221939462
 50
269.9944768461430158
 51
275.3850316475188151
  0
ARC
  5
B286
  8
0
 10
33579.7666501682688249
 20
1341.7274761746500644
 30
0.0
 40
29228.1577776985213859
 50
182.4147880299018993
 51
182.416518520139789
  0
ARC
  5
B287
  8
0
 10
4377.5448637522940771
 20
109.3577820069944977
 30
0.0
 40
0.0562
 50
275.385034486768177
 51
2.416518519891965
  0
ARC
  5
B288
  8
0
 10
4377.7603812422375995
 20
110.250381521986796
 30
0.0
 40
0.1967478091222893
 50
87.5594145976951808
 51
182.4013506650099998
  0
ARC
  5
B289
  8
0
 10
4375.8276946907462843
 20
110.4658449825501947
 30
0.0
 40
0.0562108155923971
 50
185.4831229784043956
 51
272.4813633967928013
  0
ARC
  5
B28A
  8
0
 10
4379.0442237739907796
 20
110.7695849393864052
 30
0.0
 40
3.2870492327331369
 50
179.9858476011596906
 51
185.3960148098067862
  0
LINE
  5
B28B
  8
0
 10
4375.8301283055216118
 20
110.4096868726401937
 30
0.0
 11
4376.7118415629138326
 21
110.4469356979584944
 31
0.0
  0
ARC
  5
B28C
  8
0
 10
4377.2399822479137583
 20
112.5853643984187045
 30
0.0
 40
3.2980904221941869
 50
264.6149683524811849
 51
270.0055231538569842
  0
ARC
  5
B28D
  8
0
 10
-24825.2860498189511418
 20
1341.7274761746500644
 30
0.0
 40
29228.1577776985213859
 50
357.5834814798600974
 51
357.585211970097987
  0
ARC
  5
B28E
  8
0
 10
4376.9357365970281535
 20
109.3577820069944977
 30
0.0
 40
0.0562
 50
177.5834814801079915
 51
264.614965513231823
  0
ARC
  5
B28F
  8
0
 10
4376.7202429860017219
 20
110.2503908361405962
 30
0.0
 40
0.1967243416988302
 50
357.5956475817229716
 51
92.4476509836552367
  0
LINE
  5
B290
  8
0
 10
4376.8592960250525721
 20
110.3895480096795012
 30
0.0
 11
4377.6213048182526109
 21
111.1512452169450995
 31
0.0
  0
LINE
  5
B291
  8
0
 10
4377.6213053122137353
 20
110.3895489969296051
 30
0.0
 11
4376.8592955310678008
 21
111.1512452169450995
 31
0.0
  0
ARC
  5
B293
  8
0
 10
4373.2403096810612624
 20
110.1021127490189002
 30
0.0
 40
1.121906125200103
 50
49.7130088464136222
 51
72.5641800636325769
  0
ARC
  5
B294
  8
0
 10
4373.8552912016621121
 20
110.827607930164703
 30
0.0
 40
0.1708301405667509
 50
12.5904736529725199
 51
49.7130088464136222
  0
ARC
  5
B295
  8
0
 10
4372.9946919755966519
 20
110.6353914441779978
 30
0.0
 40
1.052634090086461
 50
347.4098647262641748
 51
12.5904736529725199
  0
ARC
  5
B296
  8
0
 10
4373.8553092656438821
 20
110.4431762597743045
 30
0.0
 40
0.1708127946738084
 50
310.2834676248263008
 51
347.4098647262641748
  0
ARC
  5
B297
  8
0
 10
4373.2369946138169325
 20
111.1726944938214956
 30
0.0
 40
1.1271128848502341
 50
308.0253739226699281
 51
310.2834676248263008
  0
LINE
  5
B298
  8
0
 10
4374.0014864741060592
 20
110.9159758031874929
 30
0.0
 11
4374.2304114675544042
 21
111.2776002111250051
 31
0.0
  0
LINE
  5
B299
  8
0
 10
4374.0014884465608702
 20
110.3548096490506936
 30
0.0
 11
4374.17937026285108
 21
110.1739717338657982
 31
0.0
  0
ARC
  5
B29A
  8
0
 10
4373.1044761438952264
 20
110.5501176422690008
 30
0.0
 40
0.6538068721006177
 50
101.8986202333158957
 51
107.8445283545846962
  0
ARC
  5
B29B
  8
0
 10
4373.2402916444616494
 20
110.1021127490189002
 30
0.0
 40
1.121906125200103
 50
107.4358199363673947
 51
130.2869911535863992
  0
ARC
  5
B29C
  8
0
 10
4372.6253101238607996
 20
110.827607930164703
 30
0.0
 40
0.1708301405667509
 50
130.2869911535863992
 51
167.4095263470275086
  0
ARC
  5
B29D
  8
0
 10
4373.4859093499253504
 20
110.6353914441779978
 30
0.0
 40
1.052634090086461
 50
167.4095263470275086
 51
192.5901352737357968
  0
ARC
  5
B29E
  8
0
 10
4372.6252920598781202
 20
110.4431762597743045
 30
0.0
 40
0.1708127946738246
 50
192.5901352737382126
 51
229.750598380721101
  0
LINE
  5
B29F
  8
0
 10
4372.4791148514168526
 20
110.9159758031874929
 30
0.0
 11
4372.2501898579675981
 21
111.2776002111250051
 31
0.0
  0
LINE
  5
B2A0
  8
0
 10
4372.4791128789620416
 20
110.3548096490506936
 30
0.0
 11
4372.3012310626718318
 21
110.1739717338657982
 31
0.0
  0
ARC
  5
B2A1
  8
0
 10
4373.2410178682566766
 20
111.1695261982130063
 30
0.0
 40
1.1230220373925111
 50
229.7179582211093987
 51
231.9790851290487979
  0
ENDSEC
  0
EOF
