  0
SECTION
  2
HEADER
  9
$ACADVER
  1
AC1009
  9
$INSBASE
 10
4719.9274855189032678
 20
199.4206628342111003
 30
0.0
  9
$EXTMIN
 10
4710.0714945003919638
 20
199.4206628342111003
 30
0.0
  9
$EXTMAX
 10
4722.2896902433039941
 20
236.6886023176116112
 30
0.0
  9
$LIMMIN
 10
0.0
 20
0.0
  9
$LIMMAX
 10
11.6929133858000007
 20
8.2677165353999982
  9
$ORTHOMODE
 70
     0
  9
$REGENMODE
 70
     1
  9
$FILLMODE
 70
     1
  9
$QTEXTMODE
 70
     0
  9
$MIRRTEXT
 70
     0
  9
$DRAGMODE
 70
     2
  9
$LTSCALE
 40
0.6431102362
  9
$OSMODE
 70
  4095
  9
$ATTMODE
 70
     1
  9
$TEXTSIZE
 40
0.2
  9
$TRACEWID
 40
0.05
  9
$TEXTSTYLE
  7
STANDARD
  9
$CLAYER
  8
0
  9
$CELTYPE
  6
BYLAYER
  9
$CECOLOR
 62
   256
  9
$DIMSCALE
 40
1.0
  9
$DIMASZ
 40
0.1875
  9
$DIMEXO
 40
0.0625
  9
$DIMDLI
 40
0.4443307087
  9
$DIMRND
 40
0.0
  9
$DIMDLE
 40
0.0
  9
$DIMEXE
 40
0.125
  9
$DIMTP
 40
0.01
  9
$DIMTM
 40
0.01
  9
$DIMTXT
 40
2.0
  9
$DIMCEN
 40
0.1052362205
  9
$DIMTSZ
 40
0.0
  9
$DIMTOL
 70
     1
  9
$DIMLIM
 70
     0
  9
$DIMTIH
 70
     1
  9
$DIMTOH
 70
     1
  9
$DIMSE1
 70
     0
  9
$DIMSE2
 70
     0
  9
$DIMTAD
 70
     0
  9
$DIMZIN
 70
     0
  9
$DIMBLK
  1

  9
$DIMASO
 70
     1
  9
$DIMSHO
 70
     1
  9
$DIMPOST
  1
\X
  9
$DIMAPOST
  1

  9
$DIMALT
 70
     1
  9
$DIMALTD
 70
     2
  9
$DIMALTF
 40
25.3999999999999986
  9
$DIMLFAC
 40
1.0
  9
$DIMTOFL
 70
     0
  9
$DIMTVP
 40
0.0
  9
$DIMTIX
 70
     0
  9
$DIMSOXD
 70
     0
  9
$DIMSAH
 70
     0
  9
$DIMBLK1
  1

  9
$DIMBLK2
  1

  9
$DIMSTYLE
  2
STANDARD
  9
$DIMCLRD
 70
     0
  9
$DIMCLRE
 70
     0
  9
$DIMCLRT
 70
     0
  9
$DIMTFAC
 40
1.0
  9
$DIMGAP
 40
0.09
  9
$LUNITS
 70
     2
  9
$LUPREC
 70
     4
  9
$SKETCHINC
 40
0.1
  9
$FILLETRAD
 40
0.0
  9
$AUNITS
 70
     0
  9
$AUPREC
 70
     0
  9
$MENU
  1
.
  9
$ELEVATION
 40
0.0
  9
$PELEVATION
 40
0.0
  9
$THICKNESS
 40
0.0
  9
$LIMCHECK
 70
     0
  9
$BLIPMODE
 70
     0
  9
$CHAMFERA
 40
0.0
  9
$CHAMFERB
 40
0.0
  9
$SKPOLY
 70
     0
  9
$TDCREATE
 40
2458060.468368056230247
  9
$TDUPDATE
 40
2459760.6928125000558794
  9
$TDINDWG
 40
0.472009375
  9
$TDUSRTIMER
 40
0.472009375
  9
$USRTIMER
 70
     1
  9
$ANGBASE
 50
0.0
  9
$ANGDIR
 70
     0
  9
$PDMODE
 70
     0
  9
$PDSIZE
 40
0.3125
  9
$PLINEWID
 40
0.0
  9
$COORDS
 70
     1
  9
$SPLFRAME
 70
     0
  9
$SPLINETYPE
 70
     6
  9
$SPLINESEGS
 70
     8
  9
$ATTDIA
 70
     1
  9
$ATTREQ
 70
     1
  9
$HANDLING
 70
     1
  9
$HANDSEED
  5
E808
  9
$SURFTAB1
 70
     6
  9
$SURFTAB2
 70
     6
  9
$SURFTYPE
 70
     6
  9
$SURFU
 70
     6
  9
$SURFV
 70
     6
  9
$UCSNAME
  2

  9
$UCSORG
 10
0.0
 20
0.0
 30
0.0
  9
$UCSXDIR
 10
1.0
 20
0.0
 30
0.0
  9
$UCSYDIR
 10
0.0
 20
1.0
 30
0.0
  9
$PUCSNAME
  2

  9
$PUCSORG
 10
0.0
 20
0.0
 30
0.0
  9
$PUCSXDIR
 10
1.0
 20
0.0
 30
0.0
  9
$PUCSYDIR
 10
0.0
 20
1.0
 30
0.0
  9
$USERI1
 70
     0
  9
$USERI2
 70
     0
  9
$USERI3
 70
     0
  9
$USERI4
 70
     0
  9
$USERI5
 70
     0
  9
$USERR1
 40
0.0
  9
$USERR2
 40
0.0
  9
$USERR3
 40
0.0
  9
$USERR4
 40
0.0
  9
$USERR5
 40
0.0
  9
$WORLDVIEW
 70
     1
  9
$SHADEDGE
 70
     3
  9
$SHADEDIF
 70
    70
  9
$TILEMODE
 70
     1
  9
$MAXACTVP
 70
    64
  9
$PLIMCHECK
 70
     0
  9
$PEXTMIN
 10
1.0000000000000000E+20
 20
1.0000000000000000E+20
 30
1.0000000000000000E+20
  9
$PEXTMAX
 10
-1.0000000000000000E+20
 20
-1.0000000000000000E+20
 30
-1.0000000000000000E+20
  9
$PLIMMIN
 10
0.0
 20
0.0
  9
$PLIMMAX
 10
12.0
 20
9.0
  9
$UNITMODE
 70
     0
  9
$VISRETAIN
 70
     1
  9
$PLINEGEN
 70
     0
  9
$PSLTSCALE
 70
     1
  0
ENDSEC
  0
SECTION
  2
TABLES
  0
TABLE
  2
VPORT
 70
     1
  0
VPORT
  2
*ACTIVE
 70
     0
 10
0.0
 20
0.0
 11
1.0
 21
1.0
 12
958.0556155558789442
 22
68.9143270313488046
 13
0.0
 23
0.0
 14
1.0
 24
1.0
 15
0.0
 25
0.0
 16
0.0
 26
0.0
 36
17.1152628219792007
 17
3803.5440673828129547
 27
125.9952621967499056
 37
0.0
 40
215.882187040956893
 41
2.000833333333333
 42
50.0
 43
0.0
 44
0.0
 50
0.0
 51
0.0
 71
     0
 72
   100
 73
     1
 74
     1
 75
     0
 76
     0
 77
     0
 78
     0
  0
ENDTAB
  0
TABLE
  2
LTYPE
 70
     2
  0
LTYPE
  2
CONTINUOUS
 70
     0
  3
Solid line
 72
    65
 73
     0
 40
0.0
  0
LTYPE
  2
PHANTOM2
 70
     0
  3
___ _ _ ___ _ _ ___ _ _ ___ _ _
 72
    65
 73
     6
 40
1.25
 49
0.625
 49
-0.125
 49
0.125
 49
-0.125
 49
0.125
 49
-0.125
  0
ENDTAB
  0
TABLE
  2
LAYER
 70
     2
  0
LAYER
  2
0
 70
     0
 62
   255
  6
CONTINUOUS
  0
LAYER
  2
DEFPOINTS
 70
     0
 62
     7
  6
CONTINUOUS
  0
ENDTAB
  0
TABLE
  2
STYLE
 70
     1
  0
STYLE
  2
STANDARD
 70
     0
 40
0.0
 41
0.8
 50
0.0
 71
     0
 42
0.2
  3
txt
  4

  0
ENDTAB
  0
TABLE
  2
VIEW
 70
     0
  0
ENDTAB
  0
TABLE
  2
UCS
 70
     0
  0
ENDTAB
  0
TABLE
  2
APPID
 70
     9
  0
APPID
  2
ACAD
 70
     0
  0
APPID
  2
ACAD_MLEADERVER
 70
     0
  0
APPID
  2
ACAD_EXEMPT_FROM_CAD_STANDARDS
 70
     0
  0
APPID
  2
ACAD_NAV_VCDISPLAY
 70
     0
  0
APPID
  2
ACAECLAYERSTANDARD
 70
     0
  0
APPID
  2
ACCMTRANSPARENCY
 70
     0
  0
APPID
  2
ACAD_DSTYLE_DIMJAG
 70
     0
  0
APPID
  2
ACAD_DSTYLE_DIMTALN
 70
     0
  0
APPID
  2
ACDBATTR
 70
     0
  0
ENDTAB
  0
TABLE
  2
DIMSTYLE
 70
     1
  0
DIMSTYLE
  2
STANDARD
 70
     0
  3

  4

  5

  6

  7

 40
1.0
 41
0.1875
 42
0.0625
 43
0.38
 44
0.125
 45
0.0
 46
0.0
 47
0.01
 48
0.01
140
0.15625
141
0.09
142
0.0
143
25.3999999999999986
144
1.0
145
0.0
146
1.0
147
0.09
 71
     1
 72
     0
 73
     1
 74
     1
 75
     0
 76
     0
 77
     0
 78
     4
170
     0
171
     2
172
     0
173
     0
174
     0
175
     0
176
     0
177
     0
178
     0
  0
ENDTAB
  0
ENDSEC
  0
SECTION
  2
BLOCKS
  0
BLOCK
  8
0
  2
$MODEL_SPACE
 70
     0
 10
0.0
 20
0.0
 30
0.0
  3
$MODEL_SPACE
  1

  0
ENDBLK
  5
21
  8
0
  0
BLOCK
 67
     1
  8
0
  2
$PAPER_SPACE
 70
     0
 10
0.0
 20
0.0
 30
0.0
  3
$PAPER_SPACE
  1

  0
ENDBLK
  5
1D
 67
     1
  8
0
  0
ENDSEC
  0
SECTION
  2
ENTITIES
  0
ATTDEF
  5
3930
  8
DEFPOINTS
 10
4719.9142912665465701
 20
199.4332543431301019
 30
0.0
 40
0.001
  1
P24978-00
  3

  2
MODELNUMBER
 70
     0
1001
ACDBATTR
1070
     0
1070
     1
  0
ATTDEF
  5
3931
  8
DEFPOINTS
 10
4719.9142912665465701
 20
199.4315876764634083
 30
0.0
 40
0.001
  1
PURE PALETTA
  3

  2
TRADENAME
 70
     0
1001
ACDBATTR
1070
     0
1070
     1
  0
ATTDEF
  5
3932
  8
DEFPOINTS
 10
4719.9142912665465701
 20
199.4299210097968
 30
0.0
 40
0.001
  1
BATH FILLER
  3

  2
PRODUCT
 70
     0
1001
ACDBATTR
1070
     0
1070
     1
  0
LINE
  5
E5D2
  8
0
 10
4719.1400839441030257
 20
200.2080644090110866
 30
0.0
 11
4719.1400839441030257
 21
225.9831926636888113
 31
0.0
  0
LINE
  5
E5D3
  8
0
 10
4719.1400839441030257
 20
226.8775089385333956
 30
0.0
 11
4719.1400839441030257
 21
235.7361718745110863
 31
0.0
  0
LINE
  5
E5D4
  8
0
 10
4719.1400839441030257
 20
236.1931031637109868
 30
0.0
 11
4719.1400839441030257
 21
236.5604164715635989
 31
0.0
  0
LINE
  5
E5D5
  8
0
 10
4720.7148870937026004
 20
200.2080644090110866
 30
0.0
 11
4720.7148870937026004
 21
225.9831926636888113
 31
0.0
  0
LINE
  5
E5D6
  8
0
 10
4720.7148870937026004
 20
226.8775089385333956
 30
0.0
 11
4720.7148870937026004
 21
235.7361718745110863
 31
0.0
  0
LINE
  5
E5D7
  8
0
 10
4720.7148870937026004
 20
236.1931031637109868
 30
0.0
 11
4720.7148870937026004
 21
236.5604164715635989
 31
0.0
  0
LINE
  5
E5D8
  8
0
 10
4710.0741739923169007
 20
233.744248003967499
 30
0.0
 11
4710.4717428567237221
 21
234.4328574765571034
 31
0.0
  0
LINE
  5
E5D9
  8
0
 10
4710.4817428567102979
 20
234.4501779846073077
 30
0.0
 11
4710.8287690823817684
 21
235.0512450389688013
 31
0.0
  0
LINE
  5
E5DA
  8
0
 10
4711.3186593166738021
 20
233.0257440668098923
 30
0.0
 11
4711.7162281810678905
 21
233.7143535394515936
 31
0.0
  0
LINE
  5
E5DB
  8
0
 10
4711.7262281810708373
 20
233.731674047530106
 30
0.0
 11
4711.787311839105314
 21
233.8374740467606046
 31
0.0
  0
LINE
  5
E5DC
  8
0
 10
4710.12625365020358
 20
233.5498840747337965
 30
0.0
 11
4711.1242953876489992
 21
232.9736644090037032
 31
0.0
  0
ARC
  5
E5DD
  8
0
 10
4710.1362536502037983
 20
233.5672045828098078
 30
0.0
 40
0.02
 50
195.0000000034341099
 51
240.0000000019861943
  0
LINE
  5
E5DE
  8
0
 10
4710.072175983867055
 20
233.7290716230635041
 30
0.0
 11
4710.1169351336793625
 21
233.5620282019065996
 31
0.0
  0
LINE
  5
E5DF
  8
0
 10
4711.1394717685489013
 20
232.9716664005534881
 30
0.0
 11
4711.3065151894988958
 21
233.0164255502837136
 31
0.0
  0
ARC
  5
E5E0
  8
0
 10
4711.134295387648308
 20
232.9909849170796861
 30
0.0
 40
0.02
 50
240.0000000019861943
 51
284.9999999954083023
  0
ARC
  5
E5E1
  8
0
 10
4711.3013388085992119
 20
233.0357440668099116
 30
0.0
 40
0.02
 50
284.9999999954083023
 51
330.0000000000947011
  0
ARC
  5
E5E2
  8
0
 10
4710.0914945003933099
 20
233.7342480039667976
 30
0.0
 40
0.02
 50
149.9999999974845082
 51
195.0000000034576999
  0
LINE
  5
E5E3
  8
0
 10
4710.4717428567237221
 20
234.4328574765571034
 30
0.0
 11
4711.7162281810678905
 21
233.7143535394515936
 31
0.0
  0
ARC
  5
E5E4
  8
0
 10
4711.7089076729926092
 20
233.7416740475281927
 30
0.0
 40
0.02
 50
239.9999999968121926
 51
330.0000000000778186
  0
ARC
  5
E5E5
  8
0
 10
4710.49906336479944
 20
234.44017798463139
 30
0.0
 40
0.02
 50
149.9999999975331093
 51
239.9999999968138127
  0
LINE
  5
E5E6
  8
0
 10
4710.072175983867055
 20
233.7290716230635041
 30
0.0
 11
4711.3066412051603038
 21
233.0164593160783113
 31
0.0
  0
ARC
  5
E5E7
  8
0
 10
4711.4932039891400564
 20
234.6676248219482943
 30
0.0
 40
0.7672276169599122
 50
90.0015097844158731
 51
149.9994473780795943
  0
LINE
  5
E5E8
  8
0
 10
4712.0601098412980718
 20
233.9949740467610866
 30
0.0
 11
4719.142717982569593
 21
233.9949740467610866
 31
0.0
  0
ARC
  5
E5E9
  8
0
 10
4712.0601098412980718
 20
233.6799740467610889
 30
0.0
 40
0.315
 50
90.0
 51
150.0000000000875957
  0
LINE
  5
E5EA
  8
0
 10
4719.268269790202794
 20
236.6886023176116112
 30
0.0
 11
4720.5867012476028322
 21
236.688602317610588
 31
0.0
  0
LINE
  5
E5EB
  8
0
 10
4719.1459418084832578
 20
236.5745586071907951
 30
0.0
 11
4719.2541276545789515
 21
236.6827444532347897
 31
0.0
  0
LINE
  5
E5EC
  8
0
 10
4719.1458433833031449
 20
236.1790594533111118
 30
0.0
 11
4720.7091269742577424
 21
236.1790594533111118
 31
0.0
  0
LINE
  5
E5ED
  8
0
 10
4719.2682697901509528
 20
236.0649173176111049
 30
0.0
 11
4720.5867012476574018
 21
236.0649173176111049
 31
0.0
  0
ARC
  5
E5EE
  8
0
 10
4719.2682697901509528
 20
236.0849173176110867
 30
0.0
 40
0.02
 50
224.9999999861177002
 51
270.0
  0
LINE
  5
E5EF
  8
0
 10
4719.1459418084759818
 20
236.178961028090697
 30
0.0
 11
4719.2541276545225628
 21
236.0707751819907969
 31
0.0
  0
ARC
  5
E5F0
  8
0
 10
4719.1600839441025528
 20
236.1931031637109868
 30
0.0
 40
0.02
 50
179.9999999999901945
 51
224.9999999860750961
  0
ARC
  5
E5F1
  8
0
 10
4719.1600839441025528
 20
236.5604164715635989
 30
0.0
 40
0.02
 50
134.9999999860878006
 51
180.0000000000194973
  0
ARC
  5
E5F2
  8
0
 10
4719.268269790202794
 20
236.6686023176116009
 30
0.0
 40
0.02
 50
89.9999999999478888
 51
134.9999999861487936
  0
LINE
  5
E5F3
  8
0
 10
4719.1459418084832578
 20
236.5745586071907951
 30
0.0
 11
4720.7090292293250968
 21
236.5745586071907951
 31
0.0
  0
LINE
  5
E5F4
  8
0
 10
4719.5038030788027754
 20
236.0649173176111049
 30
0.0
 11
4719.5038030788027754
 21
235.9825983176110924
 31
0.0
  0
LINE
  5
E5F5
  8
0
 10
4719.4319119258034334
 20
235.9825982814111001
 30
0.0
 11
4720.4230591120031022
 21
235.9825982814111001
 31
0.0
  0
ARC
  5
E5F6
  8
0
 10
4719.4319119258034334
 20
235.9525982814110989
 30
0.0
 40
0.03
 50
90.0
 51
135.0000000000046043
  0
LINE
  5
E5F7
  8
0
 10
4719.4106987223667602
 20
235.9738114848466921
 30
0.0
 11
4719.3682723154679479
 21
235.9313850779466861
 31
0.0
  0
ARC
  5
E5F8
  8
0
 10
4719.3894855189028021
 20
235.9101718745110929
 30
0.0
 40
0.03
 50
135.0000000000046043
 51
180.0
  0
LINE
  5
E5F9
  8
0
 10
4719.3594855189039663
 20
235.9101718745110929
 30
0.0
 11
4719.3594855189039663
 21
235.8685982814110957
 31
0.0
  0
LINE
  5
E5FA
  8
0
 10
4719.2212971475682934
 20
235.829811484846914
 30
0.0
 11
4719.1488707406670073
 21
235.757385077946708
 31
0.0
  0
ARC
  5
E5FB
  8
0
 10
4719.1700839441036806
 20
235.7361718745110863
 30
0.0
 40
0.03
 50
135.0000000000046043
 51
179.9999999999984084
  0
LINE
  5
E5FC
  8
0
 10
4719.2425103510031477
 20
235.8385982814110946
 30
0.0
 11
4720.6124606868042974
 21
235.8385982814110946
 31
0.0
  0
ARC
  5
E5FD
  8
0
 10
4719.2425103510031477
 20
235.8085982814110935
 30
0.0
 40
0.03
 50
90.0
 51
134.9999999999988063
  0
ARC
  5
E5FE
  8
0
 10
4719.3294855189033115
 20
235.8685982814110957
 30
0.0
 40
0.03
 50
270.0
 51
359.9999999999869829
  0
LINE
  5
E5FF
  8
0
 10
4720.7090292293250968
 20
236.5745586071907951
 30
0.0
 11
4720.6008433832266746
 21
236.6827444532347897
 31
0.0
  0
ARC
  5
E600
  8
0
 10
4720.5867012476574018
 20
236.0849173176110867
 30
0.0
 40
0.02
 50
270.0
 51
315.0000000138822998
  0
LINE
  5
E601
  8
0
 10
4720.7090292293305538
 20
236.178961028090697
 30
0.0
 11
4720.6008433832830633
 21
236.0707751819907969
 31
0.0
  0
ARC
  5
E602
  8
0
 10
4720.6948870937030733
 20
236.1931031637109868
 30
0.0
 40
0.02
 50
315.0000000139236818
 51
0.0000000000097707
  0
ARC
  5
E603
  8
0
 10
4720.6948870937030733
 20
236.5604164715635989
 30
0.0
 40
0.02
 50
359.9999999999789111
 51
45.0000000139122278
  0
ARC
  5
E604
  8
0
 10
4720.5867012476028322
 20
236.6686023176116009
 30
0.0
 40
0.02
 50
45.0000000138511993
 51
90.0000000000521254
  0
LINE
  5
E605
  8
0
 10
4720.3511679590037602
 20
236.0649173176111049
 30
0.0
 11
4720.3511679590037602
 21
235.9825983176110924
 31
0.0
  0
ARC
  5
E606
  8
0
 10
4720.4230591120031022
 20
235.9525982814110989
 30
0.0
 40
0.03
 50
44.9999999999953886
 51
90.0
  0
LINE
  5
E607
  8
0
 10
4720.4442723154388659
 20
235.9738114848466921
 30
0.0
 11
4720.4866987223385877
 21
235.9313850779466861
 31
0.0
  0
ARC
  5
E608
  8
0
 10
4720.4654855189037335
 20
235.9101718745110929
 30
0.0
 40
0.03
 50
0.0
 51
44.9999999999953886
  0
LINE
  5
E609
  8
0
 10
4720.4954855189025693
 20
235.9101718745110929
 30
0.0
 11
4720.4954855189025693
 21
235.8685982814110957
 31
0.0
  0
LINE
  5
E60A
  8
0
 10
4720.6336738902391517
 20
235.829811484846914
 30
0.0
 11
4720.7061002971386188
 21
235.757385077946708
 31
0.0
  0
ARC
  5
E60B
  8
0
 10
4720.6848870937028551
 20
235.7361718745110863
 30
0.0
 40
0.03
 50
0.0000000000016284
 51
44.9999999999953886
  0
ARC
  5
E60C
  8
0
 10
4720.6124606868042974
 20
235.8085982814110935
 30
0.0
 40
0.03
 50
45.0000000000011511
 51
90.0
  0
ARC
  5
E60D
  8
0
 10
4720.5254855189032241
 20
235.8685982814110957
 30
0.0
 40
0.03
 50
180.0000000000129887
 51
270.0
  0
LINE
  5
E60E
  8
0
 10
4719.3682723155034182
 20
235.9313850779111021
 30
0.0
 11
4720.4866987223031174
 21
235.9313850779111021
 31
0.0
  0
LINE
  5
E60F
  8
0
 10
4719.1488707407033871
 20
235.7573850779110956
 30
0.0
 11
4720.706100297102239
 21
235.7573850779110956
 31
0.0
  0
LINE
  5
E610
  8
0
 10
4717.5752807945036693
 20
199.4206628342111003
 30
0.0
 11
4722.2796902433028663
 21
199.4206628342111003
 31
0.0
  0
LINE
  5
E611
  8
0
 10
4717.5852807945038876
 20
200.2080644090110866
 30
0.0
 11
4722.2696902433035575
 21
200.2080644090110866
 31
0.0
  0
LINE
  5
E612
  8
0
 10
4722.2896902433030846
 20
199.4306628342110912
 30
0.0
 11
4722.2896902433030846
 21
200.1880644090111048
 31
0.0
  0
LINE
  5
E613
  8
0
 10
4717.565280794503451
 20
200.1880644090111048
 30
0.0
 11
4717.565280794503451
 21
199.4306628342110912
 31
0.0
  0
ARC
  5
E614
  8
0
 10
4717.5852807945038876
 20
200.1880644090111048
 30
0.0
 40
0.02
 50
90.0
 51
180.0000000000098055
  0
ARC
  5
E615
  8
0
 10
4717.5752807945036693
 20
199.4306628342110912
 30
0.0
 40
0.01
 50
180.0
 51
270.0
  0
ARC
  5
E616
  8
0
 10
4722.2796902433028663
 20
199.4306628342110912
 30
0.0
 40
0.01
 50
270.0
 51
0.0
  0
ARC
  5
E617
  8
0
 10
4722.2696902433035575
 20
200.1880644090111048
 30
0.0
 40
0.02
 50
359.9999999999902229
 51
90.0
  0
LINE
  5
E618
  8
0
 10
4719.4539855188786532
 20
227.4618468641110951
 30
0.0
 11
4719.4539855188786532
 21
229.6315625927636859
 31
0.0
  0
LINE
  5
E619
  8
0
 10
4720.4009855188796791
 20
227.4618468641110951
 30
0.0
 11
4720.4009855188796791
 21
229.6315625928110933
 31
0.0
  0
ARC
  5
E61A
  8
0
 10
4720.3809855188801521
 20
229.6315625928110933
 30
0.0
 40
0.02
 50
0.0
 51
44.9999999638733499
  0
LINE
  5
E61B
  8
0
 10
4719.4539855188786532
 20
227.4618468641110951
 30
0.0
 11
4720.4009855188796791
 21
227.4618468641110951
 31
0.0
  0
ARC
  5
E61C
  8
0
 10
4719.4739855188799993
 20
227.4418468641111133
 30
0.0
 40
0.02
 50
90.0
 51
179.9999999999901945
  0
ARC
  5
E61D
  8
0
 10
4720.3809855188801521
 20
227.4418468641111133
 30
0.0
 40
0.02
 50
0.0000000000097707
 51
90.0
  0
LINE
  5
E61E
  8
0
 10
4719.4598433832470619
 20
229.6457047283784902
 30
0.0
 11
4719.5391276544951324
 21
229.7249889997258947
 31
0.0
  0
ARC
  5
E61F
  8
0
 10
4719.4739855188799993
 20
229.6315625927636859
 30
0.0
 40
0.02
 50
135.0000000361266075
 51
180.0
  0
LINE
  5
E620
  8
0
 10
4720.3158433833123127
 20
229.7249889997258947
 30
0.0
 11
4720.3951276545112705
 21
229.6457047284258977
 31
0.0
  0
ARC
  5
E621
  8
0
 10
4720.3017012476793752
 20
229.7108468641110903
 30
0.0
 40
0.02
 50
44.9999999638733499
 51
90.0
  0
LINE
  5
E622
  8
0
 10
4719.5532697901271604
 20
229.7308468641111006
 30
0.0
 11
4720.3017012476793752
 21
229.7308468641111006
 31
0.0
  0
ARC
  5
E623
  8
0
 10
4719.5532697901271604
 20
229.7108468641110903
 30
0.0
 40
0.02
 50
90.0
 51
135.0000000361266075
  0
LINE
  5
E624
  8
0
 10
4719.4598433832798037
 20
229.6457047284110899
 30
0.0
 11
4720.3951276545267319
 21
229.6457047284110899
 31
0.0
  0
LINE
  5
E625
  8
0
 10
4719.4539855189032096
 20
227.4418468641111133
 30
0.0
 11
4719.4539855224902567
 21
226.4303508010110875
 31
0.0
  0
LINE
  5
E626
  8
0
 10
4720.400985518903326
 20
227.4418468641111133
 30
0.0
 11
4720.400985518903326
 21
226.4303508010110875
 31
0.0
  0
ARC
  5
E627
  8
0
 10
4719.927485506859739
 20
226.4303507903094896
 30
0.0
 40
0.4734999843687683
 50
179.9999991114769955
 51
236.825799666958801
  0
ARC
  5
E628
  8
0
 10
4719.9274855190278686
 20
226.4303508089230945
 30
0.0
 40
0.4735000066070062
 50
236.825799666958801
 51
269.9999999848881203
  0
ARC
  5
E629
  8
0
 10
4719.927485519642687
 20
226.4303508007106132
 30
0.0
 40
0.473499999259711
 50
303.1742007892027004
 51
0.000000036361526
  0
ARC
  5
E62A
  8
0
 10
4719.927485518778667
 20
226.4303508089230945
 30
0.0
 40
0.4735000066070062
 50
270.0000000151118797
 51
303.1742003330410853
  0
ARC
  5
E62B
  8
0
 10
4719.9274855189032678
 20
226.4303508011111035
 30
0.0
 40
0.6234358344000022
 50
139.4202071476003937
 51
40.5797928523996134
  0
ARC
  5
E62C
  8
0
 10
4719.927485519642687
 20
226.4303508007106132
 30
0.0
 40
0.7137711848597164
 50
131.5579992147727069
 51
48.4420009440267307
  0
ARC
  5
E62D
  8
0
 10
4719.9274855189032678
 20
226.4303508010110875
 30
0.0
 40
0.8252103402999964
 50
125.0151560511435065
 51
54.9848439488564722
  0
ARC
  5
E62E
  8
0
 10
4719.9274855189032678
 20
226.4303508010110875
 30
0.0
 40
0.9055118109999966
 50
121.5275640753328048
 51
58.472435924667181
  0
ARC
  5
E62F
  8
0
 10
4719.9243902545731544
 20
226.0823943314464941
 30
0.0
 40
0.5852924611830642
 50
252.4598540966811981
 51
263.3507776536383176
  0
ARC
  5
E630
  8
0
 10
4719.9273564375744172
 20
226.128704430141795
 30
0.0
 40
0.6316391388493057
 50
263.5699362358307098
 51
270.0117089252362916
  0
ARC
  5
E631
  8
0
 10
4719.7524855189030859
 20
225.5386275606109905
 30
0.0
 40
0.0149999999995529
 50
180.0000007633803136
 51
252.5937246662294058
  0
ARC
  5
E632
  8
0
 10
4719.767913332903845
 20
225.5402332753110954
 30
0.0
 40
0.0304701523558656
 50
171.1369577807951998
 51
183.0207696292233095
  0
ARC
  5
E633
  8
0
 10
4719.9305807832333812
 20
226.0823943314464941
 30
0.0
 40
0.5852924611830642
 50
276.6492223463616824
 51
287.5401459033187734
  0
ARC
  5
E634
  8
0
 10
4719.9276146002330279
 20
226.128704430141795
 30
0.0
 40
0.6316391388493057
 50
269.9882910747635947
 51
276.4300637641692902
  0
ARC
  5
E635
  8
0
 10
4720.1024855189043592
 20
225.5386275606109905
 30
0.0
 40
0.0149999999995529
 50
287.4062753337706226
 51
359.9999992366197148
  0
ARC
  5
E636
  8
0
 10
4720.0870585613211006
 20
225.5402332745665035
 30
0.0
 40
0.0304692970881364
 50
356.9791469018372254
 51
8.8632910556117626
  0
LINE
  5
E638
  8
0
 10
4719.1400839441030257
 20
235.4348524386419115
 30
0.0
 11
4711.4931837721469492
 21
235.4348524386419115
 31
0.0
  0
ENDSEC
  0
EOF
