  0
SECTION
  2
HEADER
  9
$ACADVER
  1
AC1009
  9
$INSBASE
 10
598.4459336116831309
 20
34.9675765284498823
 30
0.0
  9
$EXTMIN
 10
597.2728103467037499
 20
32.5943962741627189
 30
-0.0000000349181948
  9
$EXTMAX
 10
599.6057993440557539
 20
34.9750294163318074
 30
0.0000000814935746
  9
$LIMMIN
 10
0.0
 20
0.0
  9
$LIMMAX
 10
11.6929133858000007
 20
8.2677165353999982
  9
$ORTHOMODE
 70
     1
  9
$REGENMODE
 70
     1
  9
$FILLMODE
 70
     1
  9
$QTEXTMODE
 70
     0
  9
$MIRRTEXT
 70
     0
  9
$DRAGMODE
 70
     2
  9
$LTSCALE
 40
0.6431102362
  9
$OSMODE
 70
    23
  9
$ATTMODE
 70
     1
  9
$TEXTSIZE
 40
0.2
  9
$TRACEWID
 40
0.05
  9
$TEXTSTYLE
  7
STANDARD
  9
$CLAYER
  8
0
  9
$CELTYPE
  6
BYLAYER
  9
$CECOLOR
 62
   256
  9
$DIMSCALE
 40
1.0
  9
$DIMASZ
 40
0.1875
  9
$DIMEXO
 40
0.0625
  9
$DIMDLI
 40
0.4443307087
  9
$DIMRND
 40
0.0
  9
$DIMDLE
 40
0.0
  9
$DIMEXE
 40
0.125
  9
$DIMTP
 40
0.01
  9
$DIMTM
 40
0.01
  9
$DIMTXT
 40
2.0
  9
$DIMCEN
 40
0.1052362205
  9
$DIMTSZ
 40
0.0
  9
$DIMTOL
 70
     1
  9
$DIMLIM
 70
     0
  9
$DIMTIH
 70
     1
  9
$DIMTOH
 70
     1
  9
$DIMSE1
 70
     0
  9
$DIMSE2
 70
     0
  9
$DIMTAD
 70
     0
  9
$DIMZIN
 70
     0
  9
$DIMBLK
  1

  9
$DIMASO
 70
     1
  9
$DIMSHO
 70
     1
  9
$DIMPOST
  1
\X
  9
$DIMAPOST
  1

  9
$DIMALT
 70
     1
  9
$DIMALTD
 70
     2
  9
$DIMALTF
 40
25.3999999999999986
  9
$DIMLFAC
 40
1.0
  9
$DIMTOFL
 70
     0
  9
$DIMTVP
 40
0.0
  9
$DIMTIX
 70
     0
  9
$DIMSOXD
 70
     0
  9
$DIMSAH
 70
     0
  9
$DIMBLK1
  1

  9
$DIMBLK2
  1

  9
$DIMSTYLE
  2
STANDARD
  9
$DIMCLRD
 70
     0
  9
$DIMCLRE
 70
     0
  9
$DIMCLRT
 70
     0
  9
$DIMTFAC
 40
1.0
  9
$DIMGAP
 40
0.09
  9
$LUNITS
 70
     2
  9
$LUPREC
 70
     4
  9
$SKETCHINC
 40
0.1
  9
$FILLETRAD
 40
0.0
  9
$AUNITS
 70
     0
  9
$AUPREC
 70
     0
  9
$MENU
  1
.
  9
$ELEVATION
 40
0.0
  9
$PELEVATION
 40
0.0
  9
$THICKNESS
 40
0.0
  9
$LIMCHECK
 70
     0
  9
$BLIPMODE
 70
     0
  9
$CHAMFERA
 40
0.0
  9
$CHAMFERB
 40
0.0
  9
$SKPOLY
 70
     0
  9
$TDCREATE
 40
2458106.4931018520146608
  9
$TDUPDATE
 40
2459723.6979745370335877
  9
$TDINDWG
 40
0.2798018056
  9
$TDUSRTIMER
 40
0.2798018056
  9
$USRTIMER
 70
     1
  9
$ANGBASE
 50
0.0
  9
$ANGDIR
 70
     0
  9
$PDMODE
 70
     0
  9
$PDSIZE
 40
0.3125
  9
$PLINEWID
 40
0.0
  9
$COORDS
 70
     1
  9
$SPLFRAME
 70
     0
  9
$SPLINETYPE
 70
     6
  9
$SPLINESEGS
 70
     8
  9
$ATTDIA
 70
     1
  9
$ATTREQ
 70
     1
  9
$HANDLING
 70
     1
  9
$HANDSEED
  5
59A4
  9
$SURFTAB1
 70
     6
  9
$SURFTAB2
 70
     6
  9
$SURFTYPE
 70
     6
  9
$SURFU
 70
     6
  9
$SURFV
 70
     6
  9
$UCSNAME
  2

  9
$UCSORG
 10
0.0
 20
0.0
 30
0.0
  9
$UCSXDIR
 10
1.0
 20
0.0
 30
0.0
  9
$UCSYDIR
 10
0.0
 20
1.0
 30
0.0
  9
$PUCSNAME
  2

  9
$PUCSORG
 10
0.0
 20
0.0
 30
0.0
  9
$PUCSXDIR
 10
1.0
 20
0.0
 30
0.0
  9
$PUCSYDIR
 10
0.0
 20
1.0
 30
0.0
  9
$USERI1
 70
     0
  9
$USERI2
 70
     0
  9
$USERI3
 70
     0
  9
$USERI4
 70
     0
  9
$USERI5
 70
     0
  9
$USERR1
 40
0.0
  9
$USERR2
 40
0.0
  9
$USERR3
 40
0.0
  9
$USERR4
 40
0.0
  9
$USERR5
 40
0.0
  9
$WORLDVIEW
 70
     1
  9
$SHADEDGE
 70
     3
  9
$SHADEDIF
 70
    70
  9
$TILEMODE
 70
     1
  9
$MAXACTVP
 70
    64
  9
$PLIMCHECK
 70
     0
  9
$PEXTMIN
 10
1.0000000000000000E+20
 20
1.0000000000000000E+20
 30
1.0000000000000000E+20
  9
$PEXTMAX
 10
-1.0000000000000000E+20
 20
-1.0000000000000000E+20
 30
-1.0000000000000000E+20
  9
$PLIMMIN
 10
0.0
 20
0.0
  9
$PLIMMAX
 10
12.0
 20
9.0
  9
$UNITMODE
 70
     0
  9
$VISRETAIN
 70
     1
  9
$PLINEGEN
 70
     0
  9
$PSLTSCALE
 70
     1
  0
ENDSEC
  0
SECTION
  2
TABLES
  0
TABLE
  2
VPORT
 70
     1
  0
VPORT
  2
*ACTIVE
 70
     0
 10
0.0
 20
0.0
 11
1.0
 21
1.0
 12
324.8651032888666919
 22
51.3906735792687428
 13
0.0
 23
0.0
 14
1.0
 24
1.0
 15
0.0
 25
0.0
 16
-0.0000000000000568
 26
0.0
 36
193.9250709296327955
 17
273.5742015565131169
 27
-17.6059607340214797
 37
0.0
 40
2.3976782481989432
 41
2.2831541218637992
 42
50.0
 43
0.0
 44
0.0
 50
0.0
 51
0.0
 71
     0
 72
   100
 73
     1
 74
     1
 75
     0
 76
     0
 77
     0
 78
     0
  0
ENDTAB
  0
TABLE
  2
LTYPE
 70
     2
  0
LTYPE
  2
CONTINUOUS
 70
     0
  3
Solid line
 72
    65
 73
     0
 40
0.0
  0
LTYPE
  2
PHANTOM2
 70
     0
  3
___ _ _ ___ _ _ ___ _ _ ___ _ _
 72
    65
 73
     6
 40
1.25
 49
0.625
 49
-0.125
 49
0.125
 49
-0.125
 49
0.125
 49
-0.125
  0
ENDTAB
  0
TABLE
  2
LAYER
 70
     2
  0
LAYER
  2
0
 70
     0
 62
   255
  6
CONTINUOUS
  0
LAYER
  2
DEFPOINTS
 70
     0
 62
     7
  6
CONTINUOUS
  0
ENDTAB
  0
TABLE
  2
STYLE
 70
     1
  0
STYLE
  2
STANDARD
 70
     0
 40
0.0
 41
0.8
 50
0.0
 71
     0
 42
0.2
  3
txt
  4

  0
ENDTAB
  0
TABLE
  2
VIEW
 70
     0
  0
ENDTAB
  0
TABLE
  2
UCS
 70
     0
  0
ENDTAB
  0
TABLE
  2
APPID
 70
    10
  0
APPID
  2
ACAD
 70
     0
  0
APPID
  2
ACAD_MLEADERVER
 70
     0
  0
APPID
  2
ACAD_EXEMPT_FROM_CAD_STANDARDS
 70
     0
  0
APPID
  2
ACAD_NAV_VCDISPLAY
 70
     0
  0
APPID
  2
ACAD_DSTYLE_DIMJAG
 70
     0
  0
APPID
  2
ACAD_DSTYLE_DIMTALN
 70
     0
  0
APPID
  2
ACAECLAYERSTANDARD
 70
     0
  0
APPID
  2
ACCMTRANSPARENCY
 70
     0
  0
APPID
  2
ACDBATTR
 70
     0
  0
APPID
  2
DCO15
 70
     0
  0
ENDTAB
  0
TABLE
  2
DIMSTYLE
 70
     1
  0
DIMSTYLE
  2
STANDARD
 70
     0
  3

  4

  5

  6

  7

 40
1.0
 41
0.1875
 42
0.0625
 43
0.38
 44
0.125
 45
0.0
 46
0.0
 47
0.01
 48
0.01
140
0.15625
141
0.09
142
0.0
143
25.3999999999999986
144
1.0
145
0.0
146
1.0
147
0.09
 71
     1
 72
     0
 73
     1
 74
     1
 75
     0
 76
     0
 77
     0
 78
     4
170
     0
171
     2
172
     0
173
     0
174
     0
175
     0
176
     0
177
     0
178
     0
  0
ENDTAB
  0
ENDSEC
  0
SECTION
  2
BLOCKS
  0
BLOCK
  8
0
  2
$MODEL_SPACE
 70
     0
 10
0.0
 20
0.0
 30
0.0
  3
$MODEL_SPACE
  1

  0
ENDBLK
  5
21
  8
0
  0
BLOCK
 67
     1
  8
0
  2
$PAPER_SPACE
 70
     0
 10
0.0
 20
0.0
 30
0.0
  3
$PAPER_SPACE
  1

  0
ENDBLK
  5
1D
 67
     1
  8
0
  0
BLOCK
  8
0
  2
_FILLED
 70
     0
 10
0.0
 20
0.0
 30
0.0
  3
_FILLED
  1

  0
SOLID
  5
57D4
  8
0
  6
BYBLOCK
 62
     0
 10
0.0
 20
0.0
 30
0.0
 11
-1.0
 21
0.1666666667
 31
0.0
 12
-1.0
 22
-0.1666666667
 32
0.0
 13
-1.0
 23
-0.1666666667
 33
0.0
  0
ENDBLK
  5
57D5
  8
0
  6
BYBLOCK
 62
     0
  0
ENDSEC
  0
SECTION
  2
ENTITIES
  0
ATTDEF
  5
FAA
  8
DEFPOINTS
 10
598.4464178208467047
 20
34.9714022221967866
 30
0.0
 40
0.001
  1
P24946-00
  3

  2
MODELNUMBER
 70
     0
1001
ACDBATTR
1070
     0
1070
     1
  0
ATTDEF
  5
FAB
  8
DEFPOINTS
 10
598.4464178208467047
 20
34.9697355555301286
 30
0.0
 40
0.001
  1
PURE PALETTA
  3

  2
TRADENAME
 70
     0
1001
ACDBATTR
1070
     0
1070
     1
  0
ATTDEF
  5
FAC
  8
DEFPOINTS
 10
598.4464178208467047
 20
34.9680688888634705
 30
0.0
 40
0.001
  1
ROBE HOOK
  3

  2
PRODUCT
 70
     0
1001
ACDBATTR
1070
     0
1070
     1
  0
LINE
  5
58B0
  8
0
 10
597.4080989660831165
 20
34.9675765284498823
 30
0.0
 11
599.4837682572831454
 21
34.9675765284498823
 31
0.0
  0
LINE
  5
58B1
  8
0
 10
597.3050674699829869
 20
34.9215765284498829
 30
0.0
 11
597.3050674699829869
 21
34.6618491230498904
 31
0.0
  0
LINE
  5
58B2
  8
0
 10
597.3250674699831961
 20
34.9415765284498789
 30
0.0
 11
599.5667997533830658
 21
34.9415765284498789
 31
0.0
  0
LINE
  5
58B3
  8
0
 10
597.4210673239831522
 20
34.5545765284498785
 30
0.0
 11
599.4707998993831097
 21
34.5545765284498785
 31
0.0
  0
LINE
  5
58B4
  8
0
 10
597.3116140141383994
 20
34.6470503215498766
 30
0.0
 11
599.5802532092277488
 21
34.6470503215498766
 31
0.0
  0
LINE
  5
58B5
  8
0
 10
597.5714336116831191
 20
34.5345765284498825
 30
0.0
 11
597.5714336116831191
 21
34.4443647367498826
 31
0.0
  0
LINE
  5
58B6
  8
0
 10
597.5772914760357253
 20
34.4302226011498789
 30
0.0
 11
599.3145757472831292
 21
34.4302226011498789
 31
0.0
  0
LINE
  5
58B7
  8
0
 10
597.6584580403831524
 20
34.3573403079498831
 30
0.0
 11
599.2334091829831095
 21
34.3573403079498831
 31
0.0
  0
LINE
  5
58B8
  8
0
 10
597.5772914760724461
 20
34.4302226011604375
 30
0.0
 11
597.6443159047724976
 21
34.363198172360427
 31
0.0
  0
LINE
  5
58B9
  8
0
 10
597.311614014081897
 20
34.6470503215509069
 30
0.0
 11
597.4076138681317616
 21
34.5597777270056667
 31
0.0
  0
LINE
  5
58BA
  8
0
 10
597.3880989660831347
 20
34.9415765284498789
 30
0.0
 11
597.3880989660831347
 21
34.9475765284498792
 31
0.0
  0
ARC
  5
58BB
  8
0
 10
597.4080989660831165
 20
34.9475765284498792
 30
0.0
 40
0.0200000000000025
 50
90.0
 51
180.0
  0
ARC
  5
58BC
  8
0
 10
597.3250674699831961
 20
34.9215765284498829
 30
0.0
 40
0.0200000000000075
 50
90.0
 51
180.0
  0
ARC
  5
58BD
  8
0
 10
597.3250674699831961
 20
34.6618491230498904
 30
0.0
 40
0.0200000000000155
 50
180.0
 51
227.7263110087581879
  0
ARC
  5
58BE
  8
0
 10
597.4210673239831522
 20
34.5745765284498816
 30
0.0
 40
0.0200000000000048
 50
227.726311008765208
 51
270.0
  0
ARC
  5
58BF
  8
0
 10
597.5514336116831373
 20
34.5345765284498825
 30
0.0
 40
0.0200000000000045
 50
0.0
 51
90.0
  0
ARC
  5
58C0
  8
0
 10
597.5914336116829872
 20
34.4443647367498826
 30
0.0
 40
0.019999999999991
 50
180.0
 51
224.9999999572555112
  0
ARC
  5
58C1
  8
0
 10
597.6584580403831524
 20
34.3773403079498792
 30
0.0
 40
0.0199999999999966
 50
224.9999999572573017
 51
270.0
  0
ARC
  5
58C2
  8
0
 10
598.0523903045831275
 20
34.347340307949878
 30
0.0
 40
0.009999999999995
 50
90.0
 51
180.0
  0
ARC
  5
58C3
  8
0
 10
598.8394769187831344
 20
34.347340307949878
 30
0.0
 40
0.009999999999995
 50
0.0
 51
90.0
  0
LINE
  5
58C4
  8
0
 10
599.5867997533831613
 20
34.9215765284498829
 30
0.0
 11
599.5867997533831613
 21
34.6618491230498904
 31
0.0
  0
LINE
  5
58C5
  8
0
 10
599.3204336116831428
 20
34.5345765284498825
 30
0.0
 11
599.3204336116831428
 21
34.4443647367498826
 31
0.0
  0
LINE
  5
58C6
  8
0
 10
599.3145757472935884
 20
34.4302226011604375
 30
0.0
 11
599.2475513185936506
 21
34.363198172360427
 31
0.0
  0
LINE
  5
58C7
  8
0
 10
599.5802532092842512
 20
34.6470503215509069
 30
0.0
 11
599.4842533552343866
 21
34.5597777270056667
 31
0.0
  0
LINE
  5
58C8
  8
0
 10
599.5037682572831272
 20
34.9415765284498789
 30
0.0
 11
599.5037682572831272
 21
34.9475765284498792
 31
0.0
  0
ARC
  5
58C9
  8
0
 10
599.4837682572831454
 20
34.9475765284498792
 30
0.0
 40
0.0200000000000025
 50
0.0
 51
90.0
  0
ARC
  5
58CA
  8
0
 10
599.5667997533830658
 20
34.9215765284498829
 30
0.0
 40
0.0200000000000075
 50
0.0
 51
90.0
  0
ARC
  5
58CB
  8
0
 10
599.5667997533830658
 20
34.6618491230498904
 30
0.0
 40
0.0200000000000155
 50
312.2736889912418974
 51
0.0
  0
ARC
  5
58CC
  8
0
 10
599.4707998993831097
 20
34.5745765284498816
 30
0.0
 40
0.0200000000000048
 50
270.0
 51
312.2736889912346783
  0
ARC
  5
58CD
  8
0
 10
599.3404336116831246
 20
34.5345765284498825
 30
0.0
 40
0.0200000000000045
 50
90.0
 51
180.0
  0
ARC
  5
58CE
  8
0
 10
599.300433611683161
 20
34.4443647367498826
 30
0.0
 40
0.019999999999991
 50
315.0000000427443752
 51
0.0
  0
ARC
  5
58CF
  8
0
 10
599.2334091829831095
 20
34.3773403079498792
 30
0.0
 40
0.0199999999999966
 50
270.0
 51
315.0000000427424993
  0
LINE
  5
58D0
  8
0
 10
598.0423903045831366
 20
32.9987812528498878
 30
0.0
 11
598.0423903045831366
 21
33.5597812528498807
 31
0.0
  0
LINE
  5
58D1
  8
0
 10
598.0423903045831366
 20
33.5897812528498818
 30
0.0
 11
598.0423903045831366
 21
34.347340307949878
 31
0.0
  0
LINE
  5
58D2
  8
0
 10
598.8494769187830116
 20
32.9987812528498878
 30
0.0
 11
598.8494769187830116
 21
33.5597812528498807
 31
0.0
  0
LINE
  5
58D3
  8
0
 10
598.8494769187830116
 20
33.5897812528498818
 30
0.0
 11
598.8494769187830116
 21
34.347340307949878
 31
0.0
  0
LINE
  5
58D4
  8
0
 10
598.0523903045831275
 20
33.5797812528498909
 30
0.0
 11
598.8394769187831344
 21
33.5797812528498909
 31
0.0
  0
ARC
  5
58D5
  8
0
 10
598.0523903045831275
 20
33.5897812528498818
 30
0.0
 40
0.0100000000000029
 50
180.0
 51
270.0
  0
ARC
  5
58D6
  8
0
 10
598.0623903045831184
 20
33.5597812528498807
 30
0.0
 40
0.0200000000000067
 50
90.0
 51
180.0
  0
ARC
  5
58D7
  8
0
 10
598.8394769187831344
 20
33.5897812528498818
 30
0.0
 40
0.0100000000000029
 50
270.0
 51
0.0
  0
ARC
  5
58D8
  8
0
 10
598.8294769187831434
 20
33.5597812528498807
 30
0.0
 40
0.0200000000000067
 50
0.0
 51
90.0
  0
CIRCLE
  5
58DA
  8
0
 10
598.4459336116831309
 20
32.9987812528498878
 30
0.0
 40
0.4035433070999999
  0
CIRCLE
  5
58DB
  8
0
 10
598.4459336116831309
 20
32.9987812528498878
 30
0.0
 40
0.3304011714117028
  0
ENDSEC
  0
EOF
