  0
SECTION
  2
HEADER
  9
$ACADVER
  1
AC1009
  9
$INSBASE
 10
4518.5509749519151
 20
462.12548203748128
 30
0.0
  9
$EXTMIN
 10
4515.1190064855136
 20
460.98461589568132
 30
0.0
  9
$EXTMAX
 10
4518.5616494960504
 20
463.26634817928129
 30
0.0
  9
$LIMMIN
 10
0.0
 20
0.0
  9
$LIMMAX
 10
11.692913385800001
 20
8.2677165353999982
  9
$ORTHOMODE
 70
     0
  9
$REGENMODE
 70
     1
  9
$FILLMODE
 70
     1
  9
$QTEXTMODE
 70
     0
  9
$MIRRTEXT
 70
     0
  9
$DRAGMODE
 70
     2
  9
$LTSCALE
 40
0.6431102362
  9
$OSMODE
 70
    19
  9
$ATTMODE
 70
     1
  9
$TEXTSIZE
 40
0.2
  9
$TRACEWID
 40
0.05
  9
$TEXTSTYLE
  7
STANDARD
  9
$CLAYER
  8
0
  9
$CELTYPE
  6
BYLAYER
  9
$CECOLOR
 62
   256
  9
$DIMSCALE
 40
1.0
  9
$DIMASZ
 40
0.1875
  9
$DIMEXO
 40
0.0625
  9
$DIMDLI
 40
0.4443307087
  9
$DIMRND
 40
0.0
  9
$DIMDLE
 40
0.0
  9
$DIMEXE
 40
0.125
  9
$DIMTP
 40
0.01
  9
$DIMTM
 40
0.01
  9
$DIMTXT
 40
2.0
  9
$DIMCEN
 40
0.1052362205
  9
$DIMTSZ
 40
0.0
  9
$DIMTOL
 70
     1
  9
$DIMLIM
 70
     0
  9
$DIMTIH
 70
     1
  9
$DIMTOH
 70
     1
  9
$DIMSE1
 70
     0
  9
$DIMSE2
 70
     0
  9
$DIMTAD
 70
     0
  9
$DIMZIN
 70
     0
  9
$DIMBLK
  1

  9
$DIMASO
 70
     1
  9
$DIMSHO
 70
     1
  9
$DIMPOST
  1
\X
  9
$DIMAPOST
  1

  9
$DIMALT
 70
     1
  9
$DIMALTD
 70
     2
  9
$DIMALTF
 40
25.399999999999999
  9
$DIMLFAC
 40
1.0
  9
$DIMTOFL
 70
     0
  9
$DIMTVP
 40
0.0
  9
$DIMTIX
 70
     0
  9
$DIMSOXD
 70
     0
  9
$DIMSAH
 70
     0
  9
$DIMBLK1
  1

  9
$DIMBLK2
  1

  9
$DIMSTYLE
  2
STANDARD
  9
$DIMCLRD
 70
     0
  9
$DIMCLRE
 70
     0
  9
$DIMCLRT
 70
     0
  9
$DIMTFAC
 40
1.0
  9
$DIMGAP
 40
0.09
  9
$LUNITS
 70
     2
  9
$LUPREC
 70
     4
  9
$SKETCHINC
 40
0.1
  9
$FILLETRAD
 40
0.0
  9
$AUNITS
 70
     0
  9
$AUPREC
 70
     0
  9
$MENU
  1
.
  9
$ELEVATION
 40
0.0
  9
$PELEVATION
 40
0.0
  9
$THICKNESS
 40
0.0
  9
$LIMCHECK
 70
     0
  9
$BLIPMODE
 70
     0
  9
$CHAMFERA
 40
0.0
  9
$CHAMFERB
 40
0.0
  9
$SKPOLY
 70
     0
  9
$TDCREATE
 40
2458060.4683680669
  9
$TDUPDATE
 40
2459298.9540137849
  9
$TDINDWG
 40
1.5226480324
  9
$TDUSRTIMER
 40
1.5226480324
  9
$USRTIMER
 70
     1
  9
$ANGBASE
 50
0.0
  9
$ANGDIR
 70
     0
  9
$PDMODE
 70
     0
  9
$PDSIZE
 40
0.3125
  9
$PLINEWID
 40
0.0
  9
$COORDS
 70
     1
  9
$SPLFRAME
 70
     0
  9
$SPLINETYPE
 70
     6
  9
$SPLINESEGS
 70
     8
  9
$ATTDIA
 70
     1
  9
$ATTREQ
 70
     1
  9
$HANDLING
 70
     1
  9
$HANDSEED
  5
19CD5
  9
$SURFTAB1
 70
     6
  9
$SURFTAB2
 70
     6
  9
$SURFTYPE
 70
     6
  9
$SURFU
 70
     6
  9
$SURFV
 70
     6
  9
$UCSNAME
  2

  9
$UCSORG
 10
0.0
 20
0.0
 30
0.0
  9
$UCSXDIR
 10
1.0
 20
0.0
 30
0.0
  9
$UCSYDIR
 10
0.0
 20
1.0
 30
0.0
  9
$PUCSNAME
  2

  9
$PUCSORG
 10
0.0
 20
0.0
 30
0.0
  9
$PUCSXDIR
 10
1.0
 20
0.0
 30
0.0
  9
$PUCSYDIR
 10
0.0
 20
1.0
 30
0.0
  9
$USERI1
 70
     0
  9
$USERI2
 70
     0
  9
$USERI3
 70
     0
  9
$USERI4
 70
     0
  9
$USERI5
 70
     0
  9
$USERR1
 40
0.0
  9
$USERR2
 40
0.0
  9
$USERR3
 40
0.0
  9
$USERR4
 40
0.0
  9
$USERR5
 40
0.0
  9
$WORLDVIEW
 70
     1
  9
$SHADEDGE
 70
     3
  9
$SHADEDIF
 70
    70
  9
$TILEMODE
 70
     1
  9
$MAXACTVP
 70
    64
  9
$PLIMCHECK
 70
     0
  9
$PEXTMIN
 10
1.0000000000000000E+020
 20
1.0000000000000000E+020
 30
1.0000000000000000E+020
  9
$PEXTMAX
 10
-1.0000000000000000E+020
 20
-1.0000000000000000E+020
 30
-1.0000000000000000E+020
  9
$PLIMMIN
 10
0.0
 20
0.0
  9
$PLIMMAX
 10
12.0
 20
9.0
  9
$UNITMODE
 70
     0
  9
$VISRETAIN
 70
     1
  9
$PLINEGEN
 70
     0
  9
$PSLTSCALE
 70
     1
  0
ENDSEC
  0
SECTION
  2
TABLES
  0
TABLE
  2
VPORT
 70
     1
  0
VPORT
  2
*ACTIVE
 70
     0
 10
0.0
 20
0.0
 11
1.0
 21
1.0
 12
605.47497154547
 22
329.54587693494233
 13
0.0
 23
0.0
 14
1.0
 24
1.0
 15
0.0
 25
0.0
 16
0.0
 26
0.0
 36
60.496018696580158
 17
3911.365356445312
 27
132.57960510253901
 37
0.0
 40
2.306616610491814
 41
2.4075403949730689
 42
50.0
 43
0.0
 44
0.0
 50
0.0
 51
0.0
 71
     0
 72
   100
 73
     1
 74
     1
 75
     0
 76
     0
 77
     0
 78
     0
  0
ENDTAB
  0
TABLE
  2
LTYPE
 70
     3
  0
LTYPE
  2
CONTINUOUS
 70
     0
  3
Solid line
 72
    65
 73
     0
 40
0.0
  0
LTYPE
  2
PHANTOM2
 70
     0
  3
___ _ _ ___ _ _ ___ _ _ ___ _ _
 72
    65
 73
     6
 40
1.25
 49
0.625
 49
-0.125
 49
0.125
 49
-0.125
 49
0.125
 49
-0.125
  0
ENDTAB
  0
TABLE
  2
LAYER
 70
     2
  0
LAYER
  2
0
 70
     0
 62
   255
  6
CONTINUOUS
  0
LAYER
  2
DEFPOINTS
 70
     0
 62
     7
  6
CONTINUOUS
  0
ENDTAB
  0
TABLE
  2
STYLE
 70
     1
  0
STYLE
  2
STANDARD
 70
     0
 40
0.0
 41
0.8
 50
0.0
 71
     0
 42
0.2
  3
txt
  4

  0
ENDTAB
  0
TABLE
  2
VIEW
 70
     0
  0
ENDTAB
  0
TABLE
  2
UCS
 70
     0
  0
ENDTAB
  0
TABLE
  2
APPID
 70
    11
  0
APPID
  2
ACAD
 70
     0
  0
APPID
  2
ACAD_MLEADERVER
 70
     0
  0
APPID
  2
ACAD_EXEMPT_FROM_CAD_STANDARDS
 70
     0
  0
APPID
  2
ACAD_NAV_VCDISPLAY
 70
     0
  0
APPID
  2
ACAECLAYERSTANDARD
 70
     0
  0
APPID
  2
ACCMTRANSPARENCY
 70
     0
  0
APPID
  2
ACAD_DSTYLE_DIMJAG
 70
     0
  0
APPID
  2
ACAD_DSTYLE_DIMTALN
 70
     0
  0
APPID
  2
ACDBATTR
 70
     0
  0
APPID
  2
ACADANNOTATIVE
 70
     0
  0
APPID
  2
DCO15
 70
     0
  0
ENDTAB
  0
TABLE
  2
DIMSTYLE
 70
     2
  0
DIMSTYLE
  2
STANDARD
 70
     0
  3

  4

  5

  6

  7

 40
1.0
 41
0.1875
 42
0.0625
 43
0.38
 44
0.125
 45
0.0
 46
0.0
 47
0.01
 48
0.01
140
0.15625
141
0.09
142
0.0
143
25.399999999999999
144
1.0
145
0.0
146
1.0
147
0.09
 71
     1
 72
     0
 73
     1
 74
     1
 75
     0
 76
     0
 77
     0
 78
     4
170
     0
171
     2
172
     0
173
     0
174
     0
175
     0
176
     0
177
     0
178
     0
  0
ENDTAB
  0
ENDSEC
  0
SECTION
  2
BLOCKS
  0
BLOCK
  8
0
  2
$MODEL_SPACE
 70
     0
 10
0.0
 20
0.0
 30
0.0
  3
$MODEL_SPACE
  1

  0
ENDBLK
  5
21
  8
0
  0
BLOCK
 67
     1
  8
0
  2
$PAPER_SPACE
 70
     0
 10
0.0
 20
0.0
 30
0.0
  3
$PAPER_SPACE
  1

  0
ENDBLK
  5
1D
 67
     1
  8
0
  0
ENDSEC
  0
SECTION
  2
ENTITIES
  0
ATTDEF
  5
194DB
  8
DEFPOINTS
 10
4518.5509828293807
 20
462.1288147769697
 30
0.0
 40
0.001
  1
P24939-SNW
  3

  2
MODELNUMBER
 70
     0
1001
ACDBATTR
1070
     0
1070
     1
  0
ATTDEF
  5
194DC
  8
DEFPOINTS
 10
4518.5509828293807
 20
462.12714793659057
 30
0.0
 40
0.001
  1
PINNA PALETTA
  3

  2
TRADENAME
 70
     0
1001
ACDBATTR
1070
     0
1070
     1
  0
ATTDEF
  5
194DD
  8
DEFPOINTS
 10
4518.5509828293807
 20
462.12548144363637
 30
0.0
 40
0.001
  1
TOILET TISSUE HOLDER
  3

  2
PRODUCT
 70
     0
1001
ACDBATTR
1070
     0
1070
     1
  0
LINE
  5
19BA0
  8
0
 10
4518.5509749519151
 20
461.08764739178901
 30
0.0
 11
4518.5509749519151
 21
463.16331668317349
 31
0.0
  0
LINE
  5
19BA1
  8
0
 10
4518.5249749519144
 20
461.00461589569107
 30
0.0
 11
4518.5249749519144
 21
463.24634817927142
 31
0.0
  0
LINE
  5
19BA2
  8
0
 10
4518.1379749519147
 20
461.10061574985451
 30
0.0
 11
4518.1379749519147
 21
463.1503483251081
 31
0.0
  0
LINE
  5
19BA3
  8
0
 10
4517.9407387314141
 20
461.338006466156
 30
0.0
 11
4517.9407387314141
 21
462.91295760880649
 31
0.0
  0
LINE
  5
19BA4
  8
0
 10
4516.1297151469162
 20
461.72193873038128
 30
0.0
 11
4517.9407387314141
 21
461.72193873038128
 31
0.0
  0
LINE
  5
19BA5
  8
0
 10
4516.1297151469162
 20
461.72193873038128
 30
0.0
 11
4516.1297151469162
 21
462.52902534448128
 31
0.0
  0
LINE
  5
19BA6
  8
0
 10
4518.5049749519121
 20
460.9846158957813
 30
0.0
 11
4518.4860864774137
 21
460.9846158957813
 31
0.0
  0
LINE
  5
19BA7
  8
0
 10
4518.2795469632138
 20
460.9846158957813
 30
0.0
 11
4518.2452475463697
 21
460.9846158957813
 31
0.0
  0
LINE
  5
19BA8
  8
0
 10
4518.2452475463697
 20
463.26634817918131
 30
0.0
 11
4518.5049749519121
 21
463.26634817918131
 31
0.0
  0
LINE
  5
19BA9
  8
0
 10
4517.9407387314141
 20
462.52902534448128
 30
0.0
 11
4516.1297151469162
 21
462.52902534448128
 31
0.0
  0
LINE
  5
19BAA
  8
0
 10
4518.2304487450137
 20
460.99116243978119
 30
0.0
 11
4518.1431761504136
 21
461.08716229388119
 31
0.0
  0
ARC
  5
19BAB
  8
0
 10
4518.5309749519138
 20
461.08764739178127
 30
0.0
 40
0.019999999999996
 50
269.99999999994787
 51
0.0000000221142695
  0
LINE
  5
19BAC
  8
0
 10
4518.5309749519138
 20
461.06764739178129
 30
0.0
 11
4518.5249749519144
 21
461.06764739178129
 31
0.0
  0
ARC
  5
19BAD
  8
0
 10
4518.5049749519148
 20
461.00461589568118
 30
0.0
 40
0.019999999999996
 50
270.0
 51
0.000000028146026
  0
ARC
  5
19BAE
  8
0
 10
4518.2452475463697
 20
461.00461589546637
 30
0.0
 40
0.0199999997850446
 50
222.2736888114168
 51
270.00000013011919
  0
ARC
  5
19BAF
  8
0
 10
4518.1579749521907
 20
461.10061574983291
 30
0.0
 40
0.0200000002767826
 50
179.999999938321
 51
222.2736885629154
  0
ARC
  5
19BB0
  8
0
 10
4518.1179749519151
 20
461.23098203748128
 30
0.0
 40
0.0199999999999978
 50
359.99999999999682
 51
90.0
  0
LINE
  5
19BB1
  8
0
 10
4518.1179749519151
 20
461.25098203748132
 30
0.0
 11
4518.027763160163
 21
461.25098203748132
 31
0.0
  0
ARC
  5
19BB2
  8
0
 10
4518.027763160163
 20
461.27098203772528
 30
0.0
 40
0.0200000002440268
 50
225.00000059855739
 51
269.99999986096998
  0
LINE
  5
19BB3
  8
0
 10
4518.0136210245137
 20
461.25683990178129
 30
0.0
 11
4517.9465965958152
 21
461.32386433058127
 31
0.0
  0
ARC
  5
19BB4
  8
0
 10
4517.9607387311944
 20
461.33800646613747
 30
0.0
 40
0.0199999997795537
 50
179.9999999467629
 51
225.0000003577222
  0
LINE
  5
19BB5
  8
0
 10
4518.5049749519121
 20
463.26634817918131
 30
0.0
 11
4518.2452475463697
 21
463.26634817918131
 31
0.0
  0
LINE
  5
19BB6
  8
0
 10
4518.2304487450137
 20
463.2598016351813
 30
0.0
 11
4518.1431761504136
 21
463.16380178108119
 31
0.0
  0
ARC
  5
19BB7
  8
0
 10
4518.5309749519138
 20
463.16331668318128
 30
0.0
 40
0.0199999999999925
 50
359.99999997788251
 51
90.0
  0
LINE
  5
19BB8
  8
0
 10
4518.5309749519138
 20
463.18331668318132
 30
0.0
 11
4518.5249749519144
 21
463.18331668318132
 31
0.0
  0
ARC
  5
19BB9
  8
0
 10
4518.5049749519148
 20
463.24634817928131
 30
0.0
 40
0.019999999999996
 50
359.9999999718475
 51
90.0
  0
ARC
  5
19BBA
  8
0
 10
4518.2452475463697
 20
463.24634817949629
 30
0.0
 40
0.0199999997850446
 50
89.99999986988081
 51
137.72631118858311
  0
ARC
  5
19BBB
  8
0
 10
4518.1579749521907
 20
463.1503483251297
 30
0.0
 40
0.0200000002767774
 50
137.72631143708219
 51
180.0000000616854
  0
ARC
  5
19BBC
  8
0
 10
4518.1179749519151
 20
463.01998203748133
 30
0.0
 40
0.0199999999999978
 50
270.0
 51
0.0000000000032569
  0
LINE
  5
19BBD
  8
0
 10
4518.1179749519151
 20
462.99998203748129
 30
0.0
 11
4518.027763160163
 21
462.99998203748129
 31
0.0
  0
ARC
  5
19BBE
  8
0
 10
4518.027763160163
 20
462.97998203723722
 30
0.0
 40
0.0200000002440268
 50
90.000000139030035
 51
134.99999940144261
  0
LINE
  5
19BBF
  8
0
 10
4518.0136210245137
 20
462.99412417318121
 30
0.0
 11
4517.9465965958152
 21
462.92709974438128
 31
0.0
  0
ARC
  5
19BC0
  8
0
 10
4517.9607387311944
 20
462.9129576088252
 30
0.0
 40
0.0199999997795327
 50
134.99999964222471
 51
180.00000005325339
  0
ARC
  5
19BC1
  8
0
 10
4516.1100301077049
 20
461.7416237695798
 30
0.0
 40
0.0196850391985143
 50
269.99999944737118
 51
0.0
  0
ARC
  5
19BC2
  8
0
 10
4516.1100301077049
 20
462.50934030528282
 30
0.0
 40
0.0196850391985158
 50
0.0
 51
90.000000552628762
  0
LINE
  5
19BC3
  8
0
 10
4515.5490064855148
 20
462.52902534458133
 30
0.0
 11
4516.1100301077049
 21
462.52902534458133
 31
0.0
  0
LINE
  5
19BC4
  8
0
 10
4515.5490064855148
 20
461.72193873038128
 30
0.0
 11
4516.1100301077049
 21
461.72193873038128
 31
0.0
  0
ARC
  5
19BC6
  8
0
 10
4515.5490064855148
 20
462.12548203748128
 30
0.0
 40
0.4299999999999989
 50
69.796645874265508
 51
290.20335412573451
  0
ARC
  5
19BC7
  8
0
 10
4515.5490064855148
 20
462.12548203748128
 30
0.0
 40
0.4074999999999962
 50
82.009167493546244
 51
277.99083250645373
  0
ARC
  5
19BC8
  8
0
 10
4515.5490064855148
 20
462.12548203748128
 30
0.0
 40
0.4035433070999988
 50
90.0
 51
270.0
  0
LINE
  5
19BC9
  8
0
 10
4518.0136210245137
 20
462.99412417308127
 30
0.0
 11
4518.0136210245137
 21
461.25683990188128
 31
0.0
  0
LINE
  5
19BCA
  8
0
 10
4518.2304487450137
 20
460.99116243988118
 30
0.0
 11
4518.2304487450137
 21
463.2598016350812
 31
0.0
  0
ARC
  5
19BCB
  8
0
 10
4518.3828167203137
 20
459.86147806698273
 30
0.0
 40
1.1278755362227471
 50
84.746565751303578
 51
95.253434248696422
  0
ARC
  5
19BCC
  8
0
 10
4516.3818600302984
 20
460.81911817790268
 30
0.0
 40
1.71617213293269
 50
94.897210647820074
 51
98.448642482909804
  0
ARC
  5
19BCD
  8
0
 10
4516.4340110470903
 20
461.05359418856142
 30
0.0
 40
1.478300322126052
 50
93.570297574142003
 51
101.87877235673621
  0
ARC
  5
19BCE
  8
0
 10
4516.3080694590899
 20
462.09629011219408
 30
0.0
 40
0.4186788190119322
 50
97.389056437984465
 51
115.2134915148672
  0
ARC
  5
19BCF
  8
0
 10
4516.5580295240998
 20
460.16882188861922
 30
0.0
 40
2.3622872638872932
 50
92.406755977335195
 51
97.389056437984465
  0
ARC
  5
19BD0
  8
0
 10
4516.4096203414374
 20
461.88855845642502
 30
0.0
 40
0.6251289924814834
 50
95.002595386195424
 51
116.59979899681031
  0
ARC
  5
19BD1
  8
0
 10
4516.691866602544
 20
458.6641511804869
 30
0.0
 40
3.861865811104745
 50
91.508416299261796
 51
95.002595386195424
  0
ARC
  5
19BD2
  8
0
 10
4516.8540528692638
 20
457.04879804505919
 30
0.0
 40
5.48223345269282
 50
91.550080194375056
 51
92.758558000981722
  0
ARC
  5
19BD3
  8
0
 10
4516.4712569289786
 20
461.7581421465182
 30
0.0
 40
0.7497792008703687
 50
97.377650580897992
 51
117.09860765339501
  0
ARC
  5
19BD4
  8
0
 10
4516.8354302287971
 20
458.94557379241547
 30
0.0
 40
3.5858262630327542
 50
93.638068146129555
 51
97.377650580897992
  0
ARC
  5
19BD5
  8
0
 10
4516.812241473177
 20
458.58642008286267
 30
0.0
 40
3.9430523239669242
 50
90.862798757760814
 51
92.97062893091109
  0
ARC
  5
19BD6
  8
0
 10
4516.5905474408992
 20
461.5830395751064
 30
0.0
 40
0.9232179098075507
 50
96.028241793673558
 51
119.94439026110599
  0
ARC
  5
19BD7
  8
0
 10
4517.290412619117
 20
454.10505711741229
 30
0.0
 40
8.4338210351395269
 50
92.769795724843235
 51
95.421342782159954
  0
ARC
  5
19BD8
  8
0
 10
4516.6723249503802
 20
461.4786653187781
 30
0.0
 40
1.026485065716344
 50
95.345305103561643
 51
121.9115620905785
  0
ARC
  5
19BD9
  8
0
 10
4517.1183260510852
 20
457.8308815463601
 30
0.0
 40
4.701110282188262
 50
92.035547590747385
 51
96.61587728911239
  0
ARC
  5
19BDA
  8
0
 10
4516.7385404448523
 20
461.4080110715999
 30
0.0
 40
1.085872090794606
 50
96.642265776954005
 51
124.1027662802377
  0
ARC
  5
19BDB
  8
0
 10
4517.2741753663804
 20
457.59473220346501
 30
0.0
 40
4.9363500367974931
 50
91.654077604043977
 51
97.698066669577685
  0
ARC
  5
19BDC
  8
0
 10
4516.92482668914
 20
460.89326628390188
 30
0.0
 40
1.606126153988056
 50
101.04279727193639
 51
119.6730009212548
  0
ARC
  5
19BDD
  8
0
 10
4517.1448592116403
 20
459.76579402607229
 30
0.0
 40
2.754868075889044
 50
93.339118089666286
 51
101.04279727193639
  0
ARC
  5
19BDE
  8
0
 10
4525.2946980876168
 20
345.91257146013982
 30
0.0
 40
116.89917504724571
 50
93.985645184621006
 51
94.076563921427365
  0
ARC
  5
19BDF
  8
0
 10
4517.1133899489651
 20
460.49280891319057
 30
0.0
 40
2.0111293979495581
 50
102.4493379371764
 51
119.2824843089987
  0
ARC
  5
19BE0
  8
0
 10
4517.1892254965733
 20
460.14929973619712
 30
0.0
 40
2.362909990023347
 50
94.872132683180666
 51
102.4493379371764
  0
ARC
  5
19BE1
  8
0
 10
4518.0187542539716
 20
448.52871369408552
 30
0.0
 40
14.01287984699551
 50
92.426849693982575
 51
94.21614566544109
  0
ARC
  5
19BE2
  8
0
 10
4517.2077752757259
 20
460.34149222170862
 30
0.0
 40
2.1614904047601522
 50
102.10559880590939
 51
119.91786006891491
  0
ARC
  5
19BE3
  8
0
 10
4517.4588477678926
 20
458.786206510505
 30
0.0
 40
3.7357155166622049
 50
93.200402532601984
 51
100.8681504042876
  0
ARC
  5
19BE4
  8
0
 10
4516.9843422078529
 20
470.27563848165732
 30
0.0
 40
7.7640988849878321
 50
271.96295413095328
 51
273.84605727491697
  0
ARC
  5
19BE5
  8
0
 10
4517.4207380492071
 20
459.89870115961571
 30
0.0
 40
2.6109506637519702
 50
93.39078267542088
 51
119.6344538943741
  0
ARC
  5
19BE6
  8
0
 10
4520.4214990321698
 20
409.25252571933208
 30
0.0
 40
53.345945028636457
 50
92.923854797593805
 51
93.39078267542088
  0
ARC
  5
19BE7
  8
0
 10
4517.56569334918
 20
459.57863741618502
 30
0.0
 40
2.9321117929488252
 50
95.888079219850169
 51
119.3236347072888
  0
ARC
  5
19BE8
  8
0
 10
4517.9455818622073
 20
455.11677832975067
 30
0.0
 40
7.4098321325869652
 50
90.037449022959521
 51
95.270727134993905
  0
ARC
  5
19BE9
  8
0
 10
4515.2712839323494
 20
464.59667541358277
 30
0.0
 40
2.6291523440968079
 50
290.54081077318381
 51
296.0743377962649
  0
ARC
  5
19BEA
  8
0
 10
4517.6193133205052
 20
459.67543836447038
 30
0.0
 40
2.823785592196177
 50
100.7259733943376
 51
114.9784318897218
  0
ARC
  5
19BEB
  8
0
 10
4517.9276056308781
 20
457.53565755007247
 30
0.0
 40
4.9844699501066643
 50
89.849036703014036
 51
99.630067487805363
  0
ARC
  5
19BEC
  8
0
 10
4515.7470338222947
 20
463.66968873312811
 30
0.0
 40
1.621694684695236
 50
289.0488366796319
 51
295.48403304580131
  0
ARC
  5
19BED
  8
0
 10
4517.7068410088559
 20
459.55791904252152
 30
0.0
 40
2.9332470489708888
 50
96.843138085409976
 51
115.4840330458013
  0
ARC
  5
19BEE
  8
0
 10
4518.1249008206578
 20
456.7669545048131
 30
0.0
 40
5.7547333264156793
 50
91.83388381785862
 51
97.664897141192682
  0
ARC
  5
19BEF
  8
0
 10
4517.9263817051178
 20
458.94606226990783
 30
0.0
 40
3.5560502580703188
 50
102.76040037119689
 51
115.96703744249901
  0
ARC
  5
19BF0
  8
0
 10
4518.134125992895
 20
457.57039055478162
 30
0.0
 40
4.9446678552121464
 50
92.241424986405207
 51
101.58724264031019
  0
ARC
  5
19BF1
  8
0
 10
4517.9491099291499
 20
458.99157848058462
 30
0.0
 40
3.494031872025618
 50
104.754018240533
 51
115.3068882209449
  0
ARC
  5
19BF2
  8
0
 10
4518.0614714379653
 20
458.5649211074018
 30
0.0
 40
3.9352366122026021
 50
91.758105258470081
 51
104.754018240533
  0
ARC
  5
19BF3
  8
0
 10
4518.1509320729538
 20
458.35531669218562
 30
0.0
 40
4.1334608378885642
 50
103.03595098716571
 51
113.20297443881481
  0
ARC
  5
19BF4
  8
0
 10
4518.2198025132884
 20
458.05785770151238
 30
0.0
 40
4.4387885121736206
 50
93.604526059384725
 51
103.03595098716571
  0
ARC
  5
19BF5
  8
0
 10
4518.6396570903271
 20
456.82558165247281
 30
0.0
 40
5.7146203565175497
 50
104.5869110755815
 51
111.1401980507363
  0
ARC
  5
19BF6
  8
0
 10
4518.1208688780989
 20
458.81910713644299
 30
0.0
 40
3.6546967986191672
 50
92.825099011876574
 51
104.5869110755815
  0
ARC
  5
19BF7
  8
0
 10
4518.3923298045647
 20
457.66503359867232
 30
0.0
 40
4.8130193245183968
 50
95.383809206900224
 51
110.93516037564569
  0
ARC
  5
19BF8
  8
0
 10
4518.3543214014062
 20
457.7137984453945
 30
0.0
 40
4.7378130027668046
 50
95.007952128151999
 51
110.1757044214457
  0
ARC
  5
19BF9
  8
0
 10
4518.4350410429488
 20
457.71266520805261
 30
0.0
 40
4.7333245974008218
 50
95.994342398184941
 51
109.8935922638117
  0
ARC
  5
19BFA
  8
0
 10
4516.4087417141782
 20
464.29279941152441
 30
0.0
 40
2.1832325545043711
 50
282.72761252881838
 51
287.72073543974449
  0
ARC
  5
19BFB
  8
0
 10
4518.3470647309514
 20
458.22681097230361
 30
0.0
 40
4.1849156741499414
 50
95.571796607397786
 51
107.7207354397446
  0
ARC
  5
19BFC
  8
0
 10
4518.602840667043
 20
457.28974330529547
 30
0.0
 40
5.1267019442665323
 50
97.420345879285463
 51
107.7751179642879
  0
ARC
  5
19BFD
  8
0
 10
4518.6543999748483
 20
456.8322969974754
 30
0.0
 40
5.5554912755190253
 50
97.380639606757427
 51
106.0531927575954
  0
ARC
  5
19BFE
  8
0
 10
4518.7665830506767
 20
456.56861616141327
 30
0.0
 40
5.8053099054963431
 50
98.178451750655086
 51
105.12756222703879
  0
ARC
  5
19BFF
  8
0
 10
4518.9588141816748
 20
454.6034914706176
 30
0.0
 40
7.7404760935212122
 50
97.557794660794102
 51
102.3471278492902
  0
ARC
  5
19C00
  8
0
 10
4518.7749894435619
 20
456.4254372822827
 30
0.0
 40
5.8846643762122177
 50
98.150102915259168
 51
103.20193197741899
  0
ARC
  5
19C01
  8
0
 10
4518.1509934241631
 20
459.25105287984019
 30
0.0
 40
2.969952880877015
 50
94.059590284141294
 51
102.6251871286017
  0
ARC
  5
19C02
  8
0
 10
4518.470370372951
 20
457.60009399576182
 30
0.0
 40
4.616162298246552
 50
96.588293769580815
 51
100.276048692109
  0
ARC
  5
19C03
  8
0
 10
4518.3117190874709
 20
458.22475512033662
 30
0.0
 40
3.9502053186082482
 50
97.595169297979041
 51
98.429799852196368
  0
ARC
  5
19C04
  8
0
 10
4517.9177808091154
 20
461.1790852040827
 30
0.0
 40
0.9697265632936835
 50
88.64338716967562
 51
97.595169297979041
  0
ARC
  5
19C05
  8
0
 10
4516.3818600302984
 20
463.43184589705987
 30
0.0
 40
1.71617213293269
 50
261.5513575170902
 51
265.10278935217991
  0
ARC
  5
19C06
  8
0
 10
4516.4340110470903
 20
463.19736988640119
 30
0.0
 40
1.478300322126052
 50
258.12122764326381
 51
266.42970242585801
  0
ARC
  5
19C07
  8
0
 10
4516.3080694590899
 20
462.15467396276841
 30
0.0
 40
0.4186788190119322
 50
244.7865084851328
 51
262.61094356201551
  0
ARC
  5
19C08
  8
0
 10
4516.5580295240998
 20
464.08214218634328
 30
0.0
 40
2.3622872638872932
 50
262.61094356201551
 51
267.59324402266481
  0
ARC
  5
19C09
  8
0
 10
4516.4096203414374
 20
462.36240561853759
 30
0.0
 40
0.6251289924814834
 50
243.40020100318969
 51
264.99740461380452
  0
ARC
  5
19C0A
  8
0
 10
4516.691866602544
 20
465.5868128944756
 30
0.0
 40
3.861865811104745
 50
264.99740461380452
 51
268.4915837007382
  0
ARC
  5
19C0B
  8
0
 10
4516.8540528692638
 20
467.20216602990331
 30
0.0
 40
5.48223345269282
 50
267.24144199901821
 51
268.44991980562492
  0
ARC
  5
19C0C
  8
0
 10
4516.4712569289786
 20
462.49282192844441
 30
0.0
 40
0.7497792008703687
 50
242.90139234660501
 51
262.62234941910202
  0
ARC
  5
19C0D
  8
0
 10
4516.8354302287971
 20
465.30539028254702
 30
0.0
 40
3.5858262630327542
 50
262.62234941910202
 51
266.36193185387037
  0
ARC
  5
19C0E
  8
0
 10
4516.812241473177
 20
465.66454399209988
 30
0.0
 40
3.9430523239669242
 50
267.02937106908888
 51
269.1372012422392
  0
ARC
  5
19C0F
  8
0
 10
4516.5905474408992
 20
462.66792449985621
 30
0.0
 40
0.9232179098075507
 50
240.05560973889399
 51
263.97175820632651
  0
ARC
  5
19C10
  8
0
 10
4517.290412619117
 20
470.14590695755021
 30
0.0
 40
8.4338210351395269
 50
264.57865721783998
 51
267.23020427515678
  0
ARC
  5
19C11
  8
0
 10
4516.6723249503802
 20
462.77229875618451
 30
0.0
 40
1.026485065716344
 50
238.08843790942149
 51
264.65469489643829
  0
ARC
  5
19C12
  8
0
 10
4517.1183260510852
 20
466.42008252860251
 30
0.0
 40
4.701110282188262
 50
263.3841227108876
 51
267.9644524092526
  0
ARC
  5
19C13
  8
0
 10
4516.7385404448523
 20
462.8429530033626
 30
0.0
 40
1.085872090794606
 50
235.89723371976231
 51
263.35773422304601
  0
ARC
  5
19C14
  8
0
 10
4517.2741753663804
 20
466.6562318714976
 30
0.0
 40
4.9363500367974931
 50
262.30193333042229
 51
268.34592239595599
  0
ARC
  5
19C15
  8
0
 10
4516.92482668914
 20
463.35769779106062
 30
0.0
 40
1.606126153988056
 50
240.3269990787451
 51
258.95720272806352
  0
ARC
  5
19C16
  8
0
 10
4517.1448592116403
 20
464.48517004889021
 30
0.0
 40
2.754868075889044
 50
258.95720272806352
 51
266.66088191033373
  0
ARC
  5
19C17
  8
0
 10
4525.2946980876168
 20
578.33839261482274
 30
0.0
 40
116.89917504724571
 50
265.92343607857271
 51
266.01435481537902
  0
ARC
  5
19C18
  8
0
 10
4517.1133899489651
 20
463.75815516177198
 30
0.0
 40
2.0111293979495581
 50
240.7175156910013
 51
257.55066206282362
  0
ARC
  5
19C19
  8
0
 10
4517.1892254965733
 20
464.10166433876537
 30
0.0
 40
2.362909990023347
 50
257.55066206282362
 51
265.12786731681928
  0
ARC
  5
19C1A
  8
0
 10
4518.0187542539716
 20
475.72225038087703
 30
0.0
 40
14.01287984699551
 50
265.7838543345589
 51
267.57315030601751
  0
ARC
  5
19C1B
  8
0
 10
4517.2077752757259
 20
463.90947185325399
 30
0.0
 40
2.1614904047601522
 50
240.08213993108509
 51
257.89440119409051
  0
ARC
  5
19C1C
  8
0
 10
4517.4588477678926
 20
465.4647575644575
 30
0.0
 40
3.7357155166622049
 50
259.13184959571242
 51
266.79959746739797
  0
ARC
  5
19C1D
  8
0
 10
4516.9843422078529
 20
453.97532559330529
 30
0.0
 40
7.7640988849878321
 50
86.153942725083013
 51
88.037045869046764
  0
ARC
  5
19C1E
  8
0
 10
4517.4207380492071
 20
464.3522629153469
 30
0.0
 40
2.6109506637519702
 50
240.3655461056259
 51
266.60921732457911
  0
ARC
  5
19C1F
  8
0
 10
4520.4214990321698
 20
514.99843835563047
 30
0.0
 40
53.345945028636457
 50
266.60921732457911
 51
267.07614520240622
  0
ARC
  5
19C20
  8
0
 10
4517.56569334918
 20
464.67232665877759
 30
0.0
 40
2.9321117929488252
 50
240.6763652927111
 51
264.11192078014977
  0
ARC
  5
19C21
  8
0
 10
4517.9455818622073
 20
469.13418574521182
 30
0.0
 40
7.4098321325869652
 50
264.72927286500612
 51
269.96255097704051
  0
ARC
  5
19C22
  8
0
 10
4515.2712839323494
 20
459.65428866137972
 30
0.0
 40
2.6291523440968079
 50
63.925662203735143
 51
69.459189226816093
  0
ARC
  5
19C23
  8
0
 10
4517.6193133205052
 20
464.57552571049212
 30
0.0
 40
2.823785592196177
 50
245.0215681102782
 51
259.2740266056623
  0
ARC
  5
19C24
  8
0
 10
4517.9276056308781
 20
466.71530652489008
 30
0.0
 40
4.9844699501066643
 50
260.36993251219468
 51
270.15096329698588
  0
ARC
  5
19C25
  8
0
 10
4515.7470338222947
 20
460.58127534183438
 30
0.0
 40
1.621694684695236
 50
64.515966954198717
 51
70.951163320368025
  0
ARC
  5
19C26
  8
0
 10
4517.7068410088559
 20
464.69304503244098
 30
0.0
 40
2.9332470489708888
 50
244.51596695419869
 51
263.15686191459002
  0
ARC
  5
19C27
  8
0
 10
4518.1249008206578
 20
467.4840095701494
 30
0.0
 40
5.7547333264156793
 50
262.33510285880732
 51
268.16611618214142
  0
ARC
  5
19C28
  8
0
 10
4517.9263817051178
 20
465.30490180505473
 30
0.0
 40
3.5560502580703188
 50
244.03296255750101
 51
257.23959962880298
  0
ARC
  5
19C29
  8
0
 10
4518.134125992895
 20
466.68057352018087
 30
0.0
 40
4.9446678552121464
 50
258.41275735968981
 51
267.75857501359479
  0
ARC
  5
19C2A
  8
0
 10
4517.9491099291499
 20
465.25938559437799
 30
0.0
 40
3.494031872025618
 50
244.69311177905499
 51
255.24598175946701
  0
ARC
  5
19C2B
  8
0
 10
4518.0614714379653
 20
465.6860429675607
 30
0.0
 40
3.9352366122026021
 50
255.24598175946701
 51
268.2418947415299
  0
ARC
  5
19C2C
  8
0
 10
4518.1509320729538
 20
465.89564738277687
 30
0.0
 40
4.1334608378885642
 50
246.79702556118511
 51
256.96404901283421
  0
ARC
  5
19C2D
  8
0
 10
4518.2198025132884
 20
466.19310637345018
 30
0.0
 40
4.4387885121736206
 50
256.96404901283421
 51
266.39547394061532
  0
ARC
  5
19C2E
  8
0
 10
4518.6396570903271
 20
467.4253824224898
 30
0.0
 40
5.7146203565175497
 50
248.8598019492637
 51
255.4130889244185
  0
ARC
  5
19C2F
  8
0
 10
4518.1208688780989
 20
465.4318569385195
 30
0.0
 40
3.6546967986191672
 50
255.4130889244185
 51
267.1749009881234
  0
ARC
  5
19C30
  8
0
 10
4518.3923298045647
 20
466.58593047629029
 30
0.0
 40
4.8130193245183968
 50
249.06483962435431
 51
264.6161907930998
  0
ARC
  5
19C31
  8
0
 10
4518.3543214014062
 20
466.53716562956822
 30
0.0
 40
4.7378130027668046
 50
249.8242955785542
 51
264.992047871848
  0
ARC
  5
19C32
  8
0
 10
4518.4350410429488
 20
466.53829886691
 30
0.0
 40
4.7333245974008218
 50
250.10640773618829
 51
264.00565760181507
  0
ARC
  5
19C33
  8
0
 10
4516.4087417141782
 20
459.9581646634382
 30
0.0
 40
2.1832325545043711
 50
72.279264560255442
 51
77.272387471181588
  0
ARC
  5
19C34
  8
0
 10
4518.3470647309514
 20
466.02415310265889
 30
0.0
 40
4.1849156741499414
 50
252.2792645602554
 51
264.4282033926022
  0
ARC
  5
19C35
  8
0
 10
4518.602840667043
 20
466.96122076966708
 30
0.0
 40
5.1267019442665323
 50
252.22488203571211
 51
262.57965412071451
  0
ARC
  5
19C36
  8
0
 10
4518.6543999748483
 20
467.4186670774871
 30
0.0
 40
5.5554912755190253
 50
253.9468072424045
 51
262.61936039324257
  0
ARC
  5
19C37
  8
0
 10
4518.7665830506767
 20
467.68234791354928
 30
0.0
 40
5.8053099054963431
 50
254.87243777296109
 51
261.82154824934491
  0
ARC
  5
19C38
  8
0
 10
4518.9588141816748
 20
469.6474726043449
 30
0.0
 40
7.7404760935212122
 50
257.65287215070981
 51
262.44220533920588
  0
ARC
  5
19C39
  8
0
 10
4518.7749894435619
 20
467.82552679267991
 30
0.0
 40
5.8846643762122177
 50
256.79806802258099
 51
261.8498970847408
  0
ARC
  5
19C3A
  8
0
 10
4518.1509934241631
 20
464.99991119512231
 30
0.0
 40
2.969952880877015
 50
257.37481287139832
 51
265.94040971585872
  0
ARC
  5
19C3B
  8
0
 10
4518.470370372951
 20
466.65087007920062
 30
0.0
 40
4.616162298246552
 50
259.72395130789101
 51
263.4117062304191
  0
ARC
  5
19C3C
  8
0
 10
4518.3117190874709
 20
466.02620895462599
 30
0.0
 40
3.9502053186082482
 50
261.57020014780358
 51
262.40483070202089
  0
ARC
  5
19C3D
  8
0
 10
4517.9177808091154
 20
463.07187887087991
 30
0.0
 40
0.9697265632936835
 50
262.40483070202089
 51
271.35661283032442
  0
ARC
  5
19C3E
  8
0
 10
4516.1996500544183
 20
462.12548203748128
 30
0.0
 40
0.0109063481135023
 50
122.5231555353096
 51
237.4768444646904
  0
ARC
  5
19C3F
  8
0
 10
4516.281111032652
 20
462.12548203748128
 30
0.0
 40
0.0122901974052961
 50
112.980416623579
 51
247.019583376421
  0
ARC
  5
19C40
  8
0
 10
4516.3904574746912
 20
462.12548203748128
 30
0.0
 40
0.0275031245136912
 50
140.1231851561013
 51
219.87681484389859
  0
ARC
  5
19C41
  8
0
 10
4516.4678691583367
 20
462.12548203748128
 30
0.0
 40
0.0277099853556749
 50
116.4465207386383
 51
243.5534792613617
  0
ARC
  5
19C42
  8
0
 10
4516.5474383559858
 20
462.12548203748128
 30
0.0
 40
0.0382888344227271
 50
130.85587625554669
 51
229.14412374445331
  0
ARC
  5
19C43
  8
0
 10
4516.5913754746662
 20
462.12548203748128
 30
0.0
 40
0.0326987546723539
 50
112.8611978575604
 51
247.13880214243949
  0
ARC
  5
19C44
  8
0
 10
4516.6890036196583
 20
462.12548203748128
 30
0.0
 40
0.0385164461395762
 50
115.2330775189594
 51
244.76692248104061
  0
ARC
  5
19C45
  8
0
 10
4516.7276906929919
 20
462.12548203748128
 30
0.0
 40
0.0361876532131238
 50
101.8675633860466
 51
258.13243661395342
  0
ARC
  5
19C46
  8
0
 10
4516.8298075587818
 20
462.12548203748128
 30
0.0
 40
0.0384328824856712
 50
98.070509641993894
 51
261.92949035800609
  0
ARC
  5
19C47
  8
0
 10
4516.8981006445129
 20
462.12548203748128
 30
0.0
 40
0.0386446298414099
 50
102.4892854280377
 51
257.5107145719623
  0
ARC
  5
19C48
  8
0
 10
4517.0437071713286
 20
462.12548203748128
 30
0.0
 40
0.0466070487399395
 50
97.341090673402675
 51
262.65890932659732
  0
ARC
  5
19C49
  8
0
 10
4517.1310554023185
 20
462.12548203748128
 30
0.0
 40
0.0474625077778453
 50
105.7880137926674
 51
254.21198620733259
  0
ARC
  5
19C4A
  8
0
 10
4517.269244244173
 20
462.12548203748128
 30
0.0
 40
0.0504670506570229
 50
110.49117628473201
 51
249.50882371526799
  0
ARC
  5
19C4B
  8
0
 10
4517.3097124889846
 20
462.12548203748128
 30
0.0
 40
0.0399134943447796
 50
98.754734328665293
 51
261.24526567133472
  0
ARC
  5
19C4C
  8
0
 10
4517.4388302381221
 20
462.12548203748128
 30
0.0
 40
0.0301229898713572
 50
105.0114321256451
 51
254.988567874354
  0
ARC
  5
19C4D
  8
0
 10
4517.5046649080277
 20
462.12548203748128
 30
0.0
 40
0.0238797348960087
 50
96.783708407884134
 51
263.21629159211591
  0
ARC
  5
19C4E
  8
0
 10
4517.6509306962216
 20
462.12548203748128
 30
0.0
 40
0.0172109058798819
 50
103.5818239283109
 51
256.4181760716898
  0
ARC
  5
19C4F
  8
0
 10
4517.7336128471852
 20
462.12548203748128
 30
0.0
 40
0.0068720853927498
 50
98.233385413034085
 51
261.76661458696589
  0
ENDSEC
  0
EOF
