  0
SECTION
  2
HEADER
  9
$ACADVER
  1
AC1009
  9
$INSBASE
 10
4521.3482210559432
 20
461.75995849478272
 30
0.0
  9
$EXTMIN
 10
4520.2073549141433
 20
459.3876199120827
 30
0.0
  9
$EXTMAX
 10
4522.4890871977432
 20
461.76429411081381
 30
0.0
  9
$LIMMIN
 10
0.0
 20
0.0
  9
$LIMMAX
 10
11.692913385800001
 20
8.2677165353999982
  9
$ORTHOMODE
 70
     0
  9
$REGENMODE
 70
     1
  9
$FILLMODE
 70
     1
  9
$QTEXTMODE
 70
     0
  9
$MIRRTEXT
 70
     0
  9
$DRAGMODE
 70
     2
  9
$LTSCALE
 40
0.6431102362
  9
$OSMODE
 70
    19
  9
$ATTMODE
 70
     1
  9
$TEXTSIZE
 40
0.2
  9
$TRACEWID
 40
0.05
  9
$TEXTSTYLE
  7
STANDARD
  9
$CLAYER
  8
0
  9
$CELTYPE
  6
BYLAYER
  9
$CECOLOR
 62
   256
  9
$DIMSCALE
 40
1.0
  9
$DIMASZ
 40
0.1875
  9
$DIMEXO
 40
0.0625
  9
$DIMDLI
 40
0.4443307087
  9
$DIMRND
 40
0.0
  9
$DIMDLE
 40
0.0
  9
$DIMEXE
 40
0.125
  9
$DIMTP
 40
0.01
  9
$DIMTM
 40
0.01
  9
$DIMTXT
 40
2.0
  9
$DIMCEN
 40
0.1052362205
  9
$DIMTSZ
 40
0.0
  9
$DIMTOL
 70
     1
  9
$DIMLIM
 70
     0
  9
$DIMTIH
 70
     1
  9
$DIMTOH
 70
     1
  9
$DIMSE1
 70
     0
  9
$DIMSE2
 70
     0
  9
$DIMTAD
 70
     0
  9
$DIMZIN
 70
     0
  9
$DIMBLK
  1

  9
$DIMASO
 70
     1
  9
$DIMSHO
 70
     1
  9
$DIMPOST
  1
\X
  9
$DIMAPOST
  1

  9
$DIMALT
 70
     1
  9
$DIMALTD
 70
     2
  9
$DIMALTF
 40
25.399999999999999
  9
$DIMLFAC
 40
1.0
  9
$DIMTOFL
 70
     0
  9
$DIMTVP
 40
0.0
  9
$DIMTIX
 70
     0
  9
$DIMSOXD
 70
     0
  9
$DIMSAH
 70
     0
  9
$DIMBLK1
  1

  9
$DIMBLK2
  1

  9
$DIMSTYLE
  2
STANDARD
  9
$DIMCLRD
 70
     0
  9
$DIMCLRE
 70
     0
  9
$DIMCLRT
 70
     0
  9
$DIMTFAC
 40
1.0
  9
$DIMGAP
 40
0.09
  9
$LUNITS
 70
     2
  9
$LUPREC
 70
     4
  9
$SKETCHINC
 40
0.1
  9
$FILLETRAD
 40
0.0
  9
$AUNITS
 70
     0
  9
$AUPREC
 70
     0
  9
$MENU
  1
.
  9
$ELEVATION
 40
0.0
  9
$PELEVATION
 40
0.0
  9
$THICKNESS
 40
0.0
  9
$LIMCHECK
 70
     0
  9
$BLIPMODE
 70
     0
  9
$CHAMFERA
 40
0.0
  9
$CHAMFERB
 40
0.0
  9
$SKPOLY
 70
     0
  9
$TDCREATE
 40
2458060.4683680669
  9
$TDUPDATE
 40
2459298.9185763309
  9
$TDINDWG
 40
1.5319206366
  9
$TDUSRTIMER
 40
1.5319206366
  9
$USRTIMER
 70
     1
  9
$ANGBASE
 50
0.0
  9
$ANGDIR
 70
     0
  9
$PDMODE
 70
     0
  9
$PDSIZE
 40
0.3125
  9
$PLINEWID
 40
0.0
  9
$COORDS
 70
     1
  9
$SPLFRAME
 70
     0
  9
$SPLINETYPE
 70
     6
  9
$SPLINESEGS
 70
     8
  9
$ATTDIA
 70
     1
  9
$ATTREQ
 70
     1
  9
$HANDLING
 70
     1
  9
$HANDSEED
  5
19A39
  9
$SURFTAB1
 70
     6
  9
$SURFTAB2
 70
     6
  9
$SURFTYPE
 70
     6
  9
$SURFU
 70
     6
  9
$SURFV
 70
     6
  9
$UCSNAME
  2

  9
$UCSORG
 10
0.0
 20
0.0
 30
0.0
  9
$UCSXDIR
 10
1.0
 20
0.0
 30
0.0
  9
$UCSYDIR
 10
0.0
 20
1.0
 30
0.0
  9
$PUCSNAME
  2

  9
$PUCSORG
 10
0.0
 20
0.0
 30
0.0
  9
$PUCSXDIR
 10
1.0
 20
0.0
 30
0.0
  9
$PUCSYDIR
 10
0.0
 20
1.0
 30
0.0
  9
$USERI1
 70
     0
  9
$USERI2
 70
     0
  9
$USERI3
 70
     0
  9
$USERI4
 70
     0
  9
$USERI5
 70
     0
  9
$USERR1
 40
0.0
  9
$USERR2
 40
0.0
  9
$USERR3
 40
0.0
  9
$USERR4
 40
0.0
  9
$USERR5
 40
0.0
  9
$WORLDVIEW
 70
     1
  9
$SHADEDGE
 70
     3
  9
$SHADEDIF
 70
    70
  9
$TILEMODE
 70
     1
  9
$MAXACTVP
 70
    64
  9
$PLIMCHECK
 70
     0
  9
$PEXTMIN
 10
1.0000000000000000E+020
 20
1.0000000000000000E+020
 30
1.0000000000000000E+020
  9
$PEXTMAX
 10
-1.0000000000000000E+020
 20
-1.0000000000000000E+020
 30
-1.0000000000000000E+020
  9
$PLIMMIN
 10
0.0
 20
0.0
  9
$PLIMMAX
 10
12.0
 20
9.0
  9
$UNITMODE
 70
     0
  9
$VISRETAIN
 70
     1
  9
$PLINEGEN
 70
     0
  9
$PSLTSCALE
 70
     1
  0
ENDSEC
  0
SECTION
  2
TABLES
  0
TABLE
  2
VPORT
 70
     1
  0
VPORT
  2
*ACTIVE
 70
     0
 10
0.0
 20
0.0
 11
1.0
 21
1.0
 12
609.98286461063071
 22
327.99635190890922
 13
0.0
 23
0.0
 14
1.0
 24
1.0
 15
0.0
 25
0.0
 16
0.0
 26
0.0
 36
60.496018696580158
 17
3911.365356445312
 27
132.57960510253901
 37
0.0
 40
2.4022298352766711
 41
2.4075403949730689
 42
50.0
 43
0.0
 44
0.0
 50
0.0
 51
0.0
 71
     0
 72
   100
 73
     1
 74
     1
 75
     0
 76
     0
 77
     0
 78
     0
  0
ENDTAB
  0
TABLE
  2
LTYPE
 70
     2
  0
LTYPE
  2
CONTINUOUS
 70
     0
  3
Solid line
 72
    65
 73
     0
 40
0.0
  0
LTYPE
  2
PHANTOM2
 70
     0
  3
___ _ _ ___ _ _ ___ _ _ ___ _ _
 72
    65
 73
     6
 40
1.25
 49
0.625
 49
-0.125
 49
0.125
 49
-0.125
 49
0.125
 49
-0.125
  0
ENDTAB
  0
TABLE
  2
LAYER
 70
     2
  0
LAYER
  2
0
 70
     0
 62
   255
  6
CONTINUOUS
  0
LAYER
  2
DEFPOINTS
 70
     0
 62
     7
  6
CONTINUOUS
  0
ENDTAB
  0
TABLE
  2
STYLE
 70
     1
  0
STYLE
  2
STANDARD
 70
     0
 40
0.0
 41
0.8
 50
0.0
 71
     0
 42
0.2
  3
txt
  4

  0
ENDTAB
  0
TABLE
  2
VIEW
 70
     0
  0
ENDTAB
  0
TABLE
  2
UCS
 70
     0
  0
ENDTAB
  0
TABLE
  2
APPID
 70
    11
  0
APPID
  2
ACAD
 70
     0
  0
APPID
  2
ACAD_MLEADERVER
 70
     0
  0
APPID
  2
ACAD_EXEMPT_FROM_CAD_STANDARDS
 70
     0
  0
APPID
  2
ACAD_NAV_VCDISPLAY
 70
     0
  0
APPID
  2
ACAECLAYERSTANDARD
 70
     0
  0
APPID
  2
ACCMTRANSPARENCY
 70
     0
  0
APPID
  2
ACAD_DSTYLE_DIMJAG
 70
     0
  0
APPID
  2
ACAD_DSTYLE_DIMTALN
 70
     0
  0
APPID
  2
ACDBATTR
 70
     0
  0
APPID
  2
ACADANNOTATIVE
 70
     0
  0
APPID
  2
DCO15
 70
     0
  0
ENDTAB
  0
TABLE
  2
DIMSTYLE
 70
     1
  0
DIMSTYLE
  2
STANDARD
 70
     0
  3

  4

  5

  6

  7

 40
1.0
 41
0.1875
 42
0.0625
 43
0.38
 44
0.125
 45
0.0
 46
0.0
 47
0.01
 48
0.01
140
0.15625
141
0.09
142
0.0
143
25.399999999999999
144
1.0
145
0.0
146
1.0
147
0.09
 71
     1
 72
     0
 73
     1
 74
     1
 75
     0
 76
     0
 77
     0
 78
     4
170
     0
171
     2
172
     0
173
     0
174
     0
175
     0
176
     0
177
     0
178
     0
  0
ENDTAB
  0
ENDSEC
  0
SECTION
  2
BLOCKS
  0
BLOCK
  8
0
  2
$MODEL_SPACE
 70
     0
 10
0.0
 20
0.0
 30
0.0
  3
$MODEL_SPACE
  1

  0
ENDBLK
  5
21
  8
0
  0
BLOCK
 67
     1
  8
0
  2
$PAPER_SPACE
 70
     0
 10
0.0
 20
0.0
 30
0.0
  3
$PAPER_SPACE
  1

  0
ENDBLK
  5
1D
 67
     1
  8
0
  0
ENDSEC
  0
SECTION
  2
ENTITIES
  0
ATTDEF
  5
194DB
  8
DEFPOINTS
 10
4521.3482218791532
 20
461.76329411081389
 30
0.0
 40
0.001
  1
P24936-SNW
  3

  2
MODELNUMBER
 70
     0
1001
ACDBATTR
1070
     0
1070
     1
  0
ATTDEF
  5
194DC
  8
DEFPOINTS
 10
4521.3482218791532
 20
461.7616272704347
 30
0.0
 40
0.001
  1
PINNA PALETTA
  3

  2
TRADENAME
 70
     0
1001
ACDBATTR
1070
     0
1070
     1
  0
ATTDEF
  5
194DD
  8
DEFPOINTS
 10
4521.3482218791532
 20
461.7599607774805
 30
0.0
 40
0.001
  1
VALVE TRIM
  3

  2
PRODUCT
 70
     0
1001
ACDBATTR
1070
     0
1070
     1
  0
LINE
  5
1994A
  8
0
 10
4520.2073549142424
 20
461.71395849477858
 30
0.0
 11
4520.2073549142424
 21
461.45423108942867
 31
0.0
  0
LINE
  5
1994B
  8
0
 10
4520.323354768213
 20
461.34695849478271
 30
0.0
 11
4522.3730873436716
 21
461.34695849478271
 31
0.0
  0
LINE
  5
1994C
  8
0
 10
4520.5607454846177
 20
461.14972227428262
 30
0.0
 11
4522.1356966272679
 21
461.14972227428262
 31
0.0
  0
LINE
  5
1994D
  8
0
 10
4520.4795789202426
 20
461.22260456748268
 30
0.0
 11
4522.2168631916429
 21
461.22260456748268
 31
0.0
  0
LINE
  5
1994E
  8
0
 10
4520.2139014582426
 20
461.43943228788271
 30
0.0
 11
4522.4825406536429
 21
461.43943228788271
 31
0.0
  0
LINE
  5
1994F
  8
0
 10
4520.944677748842
 20
460.37216321918271
 30
0.0
 11
4520.944677748842
 21
461.14972227428262
 31
0.0
  0
LINE
  5
19950
  8
0
 10
4520.944677748842
 20
460.35216321918273
 30
0.0
 11
4520.944677748842
 21
459.79116321918258
 31
0.0
  0
LINE
  5
19951
  8
0
 10
4520.944677748842
 20
460.37216321918271
 30
0.0
 11
4521.7517643630426
 21
460.37216321918271
 31
0.0
  0
LINE
  5
19952
  8
0
 10
4520.4737210559424
 20
461.32695849478267
 30
0.0
 11
4520.4737210559424
 21
461.23674670313119
 31
0.0
  0
ARC
  5
19953
  8
0
 10
4520.2273549141528
 20
461.71395849477858
 30
0.0
 40
0.0200000000098175
 50
90.0
 51
179.9999999883631
  0
ARC
  5
19954
  8
0
 10
4520.2273549143611
 20
461.45423108942867
 30
0.0
 40
0.0200000002178156
 50
180.00000013185181
 51
227.72631064013791
  0
LINE
  5
19955
  8
0
 10
4520.2139014582426
 20
461.43943228788271
 30
0.0
 11
4520.3099013123428
 21
461.3521596933827
 31
0.0
  0
ARC
  5
19956
  8
0
 10
4520.323354768213
 20
461.36695849454441
 30
0.0
 40
0.0199999997671586
 50
227.7263104236512
 51
270.0
  0
ARC
  5
19957
  8
0
 10
4520.453721055942
 20
461.32695849478267
 30
0.0
 40
0.019999999999996
 50
359.99999999999022
 51
90.0
  0
ARC
  5
19958
  8
0
 10
4520.4937210561857
 20
461.23674670313119
 30
0.0
 40
0.0200000002440408
 50
180.0000001390691
 51
224.99999940142641
  0
LINE
  5
19959
  8
0
 10
4520.4795789202426
 20
461.22260456748268
 30
0.0
 11
4520.5466033490429
 21
461.15558013868269
 31
0.0
  0
ARC
  5
1995A
  8
0
 10
4520.5607454845986
 20
461.16972227406222
 30
0.0
 40
0.0199999997795302
 50
224.99999964221789
 51
270.00000005325671
  0
ARC
  5
1995B
  8
0
 10
4520.9646777488424
 20
460.35216321918273
 30
0.0
 40
0.0200000000000023
 50
90.0
 51
180.00000000000651
  0
LINE
  5
1995C
  8
0
 10
4522.4890871976431
 20
461.71395849477858
 30
0.0
 11
4522.4890871976431
 21
461.45423108942867
 31
0.0
  0
LINE
  5
1995D
  8
0
 10
4522.2227210559431
 20
461.32695849478267
 30
0.0
 11
4522.2227210559431
 21
461.23674670313119
 31
0.0
  0
ARC
  5
1995E
  8
0
 10
4522.4690871977427
 20
461.71395849478267
 30
0.0
 40
0.019999999999996
 50
359.99999999998369
 51
90.00000002813951
  0
ARC
  5
1995F
  8
0
 10
4522.4690871975254
 20
461.45423108942867
 30
0.0
 40
0.0200000002178156
 50
312.27368935986209
 51
359.99999986814822
  0
LINE
  5
19960
  8
0
 10
4522.4825406536429
 20
461.43943228788271
 30
0.0
 11
4522.3865407995418
 21
461.3521596933827
 31
0.0
  0
ARC
  5
19961
  8
0
 10
4522.3730873436944
 20
461.3669584945095
 30
0.0
 40
0.0199999997268581
 50
269.99999985403929
 51
312.27368959785389
  0
ARC
  5
19962
  8
0
 10
4522.2427210559417
 20
461.32695849478267
 30
0.0
 40
0.019999999999996
 50
90.0
 51
180.00000000000981
  0
ARC
  5
19963
  8
0
 10
4522.202721055698
 20
461.23674670313119
 30
0.0
 40
0.0200000002440408
 50
315.00000059857348
 51
359.99999986093093
  0
LINE
  5
19964
  8
0
 10
4522.2168631916429
 20
461.22260456748268
 30
0.0
 11
4522.1498387628417
 21
461.15558013868269
 31
0.0
  0
ARC
  5
19965
  8
0
 10
4522.1356966272861
 20
461.16972227406222
 30
0.0
 40
0.0199999997795128
 50
269.99999958786037
 51
315.00000035779601
  0
LINE
  5
19966
  8
0
 10
4521.7517643630426
 20
460.37216321918271
 30
0.0
 11
4521.7517643630426
 21
461.14972227428262
 31
0.0
  0
LINE
  5
19967
  8
0
 10
4521.7517643630426
 20
460.35216321918273
 30
0.0
 11
4521.7517643630426
 21
459.79116321918258
 31
0.0
  0
ARC
  5
19968
  8
0
 10
4521.7317643630431
 20
460.35216321918273
 30
0.0
 40
0.0200000000000023
 50
359.99999999999352
 51
90.0
  0
CIRCLE
  5
19969
  8
0
 10
4521.3482210559432
 20
459.79116321918258
 30
0.0
 40
0.4035433070999992
  0
CIRCLE
  5
1996A
  8
0
 10
4521.3482210559432
 20
459.79116321918258
 30
0.0
 40
0.3304011714999993
  0
LINE
  5
1996B
  8
0
 10
4522.4690871977327
 20
461.73395849478271
 30
0.0
 11
4520.2273549141528
 21
461.73395849478271
 31
0.0
  0
ARC
  5
1996D
  8
0
 10
4519.077558744576
 20
460.66966444354148
 30
0.0
 40
2.3001028509180692
 50
10.185026685416039
 51
12.046851365014209
  0
ARC
  5
1996E
  8
0
 10
4518.2248559947966
 20
460.3717480280672
 30
0.0
 40
3.1805772094291349
 50
11.550665363267219
 51
14.15829023442652
  0
ARC
  5
1996F
  8
0
 10
4517.4196143532999
 20
460.1567143022537
 30
0.0
 40
3.9725499210623609
 50
9.5732570797143044
 51
14.475583048657571
  0
ARC
  5
19970
  8
0
 10
4515.7227532921042
 20
459.78249150612908
 30
0.0
 40
5.6827010615754077
 50
8.8491301448649597
 51
13.92167396269207
  0
ARC
  5
19971
  8
0
 10
4516.3720501701064
 20
459.8503466125004
 30
0.0
 40
4.9968744157657961
 50
5.9942468511106819
 51
15.072298327288729
  0
ARC
  5
19972
  8
0
 10
4516.9288125014391
 20
459.92641258720232
 30
0.0
 40
4.4136784175070449
 50
5.7963547875276609
 51
16.090974454611409
  0
ARC
  5
19973
  8
0
 10
4516.6462280732912
 20
459.86936945409019
 30
0.0
 40
4.6660394962959737
 50
6.1859750592059219
 51
15.926153792378461
  0
ARC
  5
19974
  8
0
 10
4511.1365396271049
 20
458.57864765757171
 30
0.0
 40
10.289385171907719
 50
10.03835324876912
 51
14.47019882546237
  0
ARC
  5
19975
  8
0
 10
4503.5006230470617
 20
456.97045744398412
 30
0.0
 40
18.066436386845581
 50
10.85293135834219
 51
13.37524394925957
  0
ARC
  5
19976
  8
0
 10
4508.1548711470014
 20
458.2703682208633
 30
0.0
 40
13.21620582707685
 50
9.1506941122611298
 51
12.583688908960831
  0
ARC
  5
19977
  8
0
 10
4486.3834521041126
 20
454.1387349306101
 30
0.0
 40
35.350179140628903
 50
10.15628121666461
 51
11.439296312806841
  0
ARC
  5
19978
  8
0
 10
4508.5782189340925
 20
458.68541627318291
 30
0.0
 40
12.67888274812181
 50
7.6450624819191022
 51
11.207515679679
  0
ARC
  5
19979
  8
0
 10
4378.6267258126718
 20
437.5849933070163
 30
0.0
 40
144.30851353075931
 50
9.0853697058550278
 51
9.3981496373298832
  0
ARC
  5
1997A
  8
0
 10
4507.1367802359728
 20
458.85710082897111
 30
0.0
 40
14.03880823631923
 50
6.1954027339270157
 51
9.3988399688822124
  0
ARC
  5
1997B
  8
0
 10
4537.9635666069898
 20
463.20303355532269
 30
0.0
 40
17.11196181939296
 50
186.89168390674541
 51
188.6524706488056
  0
ARC
  5
1997C
  8
0
 10
4516.4001945638011
 20
459.92167824764692
 30
0.0
 40
4.6996476243912486
 50
5.5005353359685261
 51
8.6524706488088476
  0
ARC
  5
1997D
  8
0
 10
4304.7334453204712
 20
437.10620131929869
 30
0.0
 40
217.5645241774732
 50
6.1388469524626013
 51
6.3448389754403198
  0
ARC
  5
1997E
  8
0
 10
4530.7850368602694
 20
461.883365974436
 30
0.0
 40
9.8563120068696701
 50
184.2686960004101
 51
186.06568106035519
  0
ARC
  5
1997F
  8
0
 10
4628.4883566717681
 20
472.265651934039
 30
0.0
 40
108.109711764511
 50
186.06568106035519
 51
186.3160729579499
  0
ARC
  5
19980
  8
0
 10
4541.3141533950438
 20
462.3229420399046
 30
0.0
 40
20.39550654419719
 50
183.29767087199059
 51
185.488587435281
  0
ARC
  5
19981
  8
0
 10
4523.6828035083581
 20
461.15630928281053
 30
0.0
 40
2.7353204116105858
 50
180.13797584788671
 51
183.51079212747271
  0
ARC
  5
19982
  8
0
 10
4541.79264441943
 20
462.15719997511871
 30
0.0
 40
20.87275504638988
 50
183.20891781323641
 51
184.90592409948459
  0
ARC
  5
19983
  8
0
 10
4541.5180611215237
 20
461.59271491898107
 30
0.0
 40
20.575991500286271
 50
181.68279992180311
 51
183.4007371578831
  0
ARC
  5
19984
  8
0
 10
4578.8081974887782
 20
463.13623226482179
 30
0.0
 40
57.906157439777239
 50
182.19886614595751
 51
182.73597316865519
  0
ARC
  5
19985
  8
0
 10
3379.40153183038
 20
436.35132496349519
 30
0.0
 40
1141.809567412595
 50
1.2054498676484271
 51
1.2265752084767301
  0
ARC
  5
19986
  8
0
 10
4492.678687820202
 20
459.89135334672682
 30
0.0
 40
28.27666800116333
 50
0.9742910343291074
 51
1.5746484669610219
  0
ARC
  5
19987
  8
0
 10
4495.3326046883049
 20
460.37923439468148
 30
0.0
 40
25.616637356737989
 50
359.98418416469821
 51
0.2498105580393145
  0
ARC
  5
19988
  8
0
 10
4523.6188833673086
 20
460.66966444354148
 30
0.0
 40
2.3001028509180692
 50
167.95314863498581
 51
169.81497331458391
  0
ARC
  5
19989
  8
0
 10
4524.471586117088
 20
460.3717480280672
 30
0.0
 40
3.1805772094291349
 50
165.84170976557351
 51
168.4493346367328
  0
ARC
  5
1998A
  8
0
 10
4525.2768277585847
 20
460.1567143022537
 30
0.0
 40
3.9725499210623609
 50
165.5244169513424
 51
170.4267429202857
  0
ARC
  5
1998B
  8
0
 10
4526.9736888197813
 20
459.78249150612908
 30
0.0
 40
5.6827010615754077
 50
166.0783260373079
 51
171.150869855135
  0
ARC
  5
1998C
  8
0
 10
4526.3243919417791
 20
459.8503466125004
 30
0.0
 40
4.9968744157657961
 50
164.92770167271121
 51
174.00575314888931
  0
ARC
  5
1998D
  8
0
 10
4525.7676296104464
 20
459.92641258720232
 30
0.0
 40
4.4136784175070449
 50
163.90902554538849
 51
174.20364521247231
  0
ARC
  5
1998E
  8
0
 10
4526.0502140385943
 20
459.86936945409019
 30
0.0
 40
4.6660394962959737
 50
164.0738462076215
 51
173.81402494079401
  0
ARC
  5
1998F
  8
0
 10
4531.5599024847797
 20
458.57864765757171
 30
0.0
 40
10.289385171907719
 50
165.5298011745376
 51
169.96164675123089
  0
ARC
  5
19990
  8
0
 10
4539.1958190648229
 20
456.97045744398412
 30
0.0
 40
18.066436386845581
 50
166.6247560507372
 51
169.1470686416578
  0
ARC
  5
19991
  8
0
 10
4534.5415709648832
 20
458.2703682208633
 30
0.0
 40
13.21620582707685
 50
167.4163110910392
 51
170.84930588773889
  0
ARC
  5
19992
  8
0
 10
4556.3129900077729
 20
454.1387349306101
 30
0.0
 40
35.350179140628903
 50
168.5607036871931
 51
169.84371878333539
  0
ARC
  5
19993
  8
0
 10
4534.1182231777921
 20
458.68541627318291
 30
0.0
 40
12.67888274812181
 50
168.79248432032099
 51
172.3549375180809
  0
ARC
  5
19994
  8
0
 10
4664.0697162992119
 20
437.5849933070163
 30
0.0
 40
144.30851353075931
 50
170.60185036267009
 51
170.9146302941449
  0
ARC
  5
19995
  8
0
 10
4535.5596618759128
 20
458.85710082897111
 30
0.0
 40
14.03880823631923
 50
170.60116003111779
 51
173.80459726607299
  0
ARC
  5
19996
  8
0
 10
4504.7328755048948
 20
463.20303355532269
 30
0.0
 40
17.11196181939296
 50
351.34752935119121
 51
353.10831609325447
  0
ARC
  5
19997
  8
0
 10
4526.2962475480836
 20
459.92167824764692
 30
0.0
 40
4.6996476243912486
 50
171.3475293511911
 51
174.49946466403139
  0
ARC
  5
19998
  8
0
 10
4737.9629967914134
 20
437.10620131929869
 30
0.0
 40
217.5645241774732
 50
173.65516102455959
 51
173.86115304753741
  0
ARC
  5
19999
  8
0
 10
4414.2080854401174
 20
472.265651934039
 30
0.0
 40
108.109711764511
 50
353.68392704205007
 51
353.93431893964481
  0
ARC
  5
1999A
  8
0
 10
4501.3822887168408
 20
462.3229420399046
 30
0.0
 40
20.39550654419719
 50
354.51141256471902
 51
356.70232912800941
  0
ARC
  5
1999B
  8
0
 10
4519.0136386035274
 20
461.15630928281053
 30
0.0
 40
2.7353204116105858
 50
356.48920787252729
 51
359.86202415211341
  0
ARC
  5
1999C
  8
0
 10
4500.9037976924537
 20
462.15719997511871
 30
0.0
 40
20.87275504638988
 50
355.09407590051541
 51
356.79108218676362
  0
ARC
  5
1999D
  8
0
 10
4501.1783809903609
 20
461.59271491898107
 30
0.0
 40
20.575991500286271
 50
356.5992628421169
 51
358.31720007819689
  0
ARC
  5
1999E
  8
0
 10
4463.8882446231073
 20
463.13623226482179
 30
0.0
 40
57.906157439777239
 50
357.26402683134472
 51
357.80113385404258
  0
ARC
  5
1999F
  8
0
 10
5663.2949102815046
 20
436.35132496349519
 30
0.0
 40
1141.809567412595
 50
178.77342479152321
 51
178.79455013235159
  0
ARC
  5
199A0
  8
0
 10
4550.0177542916826
 20
459.89135334672682
 30
0.0
 40
28.27666800116333
 50
178.42535153303891
 51
179.0257089656709
  0
ARC
  5
199A1
  8
0
 10
4547.3638374235798
 20
460.37923439468148
 30
0.0
 40
25.616637356737989
 50
179.75018944196071
 51
180.01581583530179
  0
ARC
  5
199A2
  8
0
 10
4511.9114052516152
 20
461.883365974436
 30
0.0
 40
9.8563120068696701
 50
353.93431893964481
 51
355.73130399958978
  0
ARC
  5
199A3
  8
0
 10
4521.3482210559432
 20
461.07900412494507
 30
0.0
 40
0.007291118715135
 50
201.04436868339539
 51
338.95563131660469
  0
ARC
  5
199A4
  8
0
 10
4521.3482210559432
 20
461.0110743560947
 30
0.0
 40
0.0076111838374159
 50
198.9001770016317
 51
341.09982299837139
  0
ARC
  5
199A5
  8
0
 10
4521.3482210559432
 20
460.81929946324829
 30
0.0
 40
0.0115396515375123
 50
189.55890078745529
 51
350.44109921254801
  0
ARC
  5
199A6
  8
0
 10
4521.3482208895111
 20
460.65709137499908
 30
0.0
 40
0.0104171434740607
 50
182.26616032505331
 51
357.73358426855759
  0
LINE
  5
199A7
  8
0
 10
4520.3103868354428
 20
461.75995849478272
 30
0.0
 11
4522.3860552764418
 21
461.75995849478272
 31
0.0
  0
ARC
  5
199A8
  8
0
 10
4520.3103864102504
 20
461.73995849477939
 30
0.0
 40
0.0200000000077132
 50
89.998781913832957
 51
179.99999999085139
  0
LINE
  5
199A9
  8
0
 10
4520.2903864102427
 20
461.73995849478263
 30
0.0
 11
4520.2903864102427
 21
461.73395849478271
 31
0.0
  0
LINE
  5
199AA
  8
0
 10
4522.4060557015428
 20
461.73395849478271
 30
0.0
 11
4522.4060557015428
 21
461.73995849478263
 31
0.0
  0
ARC
  5
199AB
  8
0
 10
4522.3860557015341
 20
461.73995849477939
 30
0.0
 40
0.0200000000077093
 50
0.0000000091453415
 51
90.001217799717224
  0
ENDSEC
  0
EOF
