  0
SECTION
  2
HEADER
  9
$ACADVER
  1
AC1009
  9
$INSBASE
 10
4546.137730529799228
 20
460.622340745664701
 30
0.0
  9
$EXTMIN
 10
4544.2675179445459435
 20
457.3832067221648003
 30
0.0
  9
$EXTMAX
 10
4548.0079431150506935
 20
460.6275127387377779
 30
0.0
  9
$LIMMIN
 10
0.0
 20
0.0
  9
$LIMMAX
 10
11.6929133858000007
 20
8.2677165353999982
  9
$ORTHOMODE
 70
     0
  9
$REGENMODE
 70
     1
  9
$FILLMODE
 70
     1
  9
$QTEXTMODE
 70
     0
  9
$MIRRTEXT
 70
     0
  9
$DRAGMODE
 70
     2
  9
$LTSCALE
 40
0.6431102362
  9
$OSMODE
 70
  4095
  9
$ATTMODE
 70
     1
  9
$TEXTSIZE
 40
0.2
  9
$TRACEWID
 40
0.05
  9
$TEXTSTYLE
  7
STANDARD
  9
$CLAYER
  8
0
  9
$CELTYPE
  6
BYLAYER
  9
$CECOLOR
 62
   256
  9
$DIMSCALE
 40
1.0
  9
$DIMASZ
 40
0.1875
  9
$DIMEXO
 40
0.0625
  9
$DIMDLI
 40
0.4443307087
  9
$DIMRND
 40
0.0
  9
$DIMDLE
 40
0.0
  9
$DIMEXE
 40
0.125
  9
$DIMTP
 40
0.01
  9
$DIMTM
 40
0.01
  9
$DIMTXT
 40
2.0
  9
$DIMCEN
 40
0.1052362205
  9
$DIMTSZ
 40
0.0
  9
$DIMTOL
 70
     1
  9
$DIMLIM
 70
     0
  9
$DIMTIH
 70
     1
  9
$DIMTOH
 70
     1
  9
$DIMSE1
 70
     0
  9
$DIMSE2
 70
     0
  9
$DIMTAD
 70
     0
  9
$DIMZIN
 70
     0
  9
$DIMBLK
  1

  9
$DIMASO
 70
     1
  9
$DIMSHO
 70
     1
  9
$DIMPOST
  1
\X
  9
$DIMAPOST
  1

  9
$DIMALT
 70
     1
  9
$DIMALTD
 70
     2
  9
$DIMALTF
 40
25.3999999999999986
  9
$DIMLFAC
 40
1.0
  9
$DIMTOFL
 70
     0
  9
$DIMTVP
 40
0.0
  9
$DIMTIX
 70
     0
  9
$DIMSOXD
 70
     0
  9
$DIMSAH
 70
     0
  9
$DIMBLK1
  1

  9
$DIMBLK2
  1

  9
$DIMSTYLE
  2
STANDARD
  9
$DIMCLRD
 70
     0
  9
$DIMCLRE
 70
     0
  9
$DIMCLRT
 70
     0
  9
$DIMTFAC
 40
1.0
  9
$DIMGAP
 40
0.09
  9
$LUNITS
 70
     2
  9
$LUPREC
 70
     4
  9
$SKETCHINC
 40
0.1
  9
$FILLETRAD
 40
0.0
  9
$AUNITS
 70
     0
  9
$AUPREC
 70
     0
  9
$MENU
  1
.
  9
$ELEVATION
 40
0.0
  9
$PELEVATION
 40
0.0
  9
$THICKNESS
 40
0.0
  9
$LIMCHECK
 70
     0
  9
$BLIPMODE
 70
     0
  9
$CHAMFERA
 40
0.0
  9
$CHAMFERB
 40
0.0
  9
$SKPOLY
 70
     0
  9
$TDCREATE
 40
2458060.468368056230247
  9
$TDUPDATE
 40
2459936.4695949070155621
  9
$TDINDWG
 40
1.5324449073999999
  9
$TDUSRTIMER
 40
1.5324449073999999
  9
$USRTIMER
 70
     1
  9
$ANGBASE
 50
0.0
  9
$ANGDIR
 70
     0
  9
$PDMODE
 70
     0
  9
$PDSIZE
 40
0.3125
  9
$PLINEWID
 40
0.0
  9
$COORDS
 70
     1
  9
$SPLFRAME
 70
     0
  9
$SPLINETYPE
 70
     6
  9
$SPLINESEGS
 70
     8
  9
$ATTDIA
 70
     1
  9
$ATTREQ
 70
     1
  9
$HANDLING
 70
     1
  9
$HANDSEED
  5
1A474
  9
$SURFTAB1
 70
     6
  9
$SURFTAB2
 70
     6
  9
$SURFTYPE
 70
     6
  9
$SURFU
 70
     6
  9
$SURFV
 70
     6
  9
$UCSNAME
  2

  9
$UCSORG
 10
0.0
 20
0.0
 30
0.0
  9
$UCSXDIR
 10
1.0
 20
0.0
 30
0.0
  9
$UCSYDIR
 10
0.0
 20
1.0
 30
0.0
  9
$PUCSNAME
  2

  9
$PUCSORG
 10
0.0
 20
0.0
 30
0.0
  9
$PUCSXDIR
 10
1.0
 20
0.0
 30
0.0
  9
$PUCSYDIR
 10
0.0
 20
1.0
 30
0.0
  9
$USERI1
 70
     0
  9
$USERI2
 70
     0
  9
$USERI3
 70
     0
  9
$USERI4
 70
     0
  9
$USERI5
 70
     0
  9
$USERR1
 40
0.0
  9
$USERR2
 40
0.0
  9
$USERR3
 40
0.0
  9
$USERR4
 40
0.0
  9
$USERR5
 40
0.0
  9
$WORLDVIEW
 70
     1
  9
$SHADEDGE
 70
     3
  9
$SHADEDIF
 70
    70
  9
$TILEMODE
 70
     1
  9
$MAXACTVP
 70
    64
  9
$PLIMCHECK
 70
     0
  9
$PEXTMIN
 10
1.0000000000000000E+20
 20
1.0000000000000000E+20
 30
1.0000000000000000E+20
  9
$PEXTMAX
 10
-1.0000000000000000E+20
 20
-1.0000000000000000E+20
 30
-1.0000000000000000E+20
  9
$PLIMMIN
 10
0.0
 20
0.0
  9
$PLIMMAX
 10
12.0
 20
9.0
  9
$UNITMODE
 70
     0
  9
$VISRETAIN
 70
     1
  9
$PLINEGEN
 70
     0
  9
$PSLTSCALE
 70
     1
  0
ENDSEC
  0
SECTION
  2
TABLES
  0
TABLE
  2
VPORT
 70
     1
  0
VPORT
  2
*ACTIVE
 70
     0
 10
0.0
 20
0.0
 11
1.0
 21
1.0
 12
634.772374084486728
 22
326.4257546279122266
 13
0.0
 23
0.0
 14
1.0
 24
1.0
 15
0.0
 25
0.0
 16
0.0
 26
0.0
 36
60.4960186965801583
 17
3911.3653564453120453
 27
132.5796051025390057
 37
0.0
 40
3.2692302625389398
 41
1.593589743589743
 42
50.0
 43
0.0
 44
0.0
 50
0.0
 51
0.0
 71
     0
 72
   100
 73
     1
 74
     1
 75
     0
 76
     0
 77
     0
 78
     0
  0
ENDTAB
  0
TABLE
  2
LTYPE
 70
     2
  0
LTYPE
  2
CONTINUOUS
 70
     0
  3
Solid line
 72
    65
 73
     0
 40
0.0
  0
LTYPE
  2
PHANTOM2
 70
     0
  3
___ _ _ ___ _ _ ___ _ _ ___ _ _
 72
    65
 73
     6
 40
1.25
 49
0.625
 49
-0.125
 49
0.125
 49
-0.125
 49
0.125
 49
-0.125
  0
ENDTAB
  0
TABLE
  2
LAYER
 70
     2
  0
LAYER
  2
0
 70
     0
 62
   255
  6
CONTINUOUS
  0
LAYER
  2
DEFPOINTS
 70
     0
 62
     7
  6
CONTINUOUS
  0
ENDTAB
  0
TABLE
  2
STYLE
 70
     1
  0
STYLE
  2
STANDARD
 70
     0
 40
0.0
 41
0.8
 50
0.0
 71
     0
 42
0.2
  3
txt
  4

  0
ENDTAB
  0
TABLE
  2
VIEW
 70
     0
  0
ENDTAB
  0
TABLE
  2
UCS
 70
     0
  0
ENDTAB
  0
TABLE
  2
APPID
 70
    11
  0
APPID
  2
ACAD
 70
     0
  0
APPID
  2
ACAD_MLEADERVER
 70
     0
  0
APPID
  2
ACAD_EXEMPT_FROM_CAD_STANDARDS
 70
     0
  0
APPID
  2
ACAD_NAV_VCDISPLAY
 70
     0
  0
APPID
  2
ACAECLAYERSTANDARD
 70
     0
  0
APPID
  2
ACCMTRANSPARENCY
 70
     0
  0
APPID
  2
ACAD_DSTYLE_DIMJAG
 70
     0
  0
APPID
  2
ACAD_DSTYLE_DIMTALN
 70
     0
  0
APPID
  2
ACDBATTR
 70
     0
  0
APPID
  2
ACADANNOTATIVE
 70
     0
  0
APPID
  2
DCO15
 70
     0
  0
ENDTAB
  0
TABLE
  2
DIMSTYLE
 70
     1
  0
DIMSTYLE
  2
STANDARD
 70
     0
  3

  4

  5

  6

  7

 40
1.0
 41
0.1875
 42
0.0625
 43
0.38
 44
0.125
 45
0.0
 46
0.0
 47
0.01
 48
0.01
140
0.15625
141
0.09
142
0.0
143
25.3999999999999986
144
1.0
145
0.0
146
1.0
147
0.09
 71
     1
 72
     0
 73
     1
 74
     1
 75
     0
 76
     0
 77
     0
 78
     4
170
     0
171
     2
172
     0
173
     0
174
     0
175
     0
176
     0
177
     0
178
     0
  0
ENDTAB
  0
ENDSEC
  0
SECTION
  2
BLOCKS
  0
BLOCK
  8
0
  2
$MODEL_SPACE
 70
     0
 10
0.0
 20
0.0
 30
0.0
  3
$MODEL_SPACE
  1

  0
ENDBLK
  5
21
  8
0
  0
BLOCK
 67
     1
  8
0
  2
$PAPER_SPACE
 70
     0
 10
0.0
 20
0.0
 30
0.0
  3
$PAPER_SPACE
  1

  0
ENDBLK
  5
1D
 67
     1
  8
0
  0
ENDSEC
  0
SECTION
  2
ENTITIES
  0
ATTDEF
  5
194DB
  8
DEFPOINTS
 10
4546.1332013435212502
 20
460.6265127387378016
 30
0.0
 40
0.001
  1
P24926-LV
  3

  2
MODELNUMBER
 70
     0
1001
ACDBATTR
1070
     0
1070
     1
  0
ATTDEF
  5
194DC
  8
DEFPOINTS
 10
4546.1332013435212502
 20
460.6248458983587284
 30
0.0
 40
0.001
  1
PURE PALETTA
  3

  2
TRADENAME
 70
     0
1001
ACDBATTR
1070
     0
1070
     1
  0
ATTDEF
  5
194DD
  8
DEFPOINTS
 10
4546.1332013435212502
 20
460.6231794054045281
 30
0.0
 40
0.001
  1
VALVE TRIM
  3

  2
PRODUCT
 70
     0
1001
ACDBATTR
1070
     0
1070
     1
  0
LINE
  5
1A1F5
  8
0
 10
4548.0079431150506935
 20
460.6123407456555015
 30
0.0
 11
4548.0079431150506935
 21
460.0806388478151803
 31
0.0
  0
LINE
  5
1A1F6
  8
0
 10
4544.2675179445477625
 20
460.6123407456555015
 30
0.0
 11
4544.2675179445477625
 21
460.0806388478151803
 31
0.0
  0
LINE
  5
1A1F7
  8
0
 10
4544.2775179445461617
 20
460.622340745664701
 30
0.0
 11
4547.9979431150522942
 21
460.622340745664701
 31
0.0
  0
LINE
  5
1A1F8
  8
0
 10
4544.4264494703102173
 20
459.9324194858647274
 30
0.0
 11
4547.8490115892882386
 21
459.9324194858647274
 31
0.0
  0
LINE
  5
1A1F9
  8
0
 10
4545.2487872611191051
 20
459.7355690921647806
 30
0.0
 11
4547.0266737984793508
 21
459.7355690921647806
 31
0.0
  0
LINE
  5
1A1FA
  8
0
 10
4545.421787261121608
 20
458.5544667299648154
 30
0.0
 11
4546.8536737984768479
 21
458.5544667299648154
 31
0.0
  0
LINE
  5
1A1FB
  8
0
 10
4545.7491770565738989
 20
458.5344674858648091
 30
0.0
 11
4546.526284003022738
 21
458.5344674858648091
 31
0.0
  0
ARC
  5
1A1FC
  8
0
 10
4544.3075179447860137
 20
460.0806388478151803
 30
0.0
 40
0.0400000002386007
 50
180.0000000721790911
 51
227.6999997334580996
  0
LINE
  5
1A1FD
  8
0
 10
4544.2805974439470447
 20
460.0510536039648173
 30
0.0
 11
4544.3995289698468696
 21
459.9428342420646914
 31
0.0
  0
ARC
  5
1A1FE
  8
0
 10
4544.4264494703102173
 20
459.9724194856676718
 30
0.0
 40
0.039999999802919
 50
227.6999998926067974
 51
270.0000000584155941
  0
LINE
  5
1A1FF
  8
0
 10
4544.2805974439470447
 20
460.0510536039648173
 30
0.0
 11
4547.9948636156514112
 21
460.0510536039648173
 31
0.0
  0
LINE
  5
1A200
  8
0
 10
4545.1534785612993801
 20
459.8307264329617965
 30
0.0
 11
4545.1534785612993801
 21
459.9224194858646797
 31
0.0
  0
LINE
  5
1A201
  8
0
 10
4545.3107305297990024
 20
459.695569092164817
 30
0.0
 11
4545.3107305297990024
 21
458.6655234615618042
 31
0.0
  0
LINE
  5
1A202
  8
0
 10
4545.7341872226988926
 20
458.5194674834260127
 30
0.0
 11
4545.7341872226988926
 21
457.786750029264681
 31
0.0
  0
ARC
  5
1A203
  8
0
 10
4545.3507305302855457
 20
458.6655234615618042
 30
0.0
 40
0.0400000004880488
 50
180.0000001390561124
 51
224.9999996040162955
  0
LINE
  5
1A204
  8
0
 10
4545.3224462585003494
 20
458.6372391901646779
 30
0.0
 11
4545.3935029899994333
 21
458.566182458764672
 31
0.0
  0
ARC
  5
1A205
  8
0
 10
4545.4217872611106941
 20
458.5944667295239014
 30
0.0
 40
0.0399999995591126
 50
224.999999642270808
 51
270.0000000142260888
  0
ARC
  5
1A206
  8
0
 10
4545.7491872285872887
 20
458.5194674834260127
 30
0.0
 40
0.0150000058877916
 50
90.0388542122338151
 51
180.000000000032486
  0
ARC
  5
1A207
  8
0
 10
4545.2711192333090366
 20
459.6959562284745857
 30
0.0
 40
0.0396131882602251
 50
359.4400443204324915
 51
90.2319381780777832
  0
ARC
  5
1A208
  8
0
 10
4545.2487872611191051
 20
459.7755690917344964
 30
0.0
 40
0.0399999995716523
 50
224.9999996458265912
 51
270.0005598952106993
  0
LINE
  5
1A209
  8
0
 10
4545.2205029899996589
 20
459.7472848209648077
 30
0.0
 11
4545.1651942899989081
 21
459.802442161564727
 31
0.0
  0
ARC
  5
1A20A
  8
0
 10
4545.1934785617868329
 20
459.8307264329617965
 30
0.0
 40
0.0400000004880295
 50
180.0000001390494901
 51
224.9999996040230883
  0
ARC
  5
1A20B
  8
0
 10
4545.1634785612986889
 20
459.9224194858646797
 30
0.0
 40
0.0100000000000087
 50
90.0
 51
179.999999999947903
  0
ARC
  5
1A20C
  8
0
 10
4544.2775179445461617
 20
460.6123407456648238
 30
0.0
 40
0.0100000000000034
 50
89.9999998721215348
 51
180.000000052953709
  0
ARC
  5
1A20D
  8
0
 10
4547.9679431148133517
 20
460.0806388478151803
 30
0.0
 40
0.0400000002386007
 50
312.300000266541872
 51
359.9999999278209089
  0
LINE
  5
1A20E
  8
0
 10
4547.9948636156514112
 20
460.0510536039648173
 30
0.0
 11
4547.8759320897506768
 21
459.9428342420646914
 31
0.0
  0
ARC
  5
1A20F
  8
0
 10
4547.8490115892882386
 20
459.9724194856676149
 30
0.0
 40
0.0399999998028786
 50
269.9999999415845195
 51
312.3000001074020133
  0
LINE
  5
1A210
  8
0
 10
4547.1219824982999853
 20
459.8307264329617965
 30
0.0
 11
4547.1219824982999853
 21
459.9224194858646797
 31
0.0
  0
LINE
  5
1A211
  8
0
 10
4546.5412738368995633
 20
458.5194674834260127
 30
0.0
 11
4546.5412738368995633
 21
457.786750029264681
 31
0.0
  0
ARC
  5
1A212
  8
0
 10
4546.9247305293120007
 20
458.6655234615618042
 30
0.0
 40
0.0400000004880488
 50
315.0000003959838182
 51
359.9999998609438876
  0
LINE
  5
1A213
  8
0
 10
4546.9530148010999255
 20
458.6372391901646779
 30
0.0
 11
4546.8819580695999321
 21
458.566182458764672
 31
0.0
  0
ARC
  5
1A214
  8
0
 10
4546.8536737984859428
 20
458.5944667295239014
 30
0.0
 40
0.0399999995591163
 50
269.9999999857739112
 51
315.0000003577292205
  0
ARC
  5
1A215
  8
0
 10
4546.5262738310120767
 20
458.5194674834260127
 30
0.0
 40
0.0150000058877939
 50
359.9999999999805027
 51
89.9611457877140737
  0
ARC
  5
1A216
  8
0
 10
4547.0266737984866268
 20
459.7755690917239235
 30
0.0
 40
0.0399999995591021
 50
269.9999999898384999
 51
315.0000003577314942
  0
LINE
  5
1A217
  8
0
 10
4547.054958069598797
 20
459.7472848209648077
 30
0.0
 11
4547.1102667695986383
 21
459.802442161564727
 31
0.0
  0
ARC
  5
1A218
  8
0
 10
4547.0819824978107135
 20
459.8307264329617965
 30
0.0
 40
0.0400000004880295
 50
315.0000003959768833
 51
359.9999998609504246
  0
ARC
  5
1A219
  8
0
 10
4547.9979431150522942
 20
460.6123407456648238
 30
0.0
 40
0.0100000000000016
 50
0.0000000000097707
 51
90.0000001278784509
  0
ARC
  5
1A21B
  8
0
 10
4546.137730529799228
 20
457.786750029264681
 30
0.0
 40
0.4035433070999997
 50
180.0
 51
0.0
  0
LINE
  5
1A21C
  8
0
 10
4545.1651942899989081
 20
459.802442161564727
 30
0.0
 11
4547.1102667695986383
 21
459.802442161564727
 31
0.0
  0
LINE
  5
1A21D
  8
0
 10
4545.3224462585003494
 20
458.6372391901646779
 30
0.0
 11
4546.9530148010999255
 21
458.6372391901646779
 31
0.0
  0
ARC
  5
1A21E
  8
0
 10
4545.7877305297997736
 20
458.5344667299647199
 30
0.0
 40
0.0199999999999978
 50
359.9999999999935199
 51
90.0
  0
ARC
  5
1A21F
  8
0
 10
4546.4877305297995917
 20
458.5344667299647199
 30
0.0
 40
0.0199999999999978
 50
90.0
 51
180.0000000000032117
  0
ARC
  5
1A220
  8
0
 10
4547.1119824982988575
 20
459.9224194858646797
 30
0.0
 40
0.0100000000000087
 50
0.0000000000521102
 51
90.0
  0
LINE
  5
1A221
  8
0
 10
4546.964730529800363
 20
459.695569092164817
 30
0.0
 11
4546.964730529800363
 21
458.6655234615618042
 31
0.0
  0
ARC
  5
1A222
  8
0
 10
4547.0043418262903288
 20
459.6959562284745857
 30
0.0
 40
0.0396131882602251
 50
89.7680618219222026
 51
180.5599556795673948
  0
ENDSEC
  0
EOF
