  0
SECTION
  2
HEADER
  9
$ACADVER
  1
AC1009
  9
$INSBASE
 10
4539.5348498539633511
 20
469.5088889532627832
 30
0.0
  9
$EXTMIN
 10
4537.6648498539643697
 20
466.269754929762712
 30
0.0
  9
$EXTMAX
 10
4541.4048498539641514
 20
469.5132369628233846
 30
0.0
  9
$LIMMIN
 10
0.0
 20
0.0
  9
$LIMMAX
 10
11.6929133858000007
 20
8.2677165353999982
  9
$ORTHOMODE
 70
     0
  9
$REGENMODE
 70
     1
  9
$FILLMODE
 70
     1
  9
$QTEXTMODE
 70
     0
  9
$MIRRTEXT
 70
     0
  9
$DRAGMODE
 70
     2
  9
$LTSCALE
 40
0.6431102362
  9
$OSMODE
 70
  4095
  9
$ATTMODE
 70
     1
  9
$TEXTSIZE
 40
0.2
  9
$TRACEWID
 40
0.05
  9
$TEXTSTYLE
  7
STANDARD
  9
$CLAYER
  8
0
  9
$CELTYPE
  6
BYLAYER
  9
$CECOLOR
 62
   256
  9
$DIMSCALE
 40
1.0
  9
$DIMASZ
 40
0.1875
  9
$DIMEXO
 40
0.0625
  9
$DIMDLI
 40
0.4443307087
  9
$DIMRND
 40
0.0
  9
$DIMDLE
 40
0.0
  9
$DIMEXE
 40
0.125
  9
$DIMTP
 40
0.01
  9
$DIMTM
 40
0.01
  9
$DIMTXT
 40
2.0
  9
$DIMCEN
 40
0.1052362205
  9
$DIMTSZ
 40
0.0
  9
$DIMTOL
 70
     1
  9
$DIMLIM
 70
     0
  9
$DIMTIH
 70
     1
  9
$DIMTOH
 70
     1
  9
$DIMSE1
 70
     0
  9
$DIMSE2
 70
     0
  9
$DIMTAD
 70
     0
  9
$DIMZIN
 70
     0
  9
$DIMBLK
  1

  9
$DIMASO
 70
     1
  9
$DIMSHO
 70
     1
  9
$DIMPOST
  1
\X
  9
$DIMAPOST
  1

  9
$DIMALT
 70
     1
  9
$DIMALTD
 70
     2
  9
$DIMALTF
 40
25.3999999999999986
  9
$DIMLFAC
 40
1.0
  9
$DIMTOFL
 70
     0
  9
$DIMTVP
 40
0.0
  9
$DIMTIX
 70
     0
  9
$DIMSOXD
 70
     0
  9
$DIMSAH
 70
     0
  9
$DIMBLK1
  1

  9
$DIMBLK2
  1

  9
$DIMSTYLE
  2
STANDARD
  9
$DIMCLRD
 70
     0
  9
$DIMCLRE
 70
     0
  9
$DIMCLRT
 70
     0
  9
$DIMTFAC
 40
1.0
  9
$DIMGAP
 40
0.09
  9
$LUNITS
 70
     2
  9
$LUPREC
 70
     4
  9
$SKETCHINC
 40
0.1
  9
$FILLETRAD
 40
0.0
  9
$AUNITS
 70
     0
  9
$AUPREC
 70
     0
  9
$MENU
  1
.
  9
$ELEVATION
 40
0.0
  9
$PELEVATION
 40
0.0
  9
$THICKNESS
 40
0.0
  9
$LIMCHECK
 70
     0
  9
$BLIPMODE
 70
     0
  9
$CHAMFERA
 40
0.0
  9
$CHAMFERB
 40
0.0
  9
$SKPOLY
 70
     0
  9
$TDCREATE
 40
2458060.468368056230247
  9
$TDUPDATE
 40
2460271.7355787041597068
  9
$TDINDWG
 40
1.6786000115999999
  9
$TDUSRTIMER
 40
1.6786000115999999
  9
$USRTIMER
 70
     1
  9
$ANGBASE
 50
0.0
  9
$ANGDIR
 70
     0
  9
$PDMODE
 70
     0
  9
$PDSIZE
 40
0.3125
  9
$PLINEWID
 40
0.0
  9
$COORDS
 70
     1
  9
$SPLFRAME
 70
     0
  9
$SPLINETYPE
 70
     6
  9
$SPLINESEGS
 70
     8
  9
$ATTDIA
 70
     1
  9
$ATTREQ
 70
     1
  9
$HANDLING
 70
     1
  9
$HANDSEED
  5
1A1DF
  9
$SURFTAB1
 70
     6
  9
$SURFTAB2
 70
     6
  9
$SURFTYPE
 70
     6
  9
$SURFU
 70
     6
  9
$SURFV
 70
     6
  9
$UCSNAME
  2

  9
$UCSORG
 10
0.0
 20
0.0
 30
0.0
  9
$UCSXDIR
 10
1.0
 20
0.0
 30
0.0
  9
$UCSYDIR
 10
0.0
 20
1.0
 30
0.0
  9
$PUCSNAME
  2

  9
$PUCSORG
 10
0.0
 20
0.0
 30
0.0
  9
$PUCSXDIR
 10
1.0
 20
0.0
 30
0.0
  9
$PUCSYDIR
 10
0.0
 20
1.0
 30
0.0
  9
$USERI1
 70
     0
  9
$USERI2
 70
     0
  9
$USERI3
 70
     0
  9
$USERI4
 70
     0
  9
$USERI5
 70
     0
  9
$USERR1
 40
0.0
  9
$USERR2
 40
0.0
  9
$USERR3
 40
0.0
  9
$USERR4
 40
0.0
  9
$USERR5
 40
0.0
  9
$WORLDVIEW
 70
     1
  9
$SHADEDGE
 70
     3
  9
$SHADEDIF
 70
    70
  9
$TILEMODE
 70
     1
  9
$MAXACTVP
 70
    64
  9
$PLIMCHECK
 70
     0
  9
$PEXTMIN
 10
1.0000000000000000E+20
 20
1.0000000000000000E+20
 30
1.0000000000000000E+20
  9
$PEXTMAX
 10
-1.0000000000000000E+20
 20
-1.0000000000000000E+20
 30
-1.0000000000000000E+20
  9
$PLIMMIN
 10
0.0
 20
0.0
  9
$PLIMMAX
 10
12.0
 20
9.0
  9
$UNITMODE
 70
     0
  9
$VISRETAIN
 70
     1
  9
$PLINEGEN
 70
     0
  9
$PSLTSCALE
 70
     1
  0
ENDSEC
  0
SECTION
  2
TABLES
  0
TABLE
  2
VPORT
 70
     1
  0
VPORT
  2
*ACTIVE
 70
     0
 10
0.0
 20
0.0
 11
1.0
 21
1.0
 12
628.1694934086516469
 22
335.3118908437540995
 13
0.0
 23
0.0
 14
1.0
 24
1.0
 15
0.0
 25
0.0
 16
0.0
 26
0.0
 36
60.4960186965801583
 17
3911.3653564453120453
 27
132.5796051025390057
 37
0.0
 40
3.2726587829832852
 41
2.8453453453453448
 42
50.0
 43
0.0
 44
0.0
 50
0.0
 51
0.0
 71
     0
 72
   100
 73
     1
 74
     1
 75
     0
 76
     0
 77
     0
 78
     0
  0
ENDTAB
  0
TABLE
  2
LTYPE
 70
     2
  0
LTYPE
  2
CONTINUOUS
 70
     0
  3
Solid line
 72
    65
 73
     0
 40
0.0
  0
LTYPE
  2
PHANTOM2
 70
     0
  3
___ _ _ ___ _ _ ___ _ _ ___ _ _
 72
    65
 73
     6
 40
1.25
 49
0.625
 49
-0.125
 49
0.125
 49
-0.125
 49
0.125
 49
-0.125
  0
ENDTAB
  0
TABLE
  2
LAYER
 70
     2
  0
LAYER
  2
0
 70
     0
 62
   255
  6
CONTINUOUS
  0
LAYER
  2
DEFPOINTS
 70
     0
 62
     7
  6
CONTINUOUS
  0
ENDTAB
  0
TABLE
  2
STYLE
 70
     1
  0
STYLE
  2
STANDARD
 70
     0
 40
0.0
 41
0.8
 50
0.0
 71
     0
 42
0.2
  3
txt
  4

  0
ENDTAB
  0
TABLE
  2
VIEW
 70
     0
  0
ENDTAB
  0
TABLE
  2
UCS
 70
     0
  0
ENDTAB
  0
TABLE
  2
APPID
 70
    11
  0
APPID
  2
ACAD
 70
     0
  0
APPID
  2
ACAD_MLEADERVER
 70
     0
  0
APPID
  2
ACAD_EXEMPT_FROM_CAD_STANDARDS
 70
     0
  0
APPID
  2
ACAD_NAV_VCDISPLAY
 70
     0
  0
APPID
  2
ACAECLAYERSTANDARD
 70
     0
  0
APPID
  2
ACCMTRANSPARENCY
 70
     0
  0
APPID
  2
ACAD_DSTYLE_DIMJAG
 70
     0
  0
APPID
  2
ACAD_DSTYLE_DIMTALN
 70
     0
  0
APPID
  2
ACDBATTR
 70
     0
  0
APPID
  2
ACADANNOTATIVE
 70
     0
  0
APPID
  2
DCO15
 70
     0
  0
ENDTAB
  0
TABLE
  2
DIMSTYLE
 70
     1
  0
DIMSTYLE
  2
STANDARD
 70
     0
  3

  4

  5

  6

  7

 40
1.0
 41
0.1875
 42
0.0625
 43
0.38
 44
0.125
 45
0.0
 46
0.0
 47
0.01
 48
0.01
140
0.15625
141
0.09
142
0.0
143
25.3999999999999986
144
1.0
145
0.0
146
1.0
147
0.09
 71
     1
 72
     0
 73
     1
 74
     1
 75
     0
 76
     0
 77
     0
 78
     4
170
     0
171
     2
172
     0
173
     0
174
     0
175
     0
176
     0
177
     0
178
     0
  0
ENDTAB
  0
ENDSEC
  0
SECTION
  2
BLOCKS
  0
BLOCK
  8
0
  2
$MODEL_SPACE
 70
     0
 10
0.0
 20
0.0
 30
0.0
  3
$MODEL_SPACE
  1

  0
ENDBLK
  5
21
  8
0
  0
BLOCK
 67
     1
  8
0
  2
$PAPER_SPACE
 70
     0
 10
0.0
 20
0.0
 30
0.0
  3
$PAPER_SPACE
  1

  0
ENDBLK
  5
1D
 67
     1
  8
0
  0
ENDSEC
  0
SECTION
  2
ENTITIES
  0
ATTDEF
  5
194DB
  8
DEFPOINTS
 10
4539.5348609006159677
 20
469.5122369628235219
 30
0.0
 40
0.001
  1
P24924-BNW
  3

  2
MODELNUMBER
 70
     0
1001
ACDBATTR
1070
     0
1070
     1
  0
ATTDEF
  5
194DC
  8
DEFPOINTS
 10
4539.5348609006159677
 20
469.5105701224442214
 30
0.0
 40
0.001
  1
PINNA PALETTA
  3

  2
TRADENAME
 70
     0
1001
ACDBATTR
1070
     0
1070
     1
  0
ATTDEF
  5
194DD
  8
DEFPOINTS
 10
4539.5348609006159677
 20
469.5089036294900779
 30
0.0
 40
0.001
  1
VALVE TRIM
  3

  2
PRODUCT
 70
     0
1001
ACDBATTR
1070
     0
1070
     1
  0
LINE
  5
19F29
  8
0
 10
4541.4048498539641514
 20
469.4988889532535268
 30
0.0
 11
4541.4048498539641514
 21
468.9671870554130919
 31
0.0
  0
LINE
  5
19F2A
  8
0
 10
4537.6648498539643697
 20
469.4988889532535268
 30
0.0
 11
4537.6648498539643697
 21
468.9671870554130919
 31
0.0
  0
LINE
  5
19F2B
  8
0
 10
4537.6748498539873253
 20
469.5088889532627832
 30
0.0
 11
4541.3948498539421053
 21
469.5088889532627832
 31
0.0
  0
LINE
  5
19F2C
  8
0
 10
4537.8237813797686613
 20
468.8189676934626959
 30
0.0
 11
4541.2459183281607693
 21
468.8189676934626959
 31
0.0
  0
LINE
  5
19F2D
  8
0
 10
4538.6459065852832282
 20
468.6221172997628059
 30
0.0
 11
4540.4237931226452929
 21
468.6221172997628059
 31
0.0
  0
LINE
  5
19F2E
  8
0
 10
4538.8189065852857311
 20
467.4410149375627839
 30
0.0
 11
4540.250793122640971
 21
467.4410149375627839
 31
0.0
  0
LINE
  5
19F2F
  8
0
 10
4539.146296380739841
 20
467.4210156934627207
 30
0.0
 11
4539.9234033271886801
 21
467.4210156934627207
 31
0.0
  0
ARC
  5
19F30
  8
0
 10
4537.7048498542017114
 20
468.9671870554130919
 30
0.0
 40
0.0400000002386007
 50
180.0000000721790911
 51
227.6999997334580996
  0
LINE
  5
19F31
  8
0
 10
4537.6779293533636519
 20
468.9376018115627858
 30
0.0
 11
4537.7968608792643863
 21
468.8293824496627735
 31
0.0
  0
ARC
  5
19F32
  8
0
 10
4537.8237813797268245
 20
468.8589676932655834
 30
0.0
 40
0.039999999802919
 50
227.6999998926067974
 51
270.0000000584155941
  0
LINE
  5
19F33
  8
0
 10
4537.6779293533636519
 20
468.9376018115627858
 30
0.0
 11
4541.3917703545639597
 21
468.9376018115627858
 31
0.0
  0
LINE
  5
19F34
  8
0
 10
4538.5505978854644127
 20
468.7172746405598218
 30
0.0
 11
4538.5505978854644127
 21
468.8089676934628187
 31
0.0
  0
LINE
  5
19F35
  8
0
 10
4538.707849853964035
 20
468.5821172997626718
 30
0.0
 11
4538.707849853964035
 21
467.5520716691598864
 31
0.0
  0
LINE
  5
19F36
  8
0
 10
4539.1313065468630157
 20
467.4060156910239812
 30
0.0
 11
4539.1313065468630157
 21
466.6732982368627063
 31
0.0
  0
ARC
  5
19F37
  8
0
 10
4538.7478498544523973
 20
467.5520716691598864
 30
0.0
 40
0.0400000004880488
 50
180.0000001390561124
 51
224.9999996040162955
  0
LINE
  5
19F38
  8
0
 10
4538.719565582663563
 20
467.5237873977628169
 30
0.0
 11
4538.7906223141653754
 21
467.452730666362811
 31
0.0
  0
ARC
  5
19F39
  8
0
 10
4538.8189065852757267
 20
467.4810149371219268
 30
0.0
 40
0.0399999995591126
 50
224.999999642270808
 51
270.0000000142260888
  0
ARC
  5
19F3A
  8
0
 10
4539.1463065527523213
 20
467.4060156910239812
 30
0.0
 40
0.0150000058877916
 50
90.0388542122338151
 51
180.000000000032486
  0
ARC
  5
19F3B
  8
0
 10
4538.6682385574740692
 20
468.582504436072611
 30
0.0
 40
0.0396131882602251
 50
359.4400443204324915
 51
90.2319381780777832
  0
ARC
  5
19F3C
  8
0
 10
4538.6459065852832282
 20
468.6621172993325217
 30
0.0
 40
0.0399999995716523
 50
224.9999996458265912
 51
270.0005598952106993
  0
LINE
  5
19F3D
  8
0
 10
4538.617622314163782
 20
468.6338330285627762
 30
0.0
 11
4538.5623136141630312
 21
468.6889903691628092
 31
0.0
  0
ARC
  5
19F3E
  8
0
 10
4538.5905978859518655
 20
468.7172746405598218
 30
0.0
 40
0.0400000004880295
 50
180.0000001390494901
 51
224.9999996040230883
  0
ARC
  5
19F3F
  8
0
 10
4538.560597885464631
 20
468.8089676934628187
 30
0.0
 40
0.0100000000000087
 50
90.0
 51
179.999999999947903
  0
ARC
  5
19F40
  8
0
 10
4537.6748498539636785
 20
469.4988889532627923
 30
0.0
 40
0.0100000000000034
 50
89.9999998721215348
 51
180.000000052953709
  0
ARC
  5
19F41
  8
0
 10
4541.3648498537259002
 20
468.9671870554130919
 30
0.0
 40
0.0400000002386007
 50
312.300000266541872
 51
359.9999999278209089
  0
LINE
  5
19F42
  8
0
 10
4541.3917703545639597
 20
468.9376018115627858
 30
0.0
 11
4541.2728388286641348
 21
468.8293824496627735
 31
0.0
  0
ARC
  5
19F43
  8
0
 10
4541.2459183282007871
 20
468.8589676932655834
 30
0.0
 40
0.0399999998028786
 50
269.9999999415845195
 51
312.3000001074020133
  0
LINE
  5
19F44
  8
0
 10
4540.5191018224631989
 20
468.7172746405598218
 30
0.0
 11
4540.5191018224631989
 21
468.8089676934628187
 31
0.0
  0
LINE
  5
19F45
  8
0
 10
4539.9383931610636864
 20
467.4060156910239812
 30
0.0
 11
4539.9383931610636864
 21
466.6732982368627063
 31
0.0
  0
ARC
  5
19F46
  8
0
 10
4540.3218498534761238
 20
467.5520716691598864
 30
0.0
 40
0.0400000004880488
 50
315.0000003959838182
 51
359.9999998609438876
  0
LINE
  5
19F47
  8
0
 10
4540.3501341252640486
 20
467.5237873977628169
 30
0.0
 11
4540.2790773937640552
 21
467.452730666362811
 31
0.0
  0
ARC
  5
19F48
  8
0
 10
4540.2507931226509754
 20
467.4810149371219268
 30
0.0
 40
0.0399999995591163
 50
269.9999999857739112
 51
315.0000003577292205
  0
ARC
  5
19F49
  8
0
 10
4539.9233931551761998
 20
467.4060156910239812
 30
0.0
 40
0.0150000058877939
 50
359.9999999999805027
 51
89.9611457877140737
  0
ARC
  5
19F4A
  8
0
 10
4540.4237931226507499
 20
468.662117299321892
 30
0.0
 40
0.0399999995591021
 50
269.9999999898384999
 51
315.0000003577314942
  0
LINE
  5
19F4B
  8
0
 10
4540.4520773937647391
 20
468.6338330285627762
 30
0.0
 11
4540.5073860937636709
 21
468.6889903691628092
 31
0.0
  0
ARC
  5
19F4C
  8
0
 10
4540.4791018219766556
 20
468.7172746405598218
 30
0.0
 40
0.0400000004880295
 50
315.0000003959768833
 51
359.9999998609504246
  0
ARC
  5
19F4D
  8
0
 10
4541.3948498539639331
 20
469.4988889532627923
 30
0.0
 40
0.0100000000000016
 50
0.0000000000097707
 51
90.0000001278784509
  0
ARC
  5
19F4F
  8
0
 10
4539.5348498539633511
 20
466.6732982368627063
 30
0.0
 40
0.4035433070999997
 50
180.0
 51
0.0
  0
LINE
  5
19F50
  8
0
 10
4538.5623136141630312
 20
468.6889903691628092
 30
0.0
 11
4540.5073860937636709
 21
468.6889903691628092
 31
0.0
  0
LINE
  5
19F51
  8
0
 10
4538.719565582663563
 20
467.5237873977628169
 30
0.0
 11
4540.3501341252640486
 21
467.5237873977628169
 31
0.0
  0
ARC
  5
19F52
  8
0
 10
4539.1848498539629873
 20
467.4210149375626884
 30
0.0
 40
0.0199999999999978
 50
359.9999999999935199
 51
90.0
  0
ARC
  5
19F53
  8
0
 10
4539.8848498539637148
 20
467.4210149375626884
 30
0.0
 40
0.0199999999999978
 50
90.0
 51
180.0000000000032117
  0
ARC
  5
19F54
  8
0
 10
4540.5091018224638901
 20
468.8089676934628187
 30
0.0
 40
0.0100000000000087
 50
0.0000000000521102
 51
90.0
  0
LINE
  5
19F55
  8
0
 10
4540.3618498539635766
 20
468.5821172997626718
 30
0.0
 11
4540.3618498539635766
 21
467.5520716691598864
 31
0.0
  0
ARC
  5
19F56
  8
0
 10
4540.4014611504544519
 20
468.582504436072611
 30
0.0
 40
0.0396131882602251
 50
89.7680618219222026
 51
180.5599556795673948
  0
ENDSEC
  0
EOF
