  0
SECTION
  2
HEADER
  9
$ACADVER
  1
AC1009
  9
$INSBASE
 10
4545.5133371264455
 20
468.71379526786478
 30
0.0
  9
$EXTMIN
 10
4542.2742031029447
 20
465.88920471666478
 30
0.0
  9
$EXTMAX
 10
4545.5240065543712
 20
470.58379526786479
 30
0.0
  9
$LIMMIN
 10
0.0
 20
0.0
  9
$LIMMAX
 10
11.692913385800001
 20
8.2677165353999982
  9
$ORTHOMODE
 70
     0
  9
$REGENMODE
 70
     1
  9
$FILLMODE
 70
     1
  9
$QTEXTMODE
 70
     0
  9
$MIRRTEXT
 70
     0
  9
$DRAGMODE
 70
     2
  9
$LTSCALE
 40
0.6431102362
  9
$OSMODE
 70
    19
  9
$ATTMODE
 70
     1
  9
$TEXTSIZE
 40
0.2
  9
$TRACEWID
 40
0.05
  9
$TEXTSTYLE
  7
STANDARD
  9
$CLAYER
  8
0
  9
$CELTYPE
  6
BYLAYER
  9
$CECOLOR
 62
   256
  9
$DIMSCALE
 40
1.0
  9
$DIMASZ
 40
0.1875
  9
$DIMEXO
 40
0.0625
  9
$DIMDLI
 40
0.4443307087
  9
$DIMRND
 40
0.0
  9
$DIMDLE
 40
0.0
  9
$DIMEXE
 40
0.125
  9
$DIMTP
 40
0.01
  9
$DIMTM
 40
0.01
  9
$DIMTXT
 40
2.0
  9
$DIMCEN
 40
0.1052362205
  9
$DIMTSZ
 40
0.0
  9
$DIMTOL
 70
     1
  9
$DIMLIM
 70
     0
  9
$DIMTIH
 70
     1
  9
$DIMTOH
 70
     1
  9
$DIMSE1
 70
     0
  9
$DIMSE2
 70
     0
  9
$DIMTAD
 70
     0
  9
$DIMZIN
 70
     0
  9
$DIMBLK
  1

  9
$DIMASO
 70
     1
  9
$DIMSHO
 70
     1
  9
$DIMPOST
  1
\X
  9
$DIMAPOST
  1

  9
$DIMALT
 70
     1
  9
$DIMALTD
 70
     2
  9
$DIMALTF
 40
25.399999999999999
  9
$DIMLFAC
 40
1.0
  9
$DIMTOFL
 70
     0
  9
$DIMTVP
 40
0.0
  9
$DIMTIX
 70
     0
  9
$DIMSOXD
 70
     0
  9
$DIMSAH
 70
     0
  9
$DIMBLK1
  1

  9
$DIMBLK2
  1

  9
$DIMSTYLE
  2
STANDARD
  9
$DIMCLRD
 70
     0
  9
$DIMCLRE
 70
     0
  9
$DIMCLRT
 70
     0
  9
$DIMTFAC
 40
1.0
  9
$DIMGAP
 40
0.09
  9
$LUNITS
 70
     2
  9
$LUPREC
 70
     4
  9
$SKETCHINC
 40
0.1
  9
$FILLETRAD
 40
0.0
  9
$AUNITS
 70
     0
  9
$AUPREC
 70
     0
  9
$MENU
  1
.
  9
$ELEVATION
 40
0.0
  9
$PELEVATION
 40
0.0
  9
$THICKNESS
 40
0.0
  9
$LIMCHECK
 70
     0
  9
$BLIPMODE
 70
     0
  9
$CHAMFERA
 40
0.0
  9
$CHAMFERB
 40
0.0
  9
$SKPOLY
 70
     0
  9
$TDCREATE
 40
2458060.4683680669
  9
$TDUPDATE
 40
2459297.9779334022
  9
$TDINDWG
 40
1.6772168634
  9
$TDUSRTIMER
 40
1.6772168634
  9
$USRTIMER
 70
     1
  9
$ANGBASE
 50
0.0
  9
$ANGDIR
 70
     0
  9
$PDMODE
 70
     0
  9
$PDSIZE
 40
0.3125
  9
$PLINEWID
 40
0.0
  9
$COORDS
 70
     1
  9
$SPLFRAME
 70
     0
  9
$SPLINETYPE
 70
     6
  9
$SPLINESEGS
 70
     8
  9
$ATTDIA
 70
     1
  9
$ATTREQ
 70
     1
  9
$HANDLING
 70
     1
  9
$HANDSEED
  5
1A265
  9
$SURFTAB1
 70
     6
  9
$SURFTAB2
 70
     6
  9
$SURFTYPE
 70
     6
  9
$SURFU
 70
     6
  9
$SURFV
 70
     6
  9
$UCSNAME
  2

  9
$UCSORG
 10
0.0
 20
0.0
 30
0.0
  9
$UCSXDIR
 10
1.0
 20
0.0
 30
0.0
  9
$UCSYDIR
 10
0.0
 20
1.0
 30
0.0
  9
$PUCSNAME
  2

  9
$PUCSORG
 10
0.0
 20
0.0
 30
0.0
  9
$PUCSXDIR
 10
1.0
 20
0.0
 30
0.0
  9
$PUCSYDIR
 10
0.0
 20
1.0
 30
0.0
  9
$USERI1
 70
     0
  9
$USERI2
 70
     0
  9
$USERI3
 70
     0
  9
$USERI4
 70
     0
  9
$USERI5
 70
     0
  9
$USERR1
 40
0.0
  9
$USERR2
 40
0.0
  9
$USERR3
 40
0.0
  9
$USERR4
 40
0.0
  9
$USERR5
 40
0.0
  9
$WORLDVIEW
 70
     1
  9
$SHADEDGE
 70
     3
  9
$SHADEDIF
 70
    70
  9
$TILEMODE
 70
     1
  9
$MAXACTVP
 70
    64
  9
$PLIMCHECK
 70
     0
  9
$PEXTMIN
 10
1.0000000000000000E+020
 20
1.0000000000000000E+020
 30
1.0000000000000000E+020
  9
$PEXTMAX
 10
-1.0000000000000000E+020
 20
-1.0000000000000000E+020
 30
-1.0000000000000000E+020
  9
$PLIMMIN
 10
0.0
 20
0.0
  9
$PLIMMAX
 10
12.0
 20
9.0
  9
$UNITMODE
 70
     0
  9
$VISRETAIN
 70
     1
  9
$PLINEGEN
 70
     0
  9
$PSLTSCALE
 70
     1
  0
ENDSEC
  0
SECTION
  2
TABLES
  0
TABLE
  2
VPORT
 70
     1
  0
VPORT
  2
*ACTIVE
 70
     0
 10
0.0
 20
0.0
 11
1.0
 21
1.0
 12
632.53374838334594
 22
335.65689488972578
 13
0.0
 23
0.0
 14
1.0
 24
1.0
 15
0.0
 25
0.0
 16
0.0
 26
0.0
 36
60.496018696580158
 17
3911.365356445312
 27
132.57960510253901
 37
0.0
 40
4.7347724960034148
 41
1.944285714285714
 42
50.0
 43
0.0
 44
0.0
 50
0.0
 51
0.0
 71
     0
 72
   100
 73
     1
 74
     1
 75
     0
 76
     0
 77
     0
 78
     0
  0
ENDTAB
  0
TABLE
  2
LTYPE
 70
     2
  0
LTYPE
  2
CONTINUOUS
 70
     0
  3
Solid line
 72
    65
 73
     0
 40
0.0
  0
LTYPE
  2
PHANTOM2
 70
     0
  3
___ _ _ ___ _ _ ___ _ _ ___ _ _
 72
    65
 73
     6
 40
1.25
 49
0.625
 49
-0.125
 49
0.125
 49
-0.125
 49
0.125
 49
-0.125
  0
ENDTAB
  0
TABLE
  2
LAYER
 70
     2
  0
LAYER
  2
0
 70
     0
 62
   255
  6
CONTINUOUS
  0
LAYER
  2
DEFPOINTS
 70
     0
 62
     7
  6
CONTINUOUS
  0
ENDTAB
  0
TABLE
  2
STYLE
 70
     1
  0
STYLE
  2
STANDARD
 70
     0
 40
0.0
 41
0.8
 50
0.0
 71
     0
 42
0.2
  3
txt
  4

  0
ENDTAB
  0
TABLE
  2
VIEW
 70
     0
  0
ENDTAB
  0
TABLE
  2
UCS
 70
     0
  0
ENDTAB
  0
TABLE
  2
APPID
 70
    11
  0
APPID
  2
ACAD
 70
     0
  0
APPID
  2
ACAD_MLEADERVER
 70
     0
  0
APPID
  2
ACAD_EXEMPT_FROM_CAD_STANDARDS
 70
     0
  0
APPID
  2
ACAD_NAV_VCDISPLAY
 70
     0
  0
APPID
  2
ACAECLAYERSTANDARD
 70
     0
  0
APPID
  2
ACCMTRANSPARENCY
 70
     0
  0
APPID
  2
ACAD_DSTYLE_DIMJAG
 70
     0
  0
APPID
  2
ACAD_DSTYLE_DIMTALN
 70
     0
  0
APPID
  2
ACDBATTR
 70
     0
  0
APPID
  2
ACADANNOTATIVE
 70
     0
  0
APPID
  2
DCO15
 70
     0
  0
ENDTAB
  0
TABLE
  2
DIMSTYLE
 70
     1
  0
DIMSTYLE
  2
STANDARD
 70
     0
  3

  4

  5

  6

  7

 40
1.0
 41
0.1875
 42
0.0625
 43
0.38
 44
0.125
 45
0.0
 46
0.0
 47
0.01
 48
0.01
140
0.15625
141
0.09
142
0.0
143
25.399999999999999
144
1.0
145
0.0
146
1.0
147
0.09
 71
     1
 72
     0
 73
     1
 74
     1
 75
     0
 76
     0
 77
     0
 78
     4
170
     0
171
     2
172
     0
173
     0
174
     0
175
     0
176
     0
177
     0
178
     0
  0
ENDTAB
  0
ENDSEC
  0
SECTION
  2
BLOCKS
  0
BLOCK
  8
0
  2
$MODEL_SPACE
 70
     0
 10
0.0
 20
0.0
 30
0.0
  3
$MODEL_SPACE
  1

  0
ENDBLK
  5
21
  8
0
  0
BLOCK
 67
     1
  8
0
  2
$PAPER_SPACE
 70
     0
 10
0.0
 20
0.0
 30
0.0
  3
$PAPER_SPACE
  1

  0
ENDBLK
  5
1D
 67
     1
  8
0
  0
ENDSEC
  0
SECTION
  2
ENTITIES
  0
ATTDEF
  5
194DB
  8
DEFPOINTS
 10
4545.5133398877024
 20
468.71713485571217
 30
0.0
 40
0.001
  1
P24923-SNW
  3

  2
MODELNUMBER
 70
     0
1001
ACDBATTR
1070
     0
1070
     1
  0
ATTDEF
  5
194DC
  8
DEFPOINTS
 10
4545.5133398877024
 20
468.7154680153331
 30
0.0
 40
0.001
  1
PINNA PALETTA
  3

  2
TRADENAME
 70
     0
1001
ACDBATTR
1070
     0
1070
     1
  0
ATTDEF
  5
194DD
  8
DEFPOINTS
 10
4545.5133398877024
 20
468.7138015223789
 30
0.0
 40
0.001
  1
VALVE TRIM
  3

  2
PRODUCT
 70
     0
1001
ACDBATTR
1070
     0
1070
     1
  0
LINE
  5
1A0C1
  8
0
 10
4542.2742031029447
 20
468.99922404643581
 30
0.0
 11
4542.2742031029447
 21
467.83333857496478
 31
0.0
  0
LINE
  5
1A0C3
  8
0
 10
4542.3923176316621
 20
469.11733857496489
 30
0.0
 11
4543.4104638642066
 21
469.11733857496489
 31
0.0
  0
ARC
  5
1A0C4
  8
0
 10
4542.3923176314747
 20
468.99922404643581
 30
0.0
 40
0.1181145285289791
 50
89.999999908650807
 51
180.00000009134271
  0
LINE
  5
1A0C5
  8
0
 10
4542.9904981116033
 20
465.88920471666478
 30
0.0
 11
4542.3649947084878
 21
465.88920471666478
 31
0.0
  0
ARC
  5
1A0C6
  8
0
 10
4542.289203102946
 20
467.83333857496478
 30
0.0
 40
0.0149999999999988
 50
179.9999999999967
 51
270.0
  0
LINE
  5
1A0C7
  8
0
 10
4543.0812897171463
 20
468.19214172456481
 30
0.0
 11
4543.0812897171463
 21
467.83333857496478
 31
0.0
  0
LINE
  5
1A0C8
  8
0
 10
4542.2781007407457
 20
467.8183385749648
 30
0.0
 11
4543.0773920793463
 21
467.8183385749648
 31
0.0
  0
LINE
  5
1A0C9
  8
0
 10
4542.2781007407457
 20
467.8183385749648
 30
0.0
 11
4542.2781007407457
 21
465.9741580778167
 31
0.0
  0
ARC
  5
1A0CA
  8
0
 10
4542.2931007415091
 20
465.9741580778167
 30
0.0
 40
0.0150000007635987
 50
180.000000580169
 51
224.99999834780959
  0
LINE
  5
1A0CB
  8
0
 10
4542.2824941389454
 20
465.96355147586479
 30
0.0
 11
4542.3510752836464
 21
465.8949703312648
 31
0.0
  0
ARC
  5
1A0CC
  8
0
 10
4542.3649947083568
 20
465.90888975562211
 30
0.0
 40
0.0196850389572186
 50
224.9999992699731
 51
270.00000038056078
  0
LINE
  5
1A0CD
  8
0
 10
4543.0773920793463
 20
467.8183385749648
 30
0.0
 11
4543.0773920793463
 21
465.9741580778167
 31
0.0
  0
ARC
  5
1A0CE
  8
0
 10
4543.0623920785811
 20
465.9741580778167
 30
0.0
 40
0.0150000007635987
 50
315.00000165219041
 51
359.99999941982782
  0
LINE
  5
1A0CF
  8
0
 10
4543.0729986811457
 20
465.96355147586479
 30
0.0
 11
4543.0044175364465
 21
465.8949703312648
 31
0.0
  0
ARC
  5
1A0D0
  8
0
 10
4542.9904981117334
 20
465.90888975562211
 30
0.0
 40
0.0196850389572343
 50
269.99999961949118
 51
315.00000073001769
  0
ARC
  5
1A0D1
  8
0
 10
4543.0662897171451
 20
467.83333857496478
 30
0.0
 40
0.0149999999999988
 50
270.0
 51
359.99999999999352
  0
ARC
  5
1A0D2
  8
0
 10
4543.1994042080978
 20
468.19213746981262
 30
0.0
 40
0.1181144910288809
 50
90.002063924106423
 51
179.99793607588381
  0
LINE
  5
1A0D3
  8
0
 10
4543.1993999533461
 20
468.31025196076479
 30
0.0
 11
4543.4104638642066
 21
468.31025196076479
 31
0.0
  0
LINE
  5
1A0D4
  8
0
 10
4542.2824941389454
 20
465.96355147586479
 30
0.0
 11
4543.0729986811457
 21
465.96355147586479
 31
0.0
  0
ARC
  5
1A0D5
  8
0
 10
4543.8263255814127
 20
467.80517194143482
 30
0.0
 40
1.1717110765823411
 50
179.35614809475271
 51
189.5771174342627
  0
ARC
  5
1A0D6
  8
0
 10
4547.2032688785639
 20
468.34799016344698
 30
0.0
 40
4.6162981259203617
 50
186.58834827984501
 51
190.2759946567059
  0
ARC
  5
1A0D7
  8
0
 10
4545.552175582884
 20
468.0285932707647
 30
0.0
 40
2.9699528963531758
 50
184.059590321998
 51
192.6251871200549
  0
ARC
  5
1A0D8
  8
0
 10
4548.3777912403893
 20
468.6525893022374
 30
0.0
 40
5.8846644528415819
 50
188.15010294226011
 51
193.20193195865329
  0
ARC
  5
1A0D9
  8
0
 10
4550.1997502067907
 20
468.8364159708604
 30
0.0
 40
7.7404894601566934
 50
187.5577962047727
 51
192.34712029315119
  0
ARC
  5
1A0DA
  8
0
 10
4548.2346122319614
 20
468.64418288315932
 30
0.0
 40
5.8053098503054361
 50
188.17845372573149
 51
195.12756226012471
  0
ARC
  5
1A0DB
  8
0
 10
4547.9709193755243
 20
468.53199778616289
 30
0.0
 40
5.5554790399717957
 50
187.38063534968001
 51
196.05320726899129
  0
ARC
  5
1A0DC
  8
0
 10
4547.5134851461416
 20
468.4804405119574
 30
0.0
 40
5.1267019484063887
 50
187.42034588300109
 51
197.77511796546099
  0
ARC
  5
1A0DD
  8
0
 10
4547.3346103521662
 20
468.34096973281618
 30
0.0
 40
4.9509980863180258
 50
186.0594757269206
 51
198.53227660406699
  0
ARC
  5
1A0DE
  8
0
 10
4546.8976333084911
 20
468.28258618546278
 30
0.0
 40
4.5383214037452753
 50
185.87134245727989
 51
197.8054352643212
  0
ARC
  5
1A0DF
  8
0
 10
4561.8013619627027
 20
473.06920957435921
 30
0.0
 40
20.19184788391976
 50
197.8054352643212
 51
198.38104302760291
  0
ARC
  5
1A0E0
  8
0
 10
4547.0895273157894
 20
468.23193643800772
 30
0.0
 40
4.7379112712047924
 50
185.0080324278774
 51
200.1754588519882
  0
ARC
  5
1A0E1
  8
0
 10
4547.1381956019441
 20
468.26992982434763
 30
0.0
 40
4.8130200909206833
 50
185.3838104578702
 51
200.93515913022699
  0
ARC
  5
1A0E2
  8
0
 10
4546.7153982964919
 20
468.1104482642661
 30
0.0
 40
4.3912584660782477
 50
183.81417318620211
 51
202.1292722204029
  0
ARC
  5
1A0E3
  8
0
 10
4546.588083901901
 20
468.07439994386363
 30
0.0
 40
4.2803866209260368
 50
183.4295968451458
 51
202.98953632908581
  0
ARC
  5
1A0E4
  8
0
 10
4546.0415346044438
 20
467.91051933685191
 30
0.0
 40
3.7377482652725349
 50
181.4131781416236
 51
204.96196108910169
  0
ARC
  5
1A0E5
  8
0
 10
4546.0350492901189
 20
467.86647343773529
 30
0.0
 40
3.7434055769801482
 50
180.73676240356559
 51
205.63480506924051
  0
ARC
  5
1A0E6
  8
0
 10
4546.2702081351936
 20
467.85577082958861
 30
0.0
 40
3.9858957710977299
 50
180.5380827440527
 51
205.3291098762632
  0
ARC
  5
1A0E7
  8
0
 10
4546.0735034889622
 20
467.73862659177712
 30
0.0
 40
3.791223320846802
 50
178.79524459720179
 51
206.0887768718311
  0
ARC
  5
1A0E8
  8
0
 10
4546.1578825250626
 20
467.63341983072718
 30
0.0
 40
3.8811072246783769
 50
181.4974497771633
 51
195.76226580514759
  0
ARC
  5
1A0E9
  8
0
 10
4544.7320803086022
 20
467.23097248525102
 30
0.0
 40
2.3995958928465342
 50
195.76226580514759
 51
210.73517102736059
  0
ARC
  5
1A0EA
  8
0
 10
4544.9983378009902
 20
467.33810273218472
 30
0.0
 40
2.7121864995920841
 50
179.4895266987204
 51
209.3846086566387
  0
ARC
  5
1A0EB
  8
0
 10
4544.7181150206879
 20
467.19821150003378
 30
0.0
 40
2.4401637916511389
 50
180.63426093234449
 51
209.2118089642712
  0
ARC
  5
1A0EC
  8
0
 10
4544.5951691591126
 20
467.11096306045539
 30
0.0
 40
2.3184328630003952
 50
181.96580134695549
 51
208.4265672967874
  0
ARC
  5
1A0ED
  8
0
 10
4544.2435565558753
 20
466.9475198216997
 30
0.0
 40
1.9681907938067811
 50
183.02086493602769
 51
208.5352957784601
  0
ARC
  5
1A0EE
  8
0
 10
4544.1272559292984
 20
466.88798413529821
 30
0.0
 40
1.8537305639109269
 50
184.02640129383531
 51
208.36449948453031
  0
ARC
  5
1A0EF
  8
0
 10
4544.4180131328267
 20
466.78218541947058
 30
0.0
 40
2.1407333016573742
 50
181.58678427442729
 51
195.1734261464768
  0
ARC
  5
1A0F0
  8
0
 10
4543.2099015239137
 20
466.4957869089975
 30
0.0
 40
0.9006562537138863
 50
197.7060846002357
 51
212.8438329351616
  0
ARC
  5
1A0F1
  8
0
 10
4543.1799098939764
 20
466.45507170131452
 30
0.0
 40
0.8818331877648438
 50
185.4580725570855
 51
210.51528885952021
  0
ARC
  5
1A0F2
  8
0
 10
4546.1125377294893
 20
466.83958562848181
 30
0.0
 40
3.8391428451312741
 50
182.83716243336079
 51
187.00778463405371
  0
ARC
  5
1A0F3
  8
0
 10
4543.8263149112527
 20
466.5193396242758
 30
0.0
 40
1.547959490945924
 50
176.87833584118849
 51
194.6971337195925
  0
ARC
  5
1A0F4
  8
0
 10
4542.8079931417524
 20
466.25224235713767
 30
0.0
 40
0.4951916265274574
 50
194.6971337195925
 51
209.64418227832559
  0
ARC
  5
1A0F5
  8
0
 10
4543.5448036207408
 20
466.4432639308111
 30
0.0
 40
1.2664917090554719
 50
178.32904520719961
 51
200.13407231385889
  0
ARC
  5
1A0F6
  8
0
 10
4543.0884408881038
 20
466.29484331091692
 30
0.0
 40
0.8128469673873349
 50
184.50097385389211
 51
200.71562626596551
  0
ARC
  5
1A0F7
  8
0
 10
4543.2232861679622
 20
466.2207529883247
 30
0.0
 40
0.9447219108512333
 50
179.72484441451479
 51
193.05738204510459
  0
ARC
  5
1A0F8
  8
0
 10
4543.1989205728196
 20
466.1551251273201
 30
0.0
 40
0.9242541845654749
 50
184.94081875257521
 51
189.20246676724659
  0
ARC
  5
1A0F9
  8
0
 10
4568.3620279260394
 20
467.12467447975831
 30
0.0
 40
26.105518124861579
 50
182.3304359946201
 51
182.4586076268383
  0
ARC
  5
1A0FA
  8
0
 10
4542.0168241320262
 20
467.78013794249409
 30
0.0
 40
0.6849806747387552
 50
345.31145043552482
 51
3.1969824027591649
  0
ARC
  5
1A0FB
  8
0
 10
4541.6594326079639
 20
467.88993517972523
 30
0.0
 40
1.082905534191769
 50
340.11390451026591
 51
356.20910814211612
  0
ARC
  5
1A0FC
  8
0
 10
4540.8095659643932
 20
468.10761294542499
 30
0.0
 40
1.988393872822505
 50
340.41793827852791
 51
351.63484167380687
  0
ARC
  5
1A0FD
  8
0
 10
4544.6454656344276
 20
466.74306358956051
 30
0.0
 40
2.082984422443896
 50
160.41793827852791
 51
162.25873687400241
  0
ARC
  5
1A0FE
  8
0
 10
4540.5032827434461
 20
468.1604026003161
 30
0.0
 40
2.3206336682869471
 50
338.37751406924662
 51
351.52365185170021
  0
ARC
  5
1A0FF
  8
0
 10
4540.6298894115826
 20
468.08702356073098
 30
0.0
 40
2.2166443552081421
 50
340.9513803904257
 51
353.03791591711149
  0
ARC
  5
1A100
  8
0
 10
4540.2036117814132
 20
468.23420745239878
 30
0.0
 40
2.6676163232402641
 50
336.6695511465461
 51
340.9513803904257
  0
ARC
  5
1A101
  8
0
 10
4539.2305325470006
 20
468.43502906398942
 30
0.0
 40
3.6844514096874601
 50
345.45870244062979
 51
350.36468334745621
  0
ARC
  5
1A102
  8
0
 10
4540.0060348504358
 20
468.37249466484479
 30
0.0
 40
2.9209953383407021
 50
334.77313720749612
 51
342.87951709814598
  0
ARC
  5
1A103
  8
0
 10
4539.9353859207758
 20
468.23777896552178
 30
0.0
 40
2.9880723564168332
 50
344.70411693013261
 51
351.93065237169662
  0
ARC
  5
1A104
  8
0
 10
4540.541261211024
 20
468.06172577156269
 30
0.0
 40
2.3572370191213272
 50
333.1903457980514
 51
344.94680622225241
  0
ARC
  5
1A105
  8
0
 10
4540.0866461315109
 20
468.20547697821399
 30
0.0
 40
2.8651778031536601
 50
333.20739699189801
 51
352.23453027468321
  0
ARC
  5
1A106
  8
0
 10
4539.9605978033933
 20
468.16070844862588
 30
0.0
 40
3.0029112630693811
 50
335.1402092903258
 51
353.45332044523531
  0
ARC
  5
1A107
  8
0
 10
4543.0736220669232
 20
466.71834522955902
 30
0.0
 40
0.4280261774922977
 50
155.1402092903258
 51
173.64273481678759
  0
ARC
  5
1A108
  8
0
 10
4539.2632304708341
 20
468.27178261826941
 30
0.0
 40
3.7363211701736581
 50
335.16989447801927
 51
353.02933802838692
  0
ARC
  5
1A109
  8
0
 10
4540.616950691664
 20
467.92957816203932
 30
0.0
 40
2.3709201889570171
 50
343.06608542295709
 51
357.31079114930759
  0
ARC
  5
1A10A
  8
0
 10
4538.9642922381681
 20
468.4327629272874
 30
0.0
 40
4.0984834647554722
 50
336.91788794948422
 51
343.06608542295709
  0
ARC
  5
1A10B
  8
0
 10
4544.3795052018122
 20
466.12497682731617
 30
0.0
 40
1.787976262859134
 50
156.91788794948721
 51
164.64544974043699
  0
ARC
  5
1A10C
  8
0
 10
4544.4257189806913
 20
465.98115003973078
 30
0.0
 40
1.8562233540497319
 50
154.4291365486587
 51
162.20113566004491
  0
ARC
  5
1A10D
  8
0
 10
4539.8386362676529
 20
468.04007689947338
 30
0.0
 40
3.1726246436114378
 50
336.6446729858414
 51
346.35088321215852
  0
ARC
  5
1A10E
  8
0
 10
4539.7525166173564
 20
468.0609895987256
 30
0.0
 40
3.2612470739393902
 50
346.35088321215852
 51
355.73300058259008
  0
ARC
  5
1A10F
  8
0
 10
4540.3670404705936
 20
467.905238570005
 30
0.0
 40
2.65516528408105
 50
345.72170386523732
 51
358.1244511205885
  0
ARC
  5
1A110
  8
0
 10
4540.8963515195728
 20
467.63053693265221
 30
0.0
 40
2.0788866230020151
 50
338.43116705049698
 51
349.46356143972667
  0
ARC
  5
1A111
  8
0
 10
4538.5594984603467
 20
468.3168200672236
 30
0.0
 40
4.50980637749847
 50
335.59756570454027
 51
341.23804467702331
  0
ARC
  5
1A112
  8
0
 10
4539.7311108260737
 20
467.8788696443213
 30
0.0
 40
3.2884058061391701
 50
333.30987883402429
 51
341.33068941040972
  0
ARC
  5
1A113
  8
0
 10
4539.2409530425402
 20
468.04448633036588
 30
0.0
 40
3.8057872316422929
 50
341.33068941040972
 51
348.32064653040908
  0
ARC
  5
1A114
  8
0
 10
4538.4168022668828
 20
468.14512635934858
 30
0.0
 40
4.633750742734617
 50
349.1649527368005
 51
355.95595077465322
  0
ARC
  5
1A115
  8
0
 10
4538.6142186074603
 20
468.02022218934189
 30
0.0
 40
4.4396828619333686
 50
347.44742863684201
 51
357.3937172007831
  0
ARC
  5
1A116
  8
0
 10
4540.3330793467658
 20
467.63750495763247
 30
0.0
 40
2.6787300742146001
 50
337.2766144284127
 51
347.44742863684201
  0
ARC
  5
1A117
  8
0
 10
4540.1692750677848
 20
467.70610434172397
 30
0.0
 40
2.8563186924044541
 50
331.22599316749682
 51
337.2766144284127
  0
ARC
  5
1A118
  8
0
 10
4545.3552522165983
 20
465.09847338486071
 30
0.0
 40
2.9142547913307659
 50
153.32918071182331
 51
156.79734398664681
  0
ARC
  5
1A119
  8
0
 10
4540.5632410596909
 20
467.50554676789909
 30
0.0
 40
2.448335366349121
 50
333.32918071182343
 51
345.94982195077438
  0
ARC
  5
1A11A
  8
0
 10
4538.5794125252132
 20
468.00201656310583
 30
0.0
 40
4.4933434132193621
 50
345.94982195077438
 51
349.87506562977097
  0
ARC
  5
1A11B
  8
0
 10
4537.8564167874711
 20
468.00813608323881
 30
0.0
 40
5.207563229226805
 50
351.20730243859731
 51
357.91130617348892
  0
ARC
  5
1A11C
  8
0
 10
4526.4555202118427
 20
473.02454458038829
 30
0.0
 40
17.623125142790158
 50
337.05030570616123
 51
337.8673242355984
  0
ARC
  5
1A11D
  8
0
 10
4519.2116955989468
 20
475.97077015851869
 30
0.0
 40
25.443178862530718
 50
337.8673242355984
 51
338.69546058473361
  0
ARC
  5
1A11E
  8
0
 10
4540.851520664055
 20
467.41873735431551
 30
0.0
 40
2.1775471625671372
 50
341.46766051225057
 51
353.0514956990113
  0
ARC
  5
1A11F
  8
0
 10
4537.1774707274189
 20
467.98970689154322
 30
0.0
 40
5.894955331741297
 50
351.86272474238768
 51
358.33415790429513
  0
ARC
  5
1A120
  8
0
 10
4537.8195450730864
 20
467.8496089010809
 30
0.0
 40
5.2533970739855906
 50
349.80936718562202
 51
359.65895052944899
  0
ARC
  5
1A121
  8
0
 10
4539.9416867561249
 20
467.5651603003073
 30
0.0
 40
3.115871143356383
 50
337.61017823023889
 51
348.05307404215472
  0
ARC
  5
1A122
  8
0
 10
4660.6425464964132
 20
413.56108150682502
 30
0.0
 40
129.11693891484771
 50
155.85388508676871
 51
156.00286100617069
  0
ARC
  5
1A123
  8
0
 10
4539.7099431914403
 20
467.60978498378449
 30
0.0
 40
3.3812213475686401
 50
331.71013113091942
 51
345.788449605599
  0
ARC
  5
1A124
  8
0
 10
4539.8648282445274
 20
467.48370341731521
 30
0.0
 40
3.2012305117761399
 50
347.29560751088218
 51
356.10593026355951
  0
ARC
  5
1A125
  8
0
 10
4630.0264823145098
 20
463.64117088667678
 30
0.0
 40
87.043335627245938
 50
177.3434244250183
 51
177.6130881688463
  0
ARC
  5
1A126
  8
0
 10
4537.5617997325462
 20
467.61006816067919
 30
0.0
 40
5.5152823394526456
 50
353.91585139194979
 51
0.6805419404548017
  0
ARC
  5
1A127
  8
0
 10
4540.307883823848
 20
467.31736481458449
 30
0.0
 40
2.7536427747527421
 50
343.94941281842688
 51
353.91585139194979
  0
ARC
  5
1A128
  8
0
 10
4540.1454488302634
 20
467.42859914569061
 30
0.0
 40
2.9411537388803328
 50
331.10276565860693
 51
342.74176849126201
  0
ARC
  5
1A129
  8
0
 10
4540.8932445297014
 20
467.08554143696352
 30
0.0
 40
2.1620168989407111
 50
330.08509762264782
 51
348.21110326361082
  0
ARC
  5
1A12A
  8
0
 10
4540.2987845359221
 20
467.20961037758173
 30
0.0
 40
2.769286020689202
 50
348.21110326361082
 51
357.22942342422363
  0
ARC
  5
1A12B
  8
0
 10
4699.9390786125086
 20
459.48407244633881
 30
0.0
 40
157.05783129419689
 50
177.13836397194979
 51
177.22942342422351
  0
ARC
  5
1A12C
  8
0
 10
4535.6792187013416
 20
467.44391604523219
 30
0.0
 40
7.3988345228950401
 50
354.70184152426748
 51
359.07955516623292
  0
ARC
  5
1A12D
  8
0
 10
4541.0668676896348
 20
466.98982048781579
 30
0.0
 40
1.9927885087371611
 50
341.9372840995178
 51
353.39835271271318
  0
ARC
  5
1A12E
  8
0
 10
4541.0636440953404
 20
466.99087179954591
 30
0.0
 40
1.9961792043200861
 50
330.48050284732102
 51
341.9372840995178
  0
ARC
  5
1A12F
  8
0
 10
4552.8255715054611
 20
461.61602807475703
 30
0.0
 40
10.9097663480647
 50
155.09266552855379
 51
156.2648332454217
  0
ARC
  5
1A130
  8
0
 10
4540.8750815493268
 20
466.97295663764783
 30
0.0
 40
2.1922299687630562
 50
339.65270937016891
 51
348.5578423913642
  0
ARC
  5
1A131
  8
0
 10
4540.1534898979207
 20
467.08973688787819
 30
0.0
 40
2.9227878306274899
 50
349.1202457964543
 51
357.00039516708432
  0
ARC
  5
1A132
  8
0
 10
4539.8002252703163
 20
467.1523767501518
 30
0.0
 40
3.279142460546761
 50
356.23038039123372
 51
358.01100145115129
  0
ARC
  5
1A133
  8
0
 10
4541.9008731846297
 20
466.63568621438338
 30
0.0
 40
1.1446266803882099
 50
326.70331728489379
 51
351.21759362554297
  0
ARC
  5
1A134
  8
0
 10
4538.9353446541763
 20
467.07011361521887
 30
0.0
 40
4.1417811071431521
 50
351.54199445697492
 51
359.3695812667915
  0
ARC
  5
1A135
  8
0
 10
4540.8274210605996
 20
466.81212170899369
 30
0.0
 40
2.250302660589572
 50
344.5196194914609
 51
359.01631248727762
  0
ARC
  5
1A136
  8
0
 10
4542.4285682521931
 20
466.36867467748328
 30
0.0
 40
0.5888823047189528
 50
322.14709854414878
 51
344.5196194914609
  0
ARC
  5
1A137
  8
0
 10
4542.0413833667617
 20
466.48209578372592
 30
0.0
 40
1.0168696953692511
 50
332.16648325244972
 51
351.41718463447228
  0
ARC
  5
1A138
  8
0
 10
4540.4810663208054
 20
466.71759288506058
 30
0.0
 40
2.5948583419190112
 50
351.41718463447228
 51
0.0986602183610655
  0
ARC
  5
1A139
  8
0
 10
4542.3470291570538
 20
466.35792955077238
 30
0.0
 40
0.7114338138552228
 50
330.47337913210072
 51
351.80196339880308
  0
ARC
  5
1A13A
  8
0
 10
4540.0227159125507
 20
466.6927869033172
 30
0.0
 40
3.05974416496483
 50
351.80196339880308
 51
355.44562180880041
  0
ARC
  5
1A13B
  8
0
 10
4541.5105213761271
 20
466.57427317706407
 30
0.0
 40
1.567225957116769
 50
355.44562180880041
 51
358.78002915424872
  0
ARC
  5
1A13C
  8
0
 10
4542.5259023110793
 20
466.28288514023791
 30
0.0
 40
0.5404019077503282
 50
329.34044351912092
 51
356.60361409179143
  0
ARC
  5
1A13D
  8
0
 10
4532.8901121682748
 20
466.85474661083708
 30
0.0
 40
10.19314645102453
 50
356.60361409179143
 51
358.05600409283369
  0
ARC
  5
1A13E
  8
0
 10
4542.6898523947812
 20
466.19349744768061
 30
0.0
 40
0.3772569797814897
 50
330.4279653238226
 51
352.80090730628427
  0
ARC
  5
1A13F
  8
0
 10
4539.7541955759089
 20
466.56430991959371
 30
0.0
 40
3.3362403943200158
 50
352.80090730628427
 51
354.93179537360788
  0
ARC
  5
1A140
  8
0
 10
4542.2703715542402
 20
466.23349063521022
 30
0.0
 40
0.8084424874484859
 50
343.75373469396112
 51
356.60123771889539
  0
ARC
  5
1A141
  8
0
 10
4542.0320585911804
 20
466.17643172033797
 30
0.0
 40
1.051052737635525
 50
350.74073122623082
 51
354.02012609866119
  0
ARC
  5
1A142
  8
0
 10
4542.3560282475783
 20
466.00860416488439
 30
0.0
 40
0.0755829219559036
 50
182.8776788264754
 51
203.8477665729182
  0
ARC
  5
1A143
  8
0
 10
4542.1894572287028
 20
465.99156267215773
 30
0.0
 40
0.0983742541606827
 50
352.10218838714218
 51
9.2142348528524902
  0
ARC
  5
1A144
  8
0
 10
4542.3455814660319
 20
466.0155975928626
 30
0.0
 40
0.0433886291383018
 50
191.00489895285639
 51
242.2140902690019
  0
ARC
  5
1A145
  8
0
 10
4542.2976901941774
 20
465.99496027416677
 30
0.0
 40
0.0328686658284109
 50
327.31774275033979
 51
22.09069755464818
  0
ARC
  5
1A146
  8
0
 10
4542.4114395972783
 20
466.02618548596922
 30
0.0
 40
0.058840204755009
 50
198.70614427661511
 51
236.8485560203213
  0
ARC
  5
1A147
  8
0
 10
4542.3528558724356
 20
465.99073199189678
 30
0.0
 40
0.0297994747556061
 50
332.39306259748611
 51
33.812086434331263
  0
ARC
  5
1A148
  8
0
 10
4542.4787064996308
 20
466.03748293405022
 30
0.0
 40
0.0658167140619922
 50
207.29150870673899
 51
246.37673844297521
  0
ARC
  5
1A149
  8
0
 10
4542.4311959829238
 20
465.99287970396028
 30
0.0
 40
0.026328219673243
 50
323.39861348728402
 51
33.253243776197593
  0
ARC
  5
1A14A
  8
0
 10
4542.5305383608011
 20
466.02016509231157
 30
0.0
 40
0.0367776176868094
 50
200.44975761078689
 51
251.77039420046549
  0
ARC
  5
1A14B
  8
0
 10
4542.485419126795
 20
465.98977990863409
 30
0.0
 40
0.0339203350213307
 50
352.29705330376402
 51
31.127896718729531
  0
ARC
  5
1A14C
  8
0
 10
4542.6364167753663
 20
466.06174231046771
 30
0.0
 40
0.0968769355345831
 50
214.1818809285667
 51
239.64300829873611
  0
ARC
  5
1A14D
  8
0
 10
4542.5598763844328
 20
465.9935291314282
 30
0.0
 40
0.0315792182119034
 50
330.85184421200398
 51
25.88394617037601
  0
ARC
  5
1A14E
  8
0
 10
4542.6973169130342
 20
466.04720307333048
 30
0.0
 40
0.0739172468995872
 50
212.65856438549099
 51
246.07360714659669
  0
ARC
  5
1A14F
  8
0
 10
4542.6463539807683
 20
465.99406547419119
 30
0.0
 40
0.0254661275254057
 50
325.4902785384329
 51
24.458879285960521
  0
ARC
  5
1A150
  8
0
 10
4542.7087434133909
 20
465.99534776444739
 30
0.0
 40
0.0245429410587887
 50
150.8187882061118
 51
220.6727166656953
  0
ARC
  5
1A151
  8
0
 10
4542.6738737037749
 20
466.0273038476347
 30
0.0
 40
0.0506319281793861
 50
288.72627359003201
 51
336.74808198354839
  0
ARC
  5
1A152
  8
0
 10
4542.7965910810262
 20
465.99171411271863
 30
0.0
 40
0.0332665453561994
 50
152.0326421421432
 51
198.4758443439471
  0
ARC
  5
1A153
  8
0
 10
4542.7555110823823
 20
466.03155408666743
 30
0.0
 40
0.0512753457410498
 50
280.70907426362709
 51
331.78870111167259
  0
ARC
  5
1A154
  8
0
 10
4542.8845930654952
 20
465.99035634902413
 30
0.0
 40
0.0490200251334828
 50
159.75999980098319
 51
188.12189961686281
  0
ARC
  5
1A155
  8
0
 10
4542.7821419348666
 20
466.05369089430991
 30
0.0
 40
0.0885671809980773
 50
307.50530526061141
 51
328.42468165723233
  0
ARC
  5
1A156
  8
0
 10
4542.9080847865362
 20
465.99842194829688
 30
0.0
 40
0.0170454788750685
 50
148.55160906973379
 51
221.5959843524121
  0
ARC
  5
1A157
  8
0
 10
4542.9110564973062
 20
466.00105998415171
 30
0.0
 40
0.0210191796783344
 50
221.5959843524121
 51
317.86009272263988
  0
ARC
  5
1A158
  8
0
 10
4542.8582122334583
 20
466.04887533987261
 30
0.0
 40
0.0922850513447076
 50
317.86009272263988
 51
333.23418332391941
  0
ARC
  5
1A159
  8
0
 10
4543.0110738423664
 20
465.97944476077981
 30
0.0
 40
0.0529376198656338
 50
148.23237042151541
 51
167.2337389159832
  0
ARC
  5
1A15A
  8
0
 10
4542.9687165719633
 20
465.98904187026119
 30
0.0
 40
0.0095067222648263
 50
167.23373891598001
 51
293.83183060160331
  0
ARC
  5
1A15B
  8
0
 10
4542.821567493007
 20
466.1018977344649
 30
0.0
 40
0.1938374584080864
 50
321.16482880116382
 51
330.79410073596472
  0
ARC
  5
1A15C
  8
0
 10
4543.0438506652372
 20
465.99386868506753
 30
0.0
 40
0.0291683020938176
 50
152.5499292037679
 51
211.045853960073
  0
ARC
  5
1A15D
  8
0
 10
4542.9947129650564
 20
466.0299620302597
 30
0.0
 40
0.0565509659659776
 50
295.27771903698419
 51
336.39298673635273
  0
ARC
  5
1A15E
  8
0
 10
4543.1430503353859
 20
465.9911571898661
 30
0.0
 40
0.07538580248741
 50
167.6234958144158
 51
189.90879339652949
  0
ARC
  5
1A15F
  8
0
 10
4542.8204167504709
 20
466.04863438029219
 30
0.0
 40
0.2581703982975912
 50
344.16426979030223
 51
350.7904597044805
  0
ARC
  5
1A160
  8
0
 10
4543.7987901569222
 20
465.94186176731301
 30
0.0
 40
0.7264854883457217
 50
173.2153675444018
 51
174.83085802248721
  0
ARC
  5
1A161
  8
0
 10
4542.6766241493824
 20
467.61157504874808
 30
0.0
 40
0.0058364354346171
 50
193.33842466422331
 51
298.6063806659368
  0
ARC
  5
1A162
  8
0
 10
4542.6701111554739
 20
467.52718733962291
 30
0.0
 40
0.0094862665829847
 50
196.52681398210791
 51
323.79028312050872
  0
ARC
  5
1A163
  8
0
 10
4542.6581747856699
 20
467.3803685503151
 30
0.0
 40
0.0042428807825656
 50
192.58555273181349
 51
322.5515148162774
  0
ARC
  5
1A164
  8
0
 10
4542.6559372466972
 20
467.31159787212943
 30
0.0
 40
0.0078679458162515
 50
202.17773553114679
 51
306.50587228086772
  0
ARC
  5
1A165
  8
0
 10
4542.6462923272438
 20
467.18197656907108
 30
0.0
 40
0.0080285237607944
 50
185.2827132578843
 51
328.16663127093329
  0
ARC
  5
1A166
  8
0
 10
4542.6398315228143
 20
467.13248807096909
 30
0.0
 40
0.0099272171502189
 50
199.4807972057867
 51
330.21210507991879
  0
ARC
  5
1A167
  8
0
 10
4542.6377174671106
 20
467.00123224778542
 30
0.0
 40
0.0078733749854541
 50
224.21531575760031
 51
340.0513867671404
  0
ARC
  5
1A168
  8
0
 10
4542.6379974284564
 20
466.91577128569349
 30
0.0
 40
0.0064896067585201
 50
183.7065516648951
 51
343.81922939755572
  0
ARC
  5
1A169
  8
0
 10
4542.6445885676512
 20
466.76801694825411
 30
0.0
 40
0.0042931650417566
 50
188.93306550417091
 51
327.96317521092112
  0
ARC
  5
1A16A
  8
0
 10
4542.6467082498357
 20
466.7064042638026
 30
0.0
 40
0.0082759647639873
 50
212.0565414561309
 51
334.12823982694812
  0
ARC
  5
1A16B
  8
0
 10
4542.6487423026983
 20
466.60036758444068
 30
0.0
 40
0.0068889267453666
 50
201.4453457128788
 51
343.5546830761333
  0
ARC
  5
1A16C
  8
0
 10
4542.6512441224268
 20
466.55524137319611
 30
0.0
 40
0.0097527897984195
 50
211.23656990378171
 51
316.70841080604117
  0
ARC
  5
1A16D
  8
0
 10
4542.6578387961663
 20
466.46075738437793
 30
0.0
 40
0.0111634132840936
 50
203.69116407726131
 51
320.28685232091817
  0
ARC
  5
1A16E
  8
0
 10
4542.6586315160876
 20
466.40846725838497
 30
0.0
 40
0.012421710142054
 50
207.98106930536011
 51
327.71799845122098
  0
ARC
  5
1A16F
  8
0
 10
4542.6635048974294
 20
466.33818257227438
 30
0.0
 40
0.011715142291219
 50
205.5599140289074
 51
323.40169195636901
  0
ARC
  5
1A170
  8
0
 10
4542.6684996038648
 20
466.25169996819778
 30
0.0
 40
0.0096426741503823
 50
209.50616785594519
 51
328.38121595326942
  0
ARC
  5
1A171
  8
0
 10
4542.6751747588914
 20
466.15474316233622
 30
0.0
 40
0.0087563059154628
 50
208.71398903753169
 51
347.75976859626968
  0
ARC
  5
1A172
  8
0
 10
4542.6770279343718
 20
466.07655393803049
 30
0.0
 40
0.0099257494096532
 50
211.37730877111261
 51
331.26352100399117
  0
LINE
  5
1A173
  8
0
 10
4545.4333371264447
 20
466.84379526786478
 30
0.0
 11
4544.9716352285959
 21
466.84379526786478
 31
0.0
  0
LINE
  5
1A174
  8
0
 10
4545.5033371264362
 20
470.58379526786479
 30
0.0
 11
4544.9716352285959
 21
470.58379526786479
 31
0.0
  0
LINE
  5
1A175
  8
0
 10
4545.5133371264455
 20
470.57379526784251
 30
0.0
 11
4545.5133371264455
 21
466.85551241229041
 31
0.0
  0
LINE
  5
1A176
  8
0
 10
4544.8234158666464
 20
470.42486374206089
 30
0.0
 11
4544.8234158666464
 21
467.00272679366878
 31
0.0
  0
LINE
  5
1A177
  8
0
 10
4544.626565472945
 20
469.60273853654547
 30
0.0
 11
4544.626565472945
 21
467.8248519991842
 31
0.0
  0
LINE
  5
1A178
  8
0
 10
4543.4454631107446
 20
469.42973853654257
 30
0.0
 11
4543.4454631107446
 21
467.99785199918711
 31
0.0
  0
LINE
  5
1A179
  8
0
 10
4543.4254638666453
 20
469.1023487410892
 30
0.0
 11
4543.4254638666453
 21
468.32524179464048
 31
0.0
  0
ARC
  5
1A17A
  8
0
 10
4544.9716352285959
 20
470.54379526762619
 30
0.0
 40
0.0400000002386007
 50
90.000000072172654
 51
137.69999973345199
  0
LINE
  5
1A17B
  8
0
 10
4544.9420499847447
 20
470.57071576846482
 30
0.0
 11
4544.8338306228443
 21
470.45178424256488
 31
0.0
  0
ARC
  5
1A17C
  8
0
 10
4544.8634158664481
 20
470.42486374210159
 30
0.0
 40
0.039999999802919
 50
137.69999989261751
 51
180.00000005839269
  0
LINE
  5
1A17D
  8
0
 10
4544.9420499847447
 20
470.57071576846482
 30
0.0
 11
4544.9420499847447
 21
466.8568747672648
 31
0.0
  0
LINE
  5
1A17E
  8
0
 10
4544.7217228137433
 20
469.6980472363648
 30
0.0
 11
4544.8134158666453
 21
469.6980472363648
 31
0.0
  0
LINE
  5
1A17F
  8
0
 10
4544.5865654729459
 20
469.54079526786489
 30
0.0
 11
4543.5565198423428
 21
469.54079526786489
 31
0.0
  0
ARC
  5
1A180
  8
0
 10
4543.5565198423428
 20
469.50079526737682
 30
0.0
 40
0.0400000004880488
 50
90.000000139030035
 51
134.99999960398861
  0
LINE
  5
1A181
  8
0
 10
4543.528235570946
 20
469.5290795391648
 30
0.0
 11
4543.4571788395451
 21
469.4580228076648
 31
0.0
  0
ARC
  5
1A182
  8
0
 10
4543.4854631103044
 20
469.42973853655252
 30
0.0
 40
0.0399999995591126
 50
134.99999964227999
 51
180.0000000142326
  0
ARC
  5
1A183
  8
0
 10
4543.4104638642066
 20
469.10233856907701
 30
0.0
 40
0.0150000058877916
 50
0.0388542122598783
 51
90.000000000052125
  0
ARC
  5
1A184
  8
0
 10
4544.5869526092556
 20
469.58040656435492
 30
0.0
 40
0.0396131882602251
 50
269.4400443204068
 51
0.2319381780549374
  0
ARC
  5
1A185
  8
0
 10
4544.6665654725157
 20
469.60273853654547
 30
0.0
 40
0.0399999995716523
 50
134.9999996458358
 51
180.00055989521061
  0
LINE
  5
1A186
  8
0
 10
4544.6382812017446
 20
469.63102280766481
 30
0.0
 11
4544.6934385423447
 21
469.68633150766482
 31
0.0
  0
ARC
  5
1A187
  8
0
 10
4544.7217228137433
 20
469.65804723587678
 30
0.0
 40
0.0400000004880295
 50
90.000000139030035
 51
134.9999996040323
  0
ARC
  5
1A188
  8
0
 10
4544.8134158666453
 20
469.68804723636481
 30
0.0
 40
0.0100000000000087
 50
0.0000000000097707
 51
89.999999999947889
  0
ARC
  5
1A189
  8
0
 10
4545.5033371264453
 20
470.5737952678648
 30
0.0
 40
0.0100000000000034
 50
359.99999987212482
 51
90.000000052943975
  0
ARC
  5
1A18A
  8
0
 10
4544.9716352285959
 20
466.88379526810348
 30
0.0
 40
0.0400000002386007
 50
222.30000026654801
 51
269.99999992782739
  0
LINE
  5
1A18B
  8
0
 10
4544.9420499847447
 20
466.8568747672648
 30
0.0
 11
4544.8338306228443
 21
466.97580629316479
 31
0.0
  0
ARC
  5
1A18C
  8
0
 10
4544.8634158664481
 20
467.00272679362803
 30
0.0
 40
0.0399999998028786
 50
179.9999999415877
 51
222.30000010742961
  0
LINE
  5
1A18D
  8
0
 10
4544.7217228137433
 20
467.72954329936482
 30
0.0
 11
4544.8134158666453
 21
467.72954329936482
 31
0.0
  0
ARC
  5
1A18E
  8
0
 10
4543.5565198423428
 20
467.92679526835292
 30
0.0
 40
0.0400000004880488
 50
225.00000039601139
 51
269.9999998609178
  0
LINE
  5
1A18F
  8
0
 10
4543.528235570946
 20
467.89851099656482
 30
0.0
 11
4543.4571788395451
 21
467.96956772806487
 31
0.0
  0
ARC
  5
1A190
  8
0
 10
4543.4854631103044
 20
467.9978519991771
 30
0.0
 40
0.0399999995591163
 50
179.99999998577059
 51
225.0000003577199
  0
ARC
  5
1A191
  8
0
 10
4543.4104638642066
 20
468.32525196665267
 30
0.0
 40
0.0150000058877939
 50
270.0
 51
359.96114578773029
  0
ARC
  5
1A192
  8
0
 10
4544.6665654725039
 20
467.8248519991771
 30
0.0
 40
0.0399999995591021
 50
179.99999998981889
 51
225.0000003577222
  0
LINE
  5
1A193
  8
0
 10
4544.6382812017446
 20
467.79656772806482
 30
0.0
 11
4544.6934385423447
 21
467.7412590280648
 31
0.0
  0
ARC
  5
1A194
  8
0
 10
4544.7217228137433
 20
467.7695432998529
 30
0.0
 40
0.0400000004880295
 50
225.0000003959677
 51
269.99999986096998
  0
ARC
  5
1A195
  8
0
 10
4545.5033319920913
 20
466.85551241225181
 30
0.0
 40
0.0100051343540088
 50
270.04838124094061
 51
0.0000002209016851
  0
LINE
  5
1A196
  8
0
 10
4544.6934385423447
 20
469.68633150766482
 30
0.0
 11
4544.6934385423447
 21
467.7412590280648
 31
0.0
  0
LINE
  5
1A197
  8
0
 10
4543.528235570946
 20
469.5290795391648
 30
0.0
 11
4543.528235570946
 21
467.89851099656482
 31
0.0
  0
ARC
  5
1A198
  8
0
 10
4543.425463110746
 20
469.0637952678648
 30
0.0
 40
0.0199999999999978
 50
270.0
 51
0.0000000000032569
  0
ARC
  5
1A199
  8
0
 10
4543.425463110746
 20
468.36379526786482
 30
0.0
 40
0.0199999999999978
 50
359.99999999999682
 51
90.0
  0
ARC
  5
1A19A
  8
0
 10
4544.8134158666453
 20
467.73954329936481
 30
0.0
 40
0.0100000000000087
 50
270.00000000005213
 51
359.99999999999022
  0
LINE
  5
1A19B
  8
0
 10
4544.5865654729459
 20
467.8867952678649
 30
0.0
 11
4543.5565198423428
 21
467.8867952678649
 31
0.0
  0
ARC
  5
1A19C
  8
0
 10
4544.5869526092556
 20
467.84718397137488
 30
0.0
 40
0.0396131882602251
 50
359.76806182194503
 51
90.559955679541147
  0
LINE
  5
1A19D
  8
0
 10
4545.4333371264447
 20
466.84379527246489
 30
0.0
 11
4545.4333371264447
 21
466.84446383656478
 31
0.0
  0
LINE
  5
1A19E
  8
0
 10
4545.4333371264447
 20
466.84446383656478
 30
0.0
 11
4545.4633371264454
 21
466.84550728146479
 31
0.0
  0
LINE
  5
1A19F
  8
0
 10
4545.4633371264454
 20
466.84550728146479
 30
0.0
 11
4545.5033404405458
 21
466.84550728146479
 31
0.0
  0
ENDSEC
  0
EOF
