  0
SECTION
  2
HEADER
  9
$ACADVER
  1
AC1009
  9
$INSBASE
 10
4539.5348498539634
 20
469.50888895326278
 30
0.0
  9
$EXTMIN
 10
4537.6648498539644
 20
466.26975492976271
 30
0.0
  9
$EXTMAX
 10
4541.4048498539642
 20
469.51323696282338
 30
0.0
  9
$LIMMIN
 10
0.0
 20
0.0
  9
$LIMMAX
 10
11.692913385800001
 20
8.2677165353999982
  9
$ORTHOMODE
 70
     0
  9
$REGENMODE
 70
     1
  9
$FILLMODE
 70
     1
  9
$QTEXTMODE
 70
     0
  9
$MIRRTEXT
 70
     0
  9
$DRAGMODE
 70
     2
  9
$LTSCALE
 40
0.6431102362
  9
$OSMODE
 70
    19
  9
$ATTMODE
 70
     1
  9
$TEXTSIZE
 40
0.2
  9
$TRACEWID
 40
0.05
  9
$TEXTSTYLE
  7
STANDARD
  9
$CLAYER
  8
0
  9
$CELTYPE
  6
BYLAYER
  9
$CECOLOR
 62
   256
  9
$DIMSCALE
 40
1.0
  9
$DIMASZ
 40
0.1875
  9
$DIMEXO
 40
0.0625
  9
$DIMDLI
 40
0.4443307087
  9
$DIMRND
 40
0.0
  9
$DIMDLE
 40
0.0
  9
$DIMEXE
 40
0.125
  9
$DIMTP
 40
0.01
  9
$DIMTM
 40
0.01
  9
$DIMTXT
 40
2.0
  9
$DIMCEN
 40
0.1052362205
  9
$DIMTSZ
 40
0.0
  9
$DIMTOL
 70
     1
  9
$DIMLIM
 70
     0
  9
$DIMTIH
 70
     1
  9
$DIMTOH
 70
     1
  9
$DIMSE1
 70
     0
  9
$DIMSE2
 70
     0
  9
$DIMTAD
 70
     0
  9
$DIMZIN
 70
     0
  9
$DIMBLK
  1

  9
$DIMASO
 70
     1
  9
$DIMSHO
 70
     1
  9
$DIMPOST
  1
\X
  9
$DIMAPOST
  1

  9
$DIMALT
 70
     1
  9
$DIMALTD
 70
     2
  9
$DIMALTF
 40
25.399999999999999
  9
$DIMLFAC
 40
1.0
  9
$DIMTOFL
 70
     0
  9
$DIMTVP
 40
0.0
  9
$DIMTIX
 70
     0
  9
$DIMSOXD
 70
     0
  9
$DIMSAH
 70
     0
  9
$DIMBLK1
  1

  9
$DIMBLK2
  1

  9
$DIMSTYLE
  2
STANDARD
  9
$DIMCLRD
 70
     0
  9
$DIMCLRE
 70
     0
  9
$DIMCLRT
 70
     0
  9
$DIMTFAC
 40
1.0
  9
$DIMGAP
 40
0.09
  9
$LUNITS
 70
     2
  9
$LUPREC
 70
     4
  9
$SKETCHINC
 40
0.1
  9
$FILLETRAD
 40
0.0
  9
$AUNITS
 70
     0
  9
$AUPREC
 70
     0
  9
$MENU
  1
.
  9
$ELEVATION
 40
0.0
  9
$PELEVATION
 40
0.0
  9
$THICKNESS
 40
0.0
  9
$LIMCHECK
 70
     0
  9
$BLIPMODE
 70
     0
  9
$CHAMFERA
 40
0.0
  9
$CHAMFERB
 40
0.0
  9
$SKPOLY
 70
     0
  9
$TDCREATE
 40
2458060.4683680669
  9
$TDUPDATE
 40
2459297.978459375
  9
$TDINDWG
 40
1.6769564004999999
  9
$TDUSRTIMER
 40
1.6769564004999999
  9
$USRTIMER
 70
     1
  9
$ANGBASE
 50
0.0
  9
$ANGDIR
 70
     0
  9
$PDMODE
 70
     0
  9
$PDSIZE
 40
0.3125
  9
$PLINEWID
 40
0.0
  9
$COORDS
 70
     1
  9
$SPLFRAME
 70
     0
  9
$SPLINETYPE
 70
     6
  9
$SPLINESEGS
 70
     8
  9
$ATTDIA
 70
     1
  9
$ATTREQ
 70
     1
  9
$HANDLING
 70
     1
  9
$HANDSEED
  5
1A09E
  9
$SURFTAB1
 70
     6
  9
$SURFTAB2
 70
     6
  9
$SURFTYPE
 70
     6
  9
$SURFU
 70
     6
  9
$SURFV
 70
     6
  9
$UCSNAME
  2

  9
$UCSORG
 10
0.0
 20
0.0
 30
0.0
  9
$UCSXDIR
 10
1.0
 20
0.0
 30
0.0
  9
$UCSYDIR
 10
0.0
 20
1.0
 30
0.0
  9
$PUCSNAME
  2

  9
$PUCSORG
 10
0.0
 20
0.0
 30
0.0
  9
$PUCSXDIR
 10
1.0
 20
0.0
 30
0.0
  9
$PUCSYDIR
 10
0.0
 20
1.0
 30
0.0
  9
$USERI1
 70
     0
  9
$USERI2
 70
     0
  9
$USERI3
 70
     0
  9
$USERI4
 70
     0
  9
$USERI5
 70
     0
  9
$USERR1
 40
0.0
  9
$USERR2
 40
0.0
  9
$USERR3
 40
0.0
  9
$USERR4
 40
0.0
  9
$USERR5
 40
0.0
  9
$WORLDVIEW
 70
     1
  9
$SHADEDGE
 70
     3
  9
$SHADEDIF
 70
    70
  9
$TILEMODE
 70
     1
  9
$MAXACTVP
 70
    64
  9
$PLIMCHECK
 70
     0
  9
$PEXTMIN
 10
1.0000000000000000E+020
 20
1.0000000000000000E+020
 30
1.0000000000000000E+020
  9
$PEXTMAX
 10
-1.0000000000000000E+020
 20
-1.0000000000000000E+020
 30
-1.0000000000000000E+020
  9
$PLIMMIN
 10
0.0
 20
0.0
  9
$PLIMMAX
 10
12.0
 20
9.0
  9
$UNITMODE
 70
     0
  9
$VISRETAIN
 70
     1
  9
$PLINEGEN
 70
     0
  9
$PSLTSCALE
 70
     1
  0
ENDSEC
  0
SECTION
  2
TABLES
  0
TABLE
  2
VPORT
 70
     1
  0
VPORT
  2
*ACTIVE
 70
     0
 10
0.0
 20
0.0
 11
1.0
 21
1.0
 12
628.16949340865165
 22
335.3118908437541
 13
0.0
 23
0.0
 14
1.0
 24
1.0
 15
0.0
 25
0.0
 16
0.0
 26
0.0
 36
60.496018696580158
 17
3911.365356445312
 27
132.57960510253901
 37
0.0
 40
3.3632699935588262
 41
1.944285714285714
 42
50.0
 43
0.0
 44
0.0
 50
0.0
 51
0.0
 71
     0
 72
   100
 73
     1
 74
     1
 75
     0
 76
     0
 77
     0
 78
     0
  0
ENDTAB
  0
TABLE
  2
LTYPE
 70
     2
  0
LTYPE
  2
CONTINUOUS
 70
     0
  3
Solid line
 72
    65
 73
     0
 40
0.0
  0
LTYPE
  2
PHANTOM2
 70
     0
  3
___ _ _ ___ _ _ ___ _ _ ___ _ _
 72
    65
 73
     6
 40
1.25
 49
0.625
 49
-0.125
 49
0.125
 49
-0.125
 49
0.125
 49
-0.125
  0
ENDTAB
  0
TABLE
  2
LAYER
 70
     2
  0
LAYER
  2
0
 70
     0
 62
   255
  6
CONTINUOUS
  0
LAYER
  2
DEFPOINTS
 70
     0
 62
     7
  6
CONTINUOUS
  0
ENDTAB
  0
TABLE
  2
STYLE
 70
     1
  0
STYLE
  2
STANDARD
 70
     0
 40
0.0
 41
0.8
 50
0.0
 71
     0
 42
0.2
  3
txt
  4

  0
ENDTAB
  0
TABLE
  2
VIEW
 70
     0
  0
ENDTAB
  0
TABLE
  2
UCS
 70
     0
  0
ENDTAB
  0
TABLE
  2
APPID
 70
    11
  0
APPID
  2
ACAD
 70
     0
  0
APPID
  2
ACAD_MLEADERVER
 70
     0
  0
APPID
  2
ACAD_EXEMPT_FROM_CAD_STANDARDS
 70
     0
  0
APPID
  2
ACAD_NAV_VCDISPLAY
 70
     0
  0
APPID
  2
ACAECLAYERSTANDARD
 70
     0
  0
APPID
  2
ACCMTRANSPARENCY
 70
     0
  0
APPID
  2
ACAD_DSTYLE_DIMJAG
 70
     0
  0
APPID
  2
ACAD_DSTYLE_DIMTALN
 70
     0
  0
APPID
  2
ACDBATTR
 70
     0
  0
APPID
  2
ACADANNOTATIVE
 70
     0
  0
APPID
  2
DCO15
 70
     0
  0
ENDTAB
  0
TABLE
  2
DIMSTYLE
 70
     1
  0
DIMSTYLE
  2
STANDARD
 70
     0
  3

  4

  5

  6

  7

 40
1.0
 41
0.1875
 42
0.0625
 43
0.38
 44
0.125
 45
0.0
 46
0.0
 47
0.01
 48
0.01
140
0.15625
141
0.09
142
0.0
143
25.399999999999999
144
1.0
145
0.0
146
1.0
147
0.09
 71
     1
 72
     0
 73
     1
 74
     1
 75
     0
 76
     0
 77
     0
 78
     4
170
     0
171
     2
172
     0
173
     0
174
     0
175
     0
176
     0
177
     0
178
     0
  0
ENDTAB
  0
ENDSEC
  0
SECTION
  2
BLOCKS
  0
BLOCK
  8
0
  2
$MODEL_SPACE
 70
     0
 10
0.0
 20
0.0
 30
0.0
  3
$MODEL_SPACE
  1

  0
ENDBLK
  5
21
  8
0
  0
BLOCK
 67
     1
  8
0
  2
$PAPER_SPACE
 70
     0
 10
0.0
 20
0.0
 30
0.0
  3
$PAPER_SPACE
  1

  0
ENDBLK
  5
1D
 67
     1
  8
0
  0
ENDSEC
  0
SECTION
  2
ENTITIES
  0
ATTDEF
  5
194DB
  8
DEFPOINTS
 10
4539.534860900616
 20
469.51223696282352
 30
0.0
 40
0.001
  1
P24923-SNW
  3

  2
MODELNUMBER
 70
     0
1001
ACDBATTR
1070
     0
1070
     1
  0
ATTDEF
  5
194DC
  8
DEFPOINTS
 10
4539.534860900616
 20
469.51057012244422
 30
0.0
 40
0.001
  1
PINNA PALETTA
  3

  2
TRADENAME
 70
     0
1001
ACDBATTR
1070
     0
1070
     1
  0
ATTDEF
  5
194DD
  8
DEFPOINTS
 10
4539.534860900616
 20
469.50890362949008
 30
0.0
 40
0.001
  1
VALVE TRIM
  3

  2
PRODUCT
 70
     0
1001
ACDBATTR
1070
     0
1070
     1
  0
LINE
  5
19F29
  8
0
 10
4541.4048498539642
 20
469.49888895325353
 30
0.0
 11
4541.4048498539642
 21
468.96718705541309
 31
0.0
  0
LINE
  5
19F2A
  8
0
 10
4537.6648498539644
 20
469.49888895325353
 30
0.0
 11
4537.6648498539644
 21
468.96718705541309
 31
0.0
  0
LINE
  5
19F2B
  8
0
 10
4537.6748498539873
 20
469.50888895326278
 30
0.0
 11
4541.3948498539421
 21
469.50888895326278
 31
0.0
  0
LINE
  5
19F2C
  8
0
 10
4537.8237813797687
 20
468.8189676934627
 30
0.0
 11
4541.2459183281608
 21
468.8189676934627
 31
0.0
  0
LINE
  5
19F2D
  8
0
 10
4538.6459065852832
 20
468.62211729976281
 30
0.0
 11
4540.4237931226453
 21
468.62211729976281
 31
0.0
  0
LINE
  5
19F2E
  8
0
 10
4538.8189065852857
 20
467.44101493756278
 30
0.0
 11
4540.250793122641
 21
467.44101493756278
 31
0.0
  0
LINE
  5
19F2F
  8
0
 10
4539.1462963807398
 20
467.42101569346272
 30
0.0
 11
4539.9234033271887
 21
467.42101569346272
 31
0.0
  0
ARC
  5
19F30
  8
0
 10
4537.7048498542017
 20
468.96718705541309
 30
0.0
 40
0.0400000002386007
 50
180.00000007217909
 51
227.6999997334581
  0
LINE
  5
19F31
  8
0
 10
4537.6779293533637
 20
468.93760181156279
 30
0.0
 11
4537.7968608792644
 21
468.82938244966277
 31
0.0
  0
ARC
  5
19F32
  8
0
 10
4537.8237813797268
 20
468.85896769326558
 30
0.0
 40
0.039999999802919
 50
227.6999998926068
 51
270.00000005841559
  0
LINE
  5
19F33
  8
0
 10
4537.6779293533637
 20
468.93760181156279
 30
0.0
 11
4541.391770354564
 21
468.93760181156279
 31
0.0
  0
LINE
  5
19F34
  8
0
 10
4538.5505978854644
 20
468.71727464055982
 30
0.0
 11
4538.5505978854644
 21
468.80896769346282
 31
0.0
  0
LINE
  5
19F35
  8
0
 10
4538.707849853964
 20
468.58211729976267
 30
0.0
 11
4538.707849853964
 21
467.55207166915989
 31
0.0
  0
LINE
  5
19F36
  8
0
 10
4539.131306546863
 20
467.40601569102398
 30
0.0
 11
4539.131306546863
 21
466.67329823686271
 31
0.0
  0
ARC
  5
19F37
  8
0
 10
4538.7478498544524
 20
467.55207166915989
 30
0.0
 40
0.0400000004880488
 50
180.00000013905611
 51
224.9999996040163
  0
LINE
  5
19F38
  8
0
 10
4538.7195655826636
 20
467.52378739776282
 30
0.0
 11
4538.7906223141654
 21
467.45273066636281
 31
0.0
  0
ARC
  5
19F39
  8
0
 10
4538.8189065852757
 20
467.48101493712193
 30
0.0
 40
0.0399999995591126
 50
224.99999964227081
 51
270.00000001422609
  0
ARC
  5
19F3A
  8
0
 10
4539.1463065527523
 20
467.40601569102398
 30
0.0
 40
0.0150000058877916
 50
90.038854212233815
 51
180.00000000003249
  0
ARC
  5
19F3B
  8
0
 10
4538.6682385574741
 20
468.58250443607261
 30
0.0
 40
0.0396131882602251
 50
359.44004432043249
 51
90.231938178077783
  0
ARC
  5
19F3C
  8
0
 10
4538.6459065852832
 20
468.66211729933252
 30
0.0
 40
0.0399999995716523
 50
224.99999964582659
 51
270.0005598952107
  0
LINE
  5
19F3D
  8
0
 10
4538.6176223141638
 20
468.63383302856278
 30
0.0
 11
4538.562313614163
 21
468.68899036916281
 31
0.0
  0
ARC
  5
19F3E
  8
0
 10
4538.5905978859519
 20
468.71727464055982
 30
0.0
 40
0.0400000004880295
 50
180.00000013904949
 51
224.99999960402309
  0
ARC
  5
19F3F
  8
0
 10
4538.5605978854646
 20
468.80896769346282
 30
0.0
 40
0.0100000000000087
 50
90.0
 51
179.9999999999479
  0
ARC
  5
19F40
  8
0
 10
4537.6748498539637
 20
469.49888895326279
 30
0.0
 40
0.0100000000000034
 50
89.999999872121535
 51
180.00000005295371
  0
ARC
  5
19F41
  8
0
 10
4541.3648498537259
 20
468.96718705541309
 30
0.0
 40
0.0400000002386007
 50
312.30000026654187
 51
359.99999992782091
  0
LINE
  5
19F42
  8
0
 10
4541.391770354564
 20
468.93760181156279
 30
0.0
 11
4541.2728388286641
 21
468.82938244966277
 31
0.0
  0
ARC
  5
19F43
  8
0
 10
4541.2459183282008
 20
468.85896769326558
 30
0.0
 40
0.0399999998028786
 50
269.99999994158452
 51
312.30000010740201
  0
LINE
  5
19F44
  8
0
 10
4540.5191018224632
 20
468.71727464055982
 30
0.0
 11
4540.5191018224632
 21
468.80896769346282
 31
0.0
  0
LINE
  5
19F45
  8
0
 10
4539.9383931610637
 20
467.40601569102398
 30
0.0
 11
4539.9383931610637
 21
466.67329823686271
 31
0.0
  0
ARC
  5
19F46
  8
0
 10
4540.3218498534761
 20
467.55207166915989
 30
0.0
 40
0.0400000004880488
 50
315.00000039598382
 51
359.99999986094389
  0
LINE
  5
19F47
  8
0
 10
4540.350134125264
 20
467.52378739776282
 30
0.0
 11
4540.2790773937641
 21
467.45273066636281
 31
0.0
  0
ARC
  5
19F48
  8
0
 10
4540.250793122651
 20
467.48101493712193
 30
0.0
 40
0.0399999995591163
 50
269.99999998577391
 51
315.00000035772922
  0
ARC
  5
19F49
  8
0
 10
4539.9233931551762
 20
467.40601569102398
 30
0.0
 40
0.0150000058877939
 50
359.9999999999805
 51
89.961145787714074
  0
ARC
  5
19F4A
  8
0
 10
4540.4237931226507
 20
468.66211729932189
 30
0.0
 40
0.0399999995591021
 50
269.9999999898385
 51
315.00000035773149
  0
LINE
  5
19F4B
  8
0
 10
4540.4520773937647
 20
468.63383302856278
 30
0.0
 11
4540.5073860937637
 21
468.68899036916281
 31
0.0
  0
ARC
  5
19F4C
  8
0
 10
4540.4791018219767
 20
468.71727464055982
 30
0.0
 40
0.0400000004880295
 50
315.00000039597688
 51
359.99999986095042
  0
ARC
  5
19F4D
  8
0
 10
4541.3948498539639
 20
469.49888895326279
 30
0.0
 40
0.0100000000000016
 50
0.0000000000097707
 51
90.000000127878451
  0
ARC
  5
19F4F
  8
0
 10
4539.5348498539634
 20
466.67329823686271
 30
0.0
 40
0.4035433070999997
 50
180.0
 51
0.0
  0
LINE
  5
19F50
  8
0
 10
4538.562313614163
 20
468.68899036916281
 30
0.0
 11
4540.5073860937637
 21
468.68899036916281
 31
0.0
  0
LINE
  5
19F51
  8
0
 10
4538.7195655826636
 20
467.52378739776282
 30
0.0
 11
4540.350134125264
 21
467.52378739776282
 31
0.0
  0
ARC
  5
19F52
  8
0
 10
4539.184849853963
 20
467.42101493756269
 30
0.0
 40
0.0199999999999978
 50
359.99999999999352
 51
90.0
  0
ARC
  5
19F53
  8
0
 10
4539.8848498539637
 20
467.42101493756269
 30
0.0
 40
0.0199999999999978
 50
90.0
 51
180.00000000000321
  0
ARC
  5
19F54
  8
0
 10
4540.5091018224639
 20
468.80896769346282
 30
0.0
 40
0.0100000000000087
 50
0.0000000000521102
 51
90.0
  0
LINE
  5
19F55
  8
0
 10
4540.3618498539636
 20
468.58211729976267
 30
0.0
 11
4540.3618498539636
 21
467.55207166915989
 31
0.0
  0
ARC
  5
19F56
  8
0
 10
4540.4014611504545
 20
468.58250443607261
 30
0.0
 40
0.0396131882602251
 50
89.768061821922203
 51
180.55995567956739
  0
ENDSEC
  0
EOF
