  0
SECTION
  2
HEADER
  9
$ACADVER
  1
AC1009
  9
$INSBASE
 10
6329.0411057255387277
 20
373.1228118766379112
 30
0.0
  9
$EXTMIN
 10
6325.8019717020388271
 20
370.2973653163252834
 30
0.0
  9
$EXTMAX
 10
6329.0411057255387277
 20
374.9919558698379092
 30
0.0
  9
$LIMMIN
 10
0.0
 20
0.0
  9
$LIMMAX
 10
11.6929133858000007
 20
8.2677165353999982
  9
$ORTHOMODE
 70
     0
  9
$REGENMODE
 70
     1
  9
$FILLMODE
 70
     1
  9
$QTEXTMODE
 70
     0
  9
$MIRRTEXT
 70
     0
  9
$DRAGMODE
 70
     2
  9
$LTSCALE
 40
0.6431102362
  9
$OSMODE
 70
  3839
  9
$ATTMODE
 70
     1
  9
$TEXTSIZE
 40
0.2
  9
$TRACEWID
 40
0.05
  9
$TEXTSTYLE
  7
STANDARD
  9
$CLAYER
  8
0
  9
$CELTYPE
  6
BYLAYER
  9
$CECOLOR
 62
   256
  9
$DIMSCALE
 40
1.0
  9
$DIMASZ
 40
0.1875
  9
$DIMEXO
 40
0.0625
  9
$DIMDLI
 40
0.4443307087
  9
$DIMRND
 40
0.0
  9
$DIMDLE
 40
0.0
  9
$DIMEXE
 40
0.125
  9
$DIMTP
 40
0.01
  9
$DIMTM
 40
0.01
  9
$DIMTXT
 40
2.0
  9
$DIMCEN
 40
0.1052362205
  9
$DIMTSZ
 40
0.0
  9
$DIMTOL
 70
     1
  9
$DIMLIM
 70
     0
  9
$DIMTIH
 70
     1
  9
$DIMTOH
 70
     1
  9
$DIMSE1
 70
     0
  9
$DIMSE2
 70
     0
  9
$DIMTAD
 70
     0
  9
$DIMZIN
 70
     0
  9
$DIMBLK
  1

  9
$DIMASO
 70
     1
  9
$DIMSHO
 70
     1
  9
$DIMPOST
  1
\X
  9
$DIMAPOST
  1

  9
$DIMALT
 70
     1
  9
$DIMALTD
 70
     2
  9
$DIMALTF
 40
25.3999999999999986
  9
$DIMLFAC
 40
1.0
  9
$DIMTOFL
 70
     0
  9
$DIMTVP
 40
0.0
  9
$DIMTIX
 70
     0
  9
$DIMSOXD
 70
     0
  9
$DIMSAH
 70
     0
  9
$DIMBLK1
  1

  9
$DIMBLK2
  1

  9
$DIMSTYLE
  2
STANDARD
  9
$DIMCLRD
 70
     0
  9
$DIMCLRE
 70
     0
  9
$DIMCLRT
 70
     0
  9
$DIMTFAC
 40
1.0
  9
$DIMGAP
 40
0.09
  9
$LUNITS
 70
     2
  9
$LUPREC
 70
     4
  9
$SKETCHINC
 40
0.1
  9
$FILLETRAD
 40
0.0
  9
$AUNITS
 70
     0
  9
$AUPREC
 70
     0
  9
$MENU
  1
.
  9
$ELEVATION
 40
0.0
  9
$PELEVATION
 40
0.0
  9
$THICKNESS
 40
0.0
  9
$LIMCHECK
 70
     0
  9
$BLIPMODE
 70
     0
  9
$CHAMFERA
 40
0.0
  9
$CHAMFERB
 40
0.0
  9
$SKPOLY
 70
     0
  9
$TDCREATE
 40
2458060.468368056230247
  9
$TDUPDATE
 40
2460283.4947222229093313
  9
$TDINDWG
 40
0.7423681713
  9
$TDUSRTIMER
 40
0.7423681713
  9
$USRTIMER
 70
     1
  9
$ANGBASE
 50
0.0
  9
$ANGDIR
 70
     0
  9
$PDMODE
 70
     0
  9
$PDSIZE
 40
0.3125
  9
$PLINEWID
 40
0.0
  9
$COORDS
 70
     1
  9
$SPLFRAME
 70
     0
  9
$SPLINETYPE
 70
     6
  9
$SPLINESEGS
 70
     8
  9
$ATTDIA
 70
     1
  9
$ATTREQ
 70
     1
  9
$HANDLING
 70
     1
  9
$HANDSEED
  5
33C04
  9
$SURFTAB1
 70
     6
  9
$SURFTAB2
 70
     6
  9
$SURFTYPE
 70
     6
  9
$SURFU
 70
     6
  9
$SURFV
 70
     6
  9
$UCSNAME
  2

  9
$UCSORG
 10
0.0
 20
0.0
 30
0.0
  9
$UCSXDIR
 10
1.0
 20
0.0
 30
0.0
  9
$UCSYDIR
 10
0.0
 20
1.0
 30
0.0
  9
$PUCSNAME
  2

  9
$PUCSORG
 10
0.0
 20
0.0
 30
0.0
  9
$PUCSXDIR
 10
1.0
 20
0.0
 30
0.0
  9
$PUCSYDIR
 10
0.0
 20
1.0
 30
0.0
  9
$USERI1
 70
     0
  9
$USERI2
 70
     0
  9
$USERI3
 70
     0
  9
$USERI4
 70
     0
  9
$USERI5
 70
     0
  9
$USERR1
 40
0.0
  9
$USERR2
 40
0.0
  9
$USERR3
 40
0.0
  9
$USERR4
 40
0.0
  9
$USERR5
 40
0.0
  9
$WORLDVIEW
 70
     1
  9
$SHADEDGE
 70
     3
  9
$SHADEDIF
 70
    70
  9
$TILEMODE
 70
     1
  9
$MAXACTVP
 70
    64
  9
$PLIMCHECK
 70
     0
  9
$PEXTMIN
 10
1.0000000000000000E+20
 20
1.0000000000000000E+20
 30
1.0000000000000000E+20
  9
$PEXTMAX
 10
-1.0000000000000000E+20
 20
-1.0000000000000000E+20
 30
-1.0000000000000000E+20
  9
$PLIMMIN
 10
0.0
 20
0.0
  9
$PLIMMAX
 10
12.0
 20
9.0
  9
$UNITMODE
 70
     0
  9
$VISRETAIN
 70
     1
  9
$PLINEGEN
 70
     0
  9
$PSLTSCALE
 70
     1
  0
ENDSEC
  0
SECTION
  2
TABLES
  0
TABLE
  2
VPORT
 70
     1
  0
VPORT
  2
*ACTIVE
 70
     0
 10
0.0
 20
0.0
 11
1.0
 21
1.0
 12
2416.0561822684758226
 22
240.0650554905425054
 13
0.0
 23
0.0
 14
1.0
 24
1.0
 15
0.0
 25
0.0
 16
0.0
 26
0.0
 36
60.4960186965801583
 17
3911.3653564453120453
 27
132.5796051025390057
 37
0.0
 40
4.7258530877202807
 41
2.1211111111111101
 42
50.0
 43
0.0
 44
0.0
 50
0.0
 51
0.0
 71
     0
 72
   100
 73
     1
 74
     1
 75
     0
 76
     0
 77
     0
 78
     0
  0
ENDTAB
  0
TABLE
  2
LTYPE
 70
     2
  0
LTYPE
  2
CONTINUOUS
 70
     0
  3
Solid line
 72
    65
 73
     0
 40
0.0
  0
LTYPE
  2
PHANTOM2
 70
     0
  3
___ _ _ ___ _ _ ___ _ _ ___ _ _
 72
    65
 73
     6
 40
1.25
 49
0.625
 49
-0.125
 49
0.125
 49
-0.125
 49
0.125
 49
-0.125
  0
ENDTAB
  0
TABLE
  2
LAYER
 70
     2
  0
LAYER
  2
0
 70
     0
 62
   255
  6
CONTINUOUS
  0
LAYER
  2
DEFPOINTS
 70
     0
 62
     7
  6
CONTINUOUS
  0
ENDTAB
  0
TABLE
  2
STYLE
 70
     1
  0
STYLE
  2
STANDARD
 70
     0
 40
0.0
 41
0.8
 50
0.0
 71
     0
 42
0.2
  3
txt
  4

  0
ENDTAB
  0
TABLE
  2
VIEW
 70
     0
  0
ENDTAB
  0
TABLE
  2
UCS
 70
     0
  0
ENDTAB
  0
TABLE
  2
APPID
 70
    11
  0
APPID
  2
ACAD
 70
     0
  0
APPID
  2
ACAD_MLEADERVER
 70
     0
  0
APPID
  2
ACAD_EXEMPT_FROM_CAD_STANDARDS
 70
     0
  0
APPID
  2
ACAD_NAV_VCDISPLAY
 70
     0
  0
APPID
  2
ACAECLAYERSTANDARD
 70
     0
  0
APPID
  2
ACCMTRANSPARENCY
 70
     0
  0
APPID
  2
ACAD_DSTYLE_DIMJAG
 70
     0
  0
APPID
  2
ACAD_DSTYLE_DIMTALN
 70
     0
  0
APPID
  2
ACDBATTR
 70
     0
  0
APPID
  2
ACADANNOTATIVE
 70
     0
  0
APPID
  2
DCO15
 70
     0
  0
ENDTAB
  0
TABLE
  2
DIMSTYLE
 70
     1
  0
DIMSTYLE
  2
STANDARD
 70
     0
  3

  4

  5

  6

  7

 40
1.0
 41
0.1875
 42
0.0625
 43
0.38
 44
0.125
 45
0.0
 46
0.0
 47
0.01
 48
0.01
140
0.15625
141
0.09
142
0.0
143
25.3999999999999986
144
1.0
145
0.0
146
1.0
147
0.09
 71
     1
 72
     0
 73
     1
 74
     1
 75
     0
 76
     0
 77
     0
 78
     4
170
     0
171
     2
172
     0
173
     0
174
     0
175
     0
176
     0
177
     0
178
     0
  0
ENDTAB
  0
ENDSEC
  0
SECTION
  2
BLOCKS
  0
BLOCK
  8
0
  2
$MODEL_SPACE
 70
     0
 10
0.0
 20
0.0
 30
0.0
  3
$MODEL_SPACE
  1

  0
ENDBLK
  5
21
  8
0
  0
BLOCK
 67
     1
  8
0
  2
$PAPER_SPACE
 70
     0
 10
0.0
 20
0.0
 30
0.0
  3
$PAPER_SPACE
  1

  0
ENDBLK
  5
1D
 67
     1
  8
0
  0
BLOCK
  8
0
  2
_FILLED
 70
     0
 10
0.0
 20
0.0
 30
0.0
  3
_FILLED
  1

  0
SOLID
  5
3361B
  8
0
  6
BYBLOCK
 62
     0
 10
0.0
 20
0.0
 30
0.0
 11
-1.0
 21
0.1666666667
 31
0.0
 12
-1.0
 22
-0.1666666667
 32
0.0
 13
-1.0
 23
-0.1666666667
 33
0.0
  0
ENDBLK
  5
3361C
  8
0
  6
BYBLOCK
 62
     0
  0
ENDSEC
  0
SECTION
  2
ENTITIES
  0
LINE
  5
3399E
  8
0
 10
6325.8019717020388271
 20
373.4073820830072918
 30
0.0
 11
6325.8019717020388271
 21
372.2414966115362063
 31
0.0
  0
LINE
  5
3399F
  8
0
 10
6325.9200862307561692
 20
373.5254966115363118
 30
0.0
 11
6326.9382324632997552
 21
373.5254966115363118
 31
0.0
  0
ARC
  5
339A0
  8
0
 10
6325.9200862305679038
 20
373.4073820830072918
 30
0.0
 40
0.1181145285289791
 50
89.9999999086508069
 51
180.0000000913427129
  0
LINE
  5
339A1
  8
0
 10
6326.5182667106955705
 20
370.2973653186377874
 30
0.0
 11
6325.8927633075818449
 21
370.2973653186379011
 31
0.0
  0
ARC
  5
339A2
  8
0
 10
6325.8169717020391545
 20
372.2414966115362063
 30
0.0
 40
0.0149999999999988
 50
179.9999999999967031
 51
270.0
  0
LINE
  5
339A3
  8
0
 10
6326.6090583162385883
 20
372.6002997611362844
 30
0.0
 11
6326.6090583162385883
 21
372.2414966115362063
 31
0.0
  0
LINE
  5
339A4
  8
0
 10
6325.8058693398388641
 20
372.2264966115362768
 30
0.0
 11
6326.6051606784385513
 21
372.2264966115362768
 31
0.0
  0
LINE
  5
339A5
  8
0
 10
6325.8058693398388641
 20
372.2264966115362768
 30
0.0
 11
6325.8058693398388641
 21
370.3823161143881748
 31
0.0
  0
ARC
  5
339A6
  8
0
 10
6325.8208693406031671
 20
370.3823161143881748
 30
0.0
 40
0.0150000007635987
 50
180.0000005801690008
 51
224.9999983478188028
  0
LINE
  5
339A7
  8
0
 10
6325.8102627380385456
 20
370.3717095124363254
 30
0.0
 11
6325.8788438827386926
 21
370.3031283678362797
 31
0.0
  0
ARC
  5
339A8
  8
0
 10
6325.8927537697090884
 20
370.3170335179535755
 30
0.0
 40
0.0196682016283016
 50
224.9902426288203117
 51
270.0277849447143126
  0
LINE
  5
339A9
  8
0
 10
6326.6051606784385513
 20
372.2264966115362768
 30
0.0
 11
6326.6051606784385513
 21
370.3823161143881748
 31
0.0
  0
ARC
  5
339AA
  8
0
 10
6326.5901606776751578
 20
370.3823161143881748
 30
0.0
 40
0.0150000007635987
 50
315.0000016521810835
 51
359.9999994198278159
  0
LINE
  5
339AB
  8
0
 10
6326.6007672802388697
 20
370.3717095124363254
 30
0.0
 11
6326.5321861355387227
 21
370.3031283678362797
 31
0.0
  0
ARC
  5
339AC
  8
0
 10
6326.5182762485692365
 20
370.3170335179539165
 30
0.0
 40
0.0196682016285966
 50
269.9722150558068847
 51
315.0097573709838912
  0
ARC
  5
339AD
  8
0
 10
6326.5940583162382609
 20
372.2414966115362063
 30
0.0
 40
0.0149999999999988
 50
270.0
 51
359.9999999999935199
  0
ARC
  5
339AE
  8
0
 10
6326.727172807190982
 20
372.6002955063841
 30
0.0
 40
0.1181144910288809
 50
90.0020639241064231
 51
179.9979360758838141
  0
LINE
  5
339AF
  8
0
 10
6326.7271685524392524
 20
372.7184099973363232
 30
0.0
 11
6326.9382324632997552
 21
372.7184099973363232
 31
0.0
  0
LINE
  5
339B0
  8
0
 10
6325.8102627380385456
 20
370.3717095124363254
 30
0.0
 11
6326.6007672802388697
 21
370.3717095124363254
 31
0.0
  0
ARC
  5
339B1
  8
0
 10
6327.3540941805058537
 20
372.2133299780062998
 30
0.0
 40
1.1717110765823411
 50
179.3561480947527116
 51
189.5771174342690983
  0
ARC
  5
339B2
  8
0
 10
6330.7310374776570825
 20
372.7561482000185151
 30
0.0
 40
4.6162981259203617
 50
186.5883482798384989
 51
190.275994656699396
  0
ARC
  5
339B3
  8
0
 10
6329.079944181978135
 20
372.4367513073361806
 30
0.0
 40
2.9699528963531758
 50
184.0595903219980016
 51
192.6251871200485084
  0
ARC
  5
339B4
  8
0
 10
6331.9055598394816116
 20
373.0607473388088806
 30
0.0
 40
5.8846644528415819
 50
188.150102942260105
 51
193.2019319586532902
  0
ARC
  5
339B5
  8
0
 10
6333.7275188058838467
 20
373.2445740074318223
 30
0.0
 40
7.7404894601566934
 50
187.5577962047725862
 51
192.3471202931575874
  0
ARC
  5
339B6
  8
0
 10
6331.7623808310536333
 20
373.0523409197307956
 30
0.0
 40
5.8053098503054361
 50
188.17845372573791
 51
195.1275622601247051
  0
ARC
  5
339B7
  8
0
 10
6331.4986879746184059
 20
372.9401558227344253
 30
0.0
 40
5.5554790399717957
 50
187.3806353496800057
 51
196.0532072689850054
  0
ARC
  5
339B8
  8
0
 10
6331.0412537452348261
 20
372.8885985485288757
 30
0.0
 40
5.1267019484063887
 50
187.4203458829946101
 51
197.7751179654671887
  0
ARC
  5
339B9
  8
0
 10
6330.8623789512594158
 20
372.7491277693875986
 30
0.0
 40
4.9509980863180258
 50
186.0594757269142008
 51
198.5322766040792999
  0
ARC
  5
339BA
  8
0
 10
6330.4254019075842734
 20
372.6907442220343114
 30
0.0
 40
4.5383214037452753
 50
185.8713424572734993
 51
197.805435264333596
  0
ARC
  5
339BB
  8
0
 10
6345.3291305617967737
 20
377.4773676109306848
 30
0.0
 40
20.1918478839197597
 50
197.805435264333596
 51
198.3810430275966894
  0
ARC
  5
339BC
  8
0
 10
6330.6172959148816517
 20
372.6400944745792003
 30
0.0
 40
4.7379112712047924
 50
185.0080324278837907
 51
200.175458851994307
  0
ARC
  5
339BD
  8
0
 10
6330.6659642010372409
 20
372.6780878609189926
 30
0.0
 40
4.8130200909206833
 50
185.3838104578638024
 51
200.935159130233103
  0
ARC
  5
339BE
  8
0
 10
6330.243166895585091
 20
372.5186063008375186
 30
0.0
 40
4.3912584660782477
 50
183.8141731862021118
 51
202.1292722204028962
  0
ARC
  5
339BF
  8
0
 10
6330.1158525009950608
 20
372.48255798043499
 30
0.0
 40
4.2803866209260368
 50
183.4295968451457952
 51
202.9895363290976888
  0
ARC
  5
339C0
  8
0
 10
6329.5693032035378565
 20
372.318677373423327
 30
0.0
 40
3.7377482652725349
 50
181.4131781416236038
 51
204.9619610891163859
  0
ARC
  5
339C1
  8
0
 10
6329.5628178892120559
 20
372.2746314743067728
 30
0.0
 40
3.7434055769801482
 50
180.7367624035655922
 51
205.6348050692346021
  0
ARC
  5
339C2
  8
0
 10
6329.7979767342876585
 20
372.2639288661599721
 30
0.0
 40
3.9858957710977299
 50
180.5380827440527014
 51
205.3291098762661022
  0
ARC
  5
339C3
  8
0
 10
6329.6012720880553388
 20
372.1467846283485983
 30
0.0
 40
3.791223320846802
 50
178.795244597201787
 51
206.0887768718370125
  0
ARC
  5
339C4
  8
0
 10
6329.6856511241567205
 20
372.041577867298713
 30
0.0
 40
3.8811072246783769
 50
181.4974497771632969
 51
195.7622658051475923
  0
ARC
  5
339C5
  8
0
 10
6328.2598489076954138
 20
371.6391305218224943
 30
0.0
 40
2.3995958928465342
 50
195.7622658051475923
 51
210.735171027374605
  0
ARC
  5
339C6
  8
0
 10
6328.5261064000833358
 20
371.7462607687562013
 30
0.0
 40
2.7121864995920841
 50
179.4895266987203968
 51
209.3846086566387044
  0
ARC
  5
339C7
  8
0
 10
6328.2458836197811252
 20
371.6063695366053139
 30
0.0
 40
2.4401637916511389
 50
180.634260932344489
 51
209.2118089642711993
  0
ARC
  5
339C8
  8
0
 10
6328.1229377582067173
 20
371.5191210970269253
 30
0.0
 40
2.3184328630003952
 50
181.9658013469554874
 51
208.426567296772987
  0
ARC
  5
339C9
  8
0
 10
6327.7713251549694178
 20
371.3556778582711786
 30
0.0
 40
1.9681907938067811
 50
183.0208649360276922
 51
208.5352957784743921
  0
ARC
  5
339CA
  8
0
 10
6327.6550245283906406
 20
371.296142171869576
 30
0.0
 40
1.8537305639109269
 50
184.0264012938353062
 51
208.3644994845390102
  0
ARC
  5
339CB
  8
0
 10
6327.9457817319207606
 20
371.190343456042001
 30
0.0
 40
2.1407333016573742
 50
181.5867842744272878
 51
195.1734261464767997
  0
ARC
  5
339CC
  8
0
 10
6326.7376701230068647
 20
370.9039449455689237
 30
0.0
 40
0.9006562537138862
 50
197.7060846002356982
 51
212.8438329351587868
  0
ARC
  5
339CD
  8
0
 10
6326.7076784930686699
 20
370.8632297378860017
 30
0.0
 40
0.8818331877648438
 50
185.4580725570855009
 51
210.5152888595258958
  0
ARC
  5
339CE
  8
0
 10
6329.6403063285833923
 20
371.2477436650532923
 30
0.0
 40
3.8391428451312741
 50
182.8371624333607883
 51
187.0077846340537064
  0
ARC
  5
339CF
  8
0
 10
6327.3540835103458448
 20
370.9274976608472798
 30
0.0
 40
1.547959490945924
 50
176.8783358411884876
 51
194.6971337195988099
  0
ARC
  5
339D0
  8
0
 10
6326.3357617408455553
 20
370.6604003937090965
 30
0.0
 40
0.4951916265274574
 50
194.6971337195988099
 51
209.6441822783114048
  0
ARC
  5
339D1
  8
0
 10
6327.0725722198340009
 20
370.8514219673825778
 30
0.0
 40
1.2664917090554719
 50
178.3290452071996128
 51
200.1340723138467013
  0
ARC
  5
339D2
  8
0
 10
6326.6162094871979207
 20
370.7030013474883958
 30
0.0
 40
0.8128469673873349
 50
184.500973853885597
 51
200.7156262659594859
  0
ARC
  5
339D3
  8
0
 10
6326.7510547670553933
 20
370.6289110248961833
 30
0.0
 40
0.9447219108512332
 50
179.7248444145147914
 51
193.0573820450983078
  0
ARC
  5
339D4
  8
0
 10
6326.7266891719136765
 20
370.5632831638915263
 30
0.0
 40
0.9242541845654749
 50
184.9408187525687026
 51
189.2024667672401961
  0
ARC
  5
339D5
  8
0
 10
6351.8897965251317146
 20
371.5328325163297905
 30
0.0
 40
26.1055181248615789
 50
182.3304359946201032
 51
182.458607626838301
  0
ARC
  5
339D6
  8
0
 10
6325.5445927311193373
 20
372.1882959790655718
 30
0.0
 40
0.6849806747387552
 50
345.3114504355123131
 51
3.1969824027591649
  0
ARC
  5
339D7
  8
0
 10
6325.187201207058024
 20
372.2980932162965928
 30
0.0
 40
1.082905534191769
 50
340.1139045102536898
 51
356.2091081421161221
  0
ARC
  5
339D8
  8
0
 10
6324.3373345634872749
 20
372.5157709819965248
 30
0.0
 40
1.988393872822505
 50
340.4179382785401913
 51
351.634841673806875
  0
ARC
  5
339D9
  8
0
 10
6328.1732342335208159
 20
371.1512216261319281
 30
0.0
 40
2.082984422443896
 50
160.4179382785401913
 51
162.258736873996213
  0
ARC
  5
339DA
  8
0
 10
6324.0310513425392855
 20
372.5685606368875824
 30
0.0
 40
2.3206336682869471
 50
338.3775140692587229
 51
351.5236518516937849
  0
ARC
  5
339DB
  8
0
 10
6324.1576580106757319
 20
372.4951815973024054
 30
0.0
 40
2.2166443552081421
 50
340.9513803904317797
 51
353.0379159171180277
  0
ARC
  5
339DC
  8
0
 10
6323.7313803805063799
 20
372.642365488970313
 30
0.0
 40
2.6676163232402641
 50
336.6695511465520099
 51
340.9513803904317797
  0
ARC
  5
339DD
  8
0
 10
6322.7583011460947091
 20
372.8431871005608969
 30
0.0
 40
3.6844514096874601
 50
345.4587024406361024
 51
350.3646833474625737
  0
ARC
  5
339DE
  8
0
 10
6323.5338034495289321
 20
372.7806527014162157
 30
0.0
 40
2.9209953383407021
 50
334.7731372074842966
 51
342.8795170981584874
  0
ARC
  5
339DF
  8
0
 10
6323.4631545198690219
 20
372.6459370020933193
 30
0.0
 40
2.9880723564168332
 50
344.7041169301326136
 51
351.9306523717029904
  0
ARC
  5
339E0
  8
0
 10
6324.0690298101180815
 20
372.4698838081342274
 30
0.0
 40
2.3572370191213272
 50
333.1903457980513963
 51
344.946806222258715
  0
ARC
  5
339E1
  8
0
 10
6323.6144147306040395
 20
372.6136350147854159
 30
0.0
 40
2.8651778031536601
 50
333.2073969918922103
 51
352.2345302746896891
  0
ARC
  5
339E2
  8
0
 10
6323.4883664024855534
 20
372.5688664851974181
 30
0.0
 40
3.0029112630693811
 50
335.1402092903200014
 51
353.4533204452417863
  0
ARC
  5
339E3
  8
0
 10
6326.6013906660173234
 20
371.1265032661304986
 30
0.0
 40
0.4280261774922977
 50
155.1402092903198877
 51
173.6427348167875948
  0
ARC
  5
339E4
  8
0
 10
6322.7909990699272385
 20
372.6799406548408911
 30
0.0
 40
3.7363211701736581
 50
335.169894478007393
 51
353.0293380283803799
  0
ARC
  5
339E5
  8
0
 10
6324.1447192907571662
 20
372.3377361986106848
 30
0.0
 40
2.3709201889570171
 50
343.0660854229570873
 51
357.3107911493075903
  0
ARC
  5
339E6
  8
0
 10
6322.4920608372622155
 20
372.8409209638588209
 30
0.0
 40
4.0984834647554722
 50
336.9178879494871808
 51
343.0660854229570873
  0
ARC
  5
339E7
  8
0
 10
6327.9072738009062959
 20
370.5331348638877103
 30
0.0
 40
1.787976262859134
 50
156.9178879494872092
 51
164.6454497404432971
  0
ARC
  5
339E8
  8
0
 10
6327.9534875797844506
 20
370.3893080763023136
 30
0.0
 40
1.8562233540497319
 50
154.4291365486645873
 51
162.2011356600386875
  0
ARC
  5
339E9
  8
0
 10
6323.366404866746052
 20
372.448234936044912
 30
0.0
 40
3.1726246436114378
 50
336.644672985829402
 51
346.3508832121520982
  0
ARC
  5
339EA
  8
0
 10
6323.2802852164495562
 20
372.4691476352970199
 30
0.0
 40
3.2612470739393902
 50
346.3508832121520982
 51
355.7330005825900798
  0
ARC
  5
339EB
  8
0
 10
6323.8948090696876534
 20
372.3133966065764184
 30
0.0
 40
2.65516528408105
 50
345.7217038652310066
 51
358.1244511205885033
  0
ARC
  5
339EC
  8
0
 10
6324.4241201186659964
 20
372.0386949692236271
 30
0.0
 40
2.0788866230020151
 50
338.4311670504910126
 51
349.4635614397329846
  0
ARC
  5
339ED
  8
0
 10
6322.0872670594408191
 20
372.7249781037950243
 30
0.0
 40
4.50980637749847
 50
335.5975657045522098
 51
341.2380446770171147
  0
ARC
  5
339EE
  8
0
 10
6323.2588794251678337
 20
372.287027680892777
 30
0.0
 40
3.2884058061391701
 50
333.3098788340358851
 51
341.3306894103973832
  0
ARC
  5
339EF
  8
0
 10
6322.7687216416334195
 20
372.4526443669373066
 30
0.0
 40
3.8057872316422929
 50
341.3306894103973832
 51
348.3206465304155017
  0
ARC
  5
339F0
  8
0
 10
6321.9445708659759475
 20
372.5532843959201159
 30
0.0
 40
4.633750742734617
 50
349.164952736800501
 51
355.9559507746532176
  0
ARC
  5
339F1
  8
0
 10
6322.1419872065544041
 20
372.4283802259133722
 30
0.0
 40
4.4396828619333686
 50
347.4474286368546814
 51
357.3937172007831009
  0
ARC
  5
339F2
  8
0
 10
6323.8608479458598595
 20
372.0456629942038944
 30
0.0
 40
2.6787300742146001
 50
337.2766144284246934
 51
347.4474286368546814
  0
ARC
  5
339F3
  8
0
 10
6323.6970436668789262
 20
372.114262378295507
 30
0.0
 40
2.8563186924044541
 50
331.2259931674968243
 51
337.2766144284246934
  0
ARC
  5
339F4
  8
0
 10
6328.8830208156914523
 20
369.5066314214320755
 30
0.0
 40
2.9142547913307659
 50
153.3291807118145869
 51
156.7973439866408114
  0
ARC
  5
339F5
  8
0
 10
6324.0910096587849694
 20
371.9137048044705125
 30
0.0
 40
2.448335366349121
 50
333.3291807118146153
 51
345.9498219507743784
  0
ARC
  5
339F6
  8
0
 10
6322.1071811243064076
 20
372.4101745996771911
 30
0.0
 40
4.4933434132193621
 50
345.9498219507743784
 51
349.8750656297709725
  0
ARC
  5
339F7
  8
0
 10
6321.3841853865642406
 20
372.4162941198101748
 30
0.0
 40
5.207563229226805
 50
351.2073024385908866
 51
357.9113061734889243
  0
ARC
  5
339F8
  8
0
 10
6309.9832888109358464
 20
377.432702616959773
 30
0.0
 40
17.6231251427901583
 50
337.0503057061761751
 51
337.8673242355862953
  0
ARC
  5
339F9
  8
0
 10
6302.7394641980399683
 20
380.378928195090225
 30
0.0
 40
25.4431788625307185
 50
337.8673242355862953
 51
338.6954605847395783
  0
ARC
  5
339FA
  8
0
 10
6324.3792892631481664
 20
371.8268953908869889
 30
0.0
 40
2.1775471625671372
 50
341.4676605122630235
 51
353.0514956990048177
  0
ARC
  5
339FB
  8
0
 10
6320.7052393265121282
 20
372.3978649281147
 30
0.0
 40
5.894955331741297
 50
351.8627247423876838
 51
358.3341579042951253
  0
ARC
  5
339FC
  8
0
 10
6321.3473136721795527
 20
372.2577669376523772
 30
0.0
 40
5.2533970739855906
 50
349.809367185615713
 51
359.6589505294489868
  0
ARC
  5
339FD
  8
0
 10
6323.4694553552180878
 20
371.9733183368787763
 30
0.0
 40
3.115871143356383
 50
337.6101782302449124
 51
348.0530740421547193
  0
ARC
  5
339FE
  8
0
 10
6444.1703150955063393
 20
317.9692395433963839
 30
0.0
 40
129.116938914847708
 50
155.8538850867687131
 51
156.0028610061648067
  0
ARC
  5
339FF
  8
0
 10
6323.2377117905325576
 20
372.0179430203559718
 30
0.0
 40
3.3812213475686401
 50
331.7101311309137941
 51
345.7884496055989985
  0
ARC
  5
33A00
  8
0
 10
6323.3925968436205949
 20
371.8918614538865768
 30
0.0
 40
3.2012305117761399
 50
347.2956075108821778
 51
356.1059302635595145
  0
ARC
  5
33A01
  8
0
 10
6413.5542509136030276
 20
368.0493289232483107
 30
0.0
 40
87.0433356272459378
 50
177.3434244250182985
 51
177.6130881688463035
  0
ARC
  5
33A02
  8
0
 10
6321.0895683316402938
 20
372.0182261972507263
 30
0.0
 40
5.5152823394526456
 50
353.9158513919497864
 51
0.6805419404548017
  0
ARC
  5
33A03
  8
0
 10
6323.8356524229411662
 20
371.7255228511559721
 30
0.0
 40
2.7536427747527421
 50
343.9494128184268789
 51
353.9158513919497864
  0
ARC
  5
33A04
  8
0
 10
6323.6732174293556454
 20
371.8367571822620903
 30
0.0
 40
2.9411537388803328
 50
331.102765658606927
 51
342.7417684912620075
  0
ARC
  5
33A05
  8
0
 10
6324.4210131287936747
 20
371.493699473534889
 30
0.0
 40
2.1620168989407111
 50
330.0850976226564057
 51
348.2111032636045138
  0
ARC
  5
33A06
  8
0
 10
6323.8265531350152742
 20
371.617768414153204
 30
0.0
 40
2.769286020689202
 50
348.2111032636045138
 51
357.2294234242236257
  0
ARC
  5
33A07
  8
0
 10
6483.4668472116018165
 20
363.8922304829102927
 30
0.0
 40
157.0578312941968875
 50
177.1383639719497864
 51
177.229423424223512
  0
ARC
  5
33A08
  8
0
 10
6319.206987300435685
 20
371.8520740818037211
 30
0.0
 40
7.3988345228950401
 50
354.7018415242674791
 51
359.0795551662329217
  0
ARC
  5
33A09
  8
0
 10
6324.5946362887289069
 20
371.3979785243873266
 30
0.0
 40
1.9927885087371611
 50
341.9372840995055185
 51
353.3983527127066964
  0
ARC
  5
33A0A
  8
0
 10
6324.5914126944326199
 20
371.399029836117279
 30
0.0
 40
1.9961792043200861
 50
330.4805028473265907
 51
341.9372840995055185
  0
ARC
  5
33A0B
  8
0
 10
6336.3533401045551727
 20
366.024186111328504
 30
0.0
 40
10.9097663480647
 50
155.0926655285537947
 51
156.2648332454128024
  0
ARC
  5
33A0C
  8
0
 10
6324.4028501484208391
 20
371.3811146742191909
 30
0.0
 40
2.1922299687630562
 50
339.6527093701689068
 51
348.5578423913706274
  0
ARC
  5
33A0D
  8
0
 10
6323.6812584970148237
 20
371.4978949244497244
 30
0.0
 40
2.9227878306274899
 50
349.1202457964542987
 51
357.0003951670843207
  0
ARC
  5
33A0E
  8
0
 10
6323.3279938694086013
 20
371.5605347867232808
 30
0.0
 40
3.279142460546761
 50
356.230380391233723
 51
358.0110014511512873
  0
ARC
  5
33A0F
  8
0
 10
6325.4286417837238332
 20
371.0438442509549191
 30
0.0
 40
1.1446266803882099
 50
326.7033172849046991
 51
351.2175936255429747
  0
ARC
  5
33A10
  8
0
 10
6322.4631132532704214
 20
371.4782716517904078
 30
0.0
 40
4.1417811071431521
 50
351.5419944569684958
 51
359.3695812667914993
  0
ARC
  5
33A11
  8
0
 10
6324.3551896596936785
 20
371.2202797455652217
 30
0.0
 40
2.250302660589572
 50
344.519619491454705
 51
359.0163124872776166
  0
ARC
  5
33A12
  8
0
 10
6325.9563368512863235
 20
370.7768327140547058
 30
0.0
 40
0.5888823047189528
 50
322.1470985441565063
 51
344.519619491454705
  0
ARC
  5
33A13
  8
0
 10
6325.5691519658557809
 20
370.8902538202972892
 30
0.0
 40
1.0168696953692511
 50
332.1664832524668896
 51
351.417184634472278
  0
ARC
  5
33A14
  8
0
 10
6324.0088349198977085
 20
371.1257509216320045
 30
0.0
 40
2.5948583419190112
 50
351.417184634472278
 51
0.0986602183610655
  0
ARC
  5
33A15
  8
0
 10
6325.8747977561470179
 20
370.7660875873439181
 30
0.0
 40
0.7114338138552228
 50
330.4733791320866203
 51
351.8019633988030819
  0
ARC
  5
33A16
  8
0
 10
6323.5504845116438446
 20
371.1009449398886773
 30
0.0
 40
3.05974416496483
 50
351.8019633988030819
 51
355.4456218088004107
  0
ARC
  5
33A17
  8
0
 10
6325.038289975220323
 20
370.9824312136354934
 30
0.0
 40
1.567225957116769
 50
355.4456218088004107
 51
358.780029154248723
  0
ARC
  5
33A18
  8
0
 10
6326.0536709101734232
 20
370.6910431768092735
 30
0.0
 40
0.5404019077503281
 50
329.3404435191068842
 51
356.6036140917914281
  0
ARC
  5
33A19
  8
0
 10
6316.4178807673688425
 20
371.2629046474086181
 30
0.0
 40
10.1931464510245302
 50
356.6036140917914281
 51
358.0560040928336889
  0
ARC
  5
33A1A
  8
0
 10
6326.2176209938743341
 20
370.6016554842520918
 30
0.0
 40
0.3772569797814897
 50
330.4279653238339165
 51
352.8009073062842731
  0
ARC
  5
33A1B
  8
0
 10
6323.2819641750029405
 20
370.972467956165076
 30
0.0
 40
3.3362403943200158
 50
352.8009073062842731
 51
354.931795373601517
  0
ARC
  5
33A1C
  8
0
 10
6325.7981401533334065
 20
370.6416486717816952
 30
0.0
 40
0.8084424874484859
 50
343.7537346939549252
 51
356.6012377188953906
  0
ARC
  5
33A1D
  8
0
 10
6325.5598271902726992
 20
370.5845897569095087
 30
0.0
 40
1.051052737635525
 50
350.7407312262245114
 51
354.0201260986675038
  0
ARC
  5
33A1E
  8
0
 10
6325.8837968466714301
 20
370.4167622014559242
 30
0.0
 40
0.0755829219559036
 50
182.8776788264754032
 51
203.8477665729093076
  0
ARC
  5
33A1F
  8
0
 10
6325.7172258277960282
 20
370.3997207087292054
 30
0.0
 40
0.0983742541606827
 50
352.1021883871421778
 51
9.2142348528460634
  0
ARC
  5
33A20
  8
0
 10
6325.8733500651251234
 20
370.4237556294340266
 30
0.0
 40
0.0433886291383018
 50
191.0048989528627885
 51
242.2140902689957898
  0
ARC
  5
33A21
  8
0
 10
6325.8254587932697177
 20
370.4031183107383072
 30
0.0
 40
0.0328686658284109
 50
327.3177427503343893
 51
22.0906975546602489
  0
ARC
  5
33A22
  8
0
 10
6325.9392081963724195
 20
370.4343435225407006
 30
0.0
 40
0.058840204755009
 50
198.7061442766274126
 51
236.848556020321297
  0
ARC
  5
33A23
  8
0
 10
6325.8806244715287903
 20
370.3988900284682018
 30
0.0
 40
0.0297994747556061
 50
332.3930625974917916
 51
33.8120864343420919
  0
ARC
  5
33A24
  8
0
 10
6326.0064750987239677
 20
370.4456409706215823
 30
0.0
 40
0.0658167140619922
 50
207.2915087067418085
 51
246.3767384429752099
  0
ARC
  5
33A25
  8
0
 10
6325.9589645820169608
 20
370.4010377405318195
 30
0.0
 40
0.026328219673243
 50
323.3986134872893103
 51
33.2532437761975928
  0
ARC
  5
33A26
  8
0
 10
6326.0583069598942529
 20
370.4283231288829938
 30
0.0
 40
0.0367776176868094
 50
200.4497576107899022
 51
251.7703942004654891
  0
ARC
  5
33A27
  8
0
 10
6326.0131877258882014
 20
370.3979379452056264
 30
0.0
 40
0.0339203350213307
 50
352.2970533037640166
 51
31.1278967187295308
  0
ARC
  5
33A28
  8
0
 10
6326.1641853744604305
 20
370.4699003470391858
 30
0.0
 40
0.0968769355345831
 50
214.1818809285720988
 51
239.6430082987361061
  0
ARC
  5
33A29
  8
0
 10
6326.0876449835268431
 20
370.4016871679996825
 30
0.0
 40
0.0315792182119034
 50
330.8518442119953988
 51
25.8839461703642897
  0
ARC
  5
33A2A
  8
0
 10
6326.2250855121274071
 20
370.4553611099019008
 30
0.0
 40
0.0739172468995872
 50
212.6585643854772911
 51
246.0736071465979933
  0
ARC
  5
33A2B
  8
0
 10
6326.1741225798614323
 20
370.4022235107627239
 30
0.0
 40
0.0254661275254057
 50
325.49027853843819
 51
24.4588792859664608
  0
ARC
  5
33A2C
  8
0
 10
6326.2365120124850364
 20
370.4035058010189232
 30
0.0
 40
0.0245429410587887
 50
150.8187882061118046
 51
220.6727166656903023
  0
ARC
  5
33A2D
  8
0
 10
6326.2016423028680947
 20
370.4354618842061768
 30
0.0
 40
0.0506319281793861
 50
288.7262735900329744
 51
336.7480819835483885
  0
ARC
  5
33A2E
  8
0
 10
6326.3243596801194144
 20
370.3998721492899904
 30
0.0
 40
0.0332665453561994
 50
152.0326421421488874
 51
198.4758443439469886
  0
ARC
  5
33A2F
  8
0
 10
6326.2832796814745961
 20
370.4397121232389054
 30
0.0
 40
0.0512753457410498
 50
280.7090742636275991
 51
331.78870111166691
  0
ARC
  5
33A30
  8
0
 10
6326.4123616645883885
 20
370.3985143855954902
 30
0.0
 40
0.0490200251334828
 50
159.7599998009771127
 51
188.1218996168628053
  0
ARC
  5
33A31
  8
0
 10
6326.3099105339597372
 20
370.4618489308813878
 30
0.0
 40
0.0885671809980773
 50
307.5053052606114079
 51
328.4246816572378975
  0
ARC
  5
33A32
  8
0
 10
6326.4358533856293434
 20
370.4065799848683014
 30
0.0
 40
0.0170454788750685
 50
148.5516090697198877
 51
221.5959843524047983
  0
ARC
  5
33A33
  8
0
 10
6326.4388250963993414
 20
370.4092180207231877
 30
0.0
 40
0.0210191796783344
 50
221.5959843524047983
 51
317.8600927226472095
  0
ARC
  5
33A34
  8
0
 10
6326.3859808325505583
 20
370.4570333764440875
 30
0.0
 40
0.0922850513447076
 50
317.8600927226472095
 51
333.2341833239105995
  0
ARC
  5
33A35
  8
0
 10
6326.5388424414586552
 20
370.3876027973512919
 30
0.0
 40
0.0529376198656338
 50
148.2323704215154123
 51
167.2337389159831957
  0
ARC
  5
33A36
  8
0
 10
6326.4964851710556104
 20
370.397199906832725
 30
0.0
 40
0.0095067222648263
 50
167.2337389159800125
 51
293.8318306015992789
  0
ARC
  5
33A37
  8
0
 10
6326.3493360921002022
 20
370.5100557710363205
 30
0.0
 40
0.1938374584080864
 50
321.1648288011789987
 51
330.7941007359788728
  0
ARC
  5
33A38
  8
0
 10
6326.5716192643303657
 20
370.4020267216388902
 30
0.0
 40
0.0291683020938176
 50
152.5499292037621046
 51
211.0458539600591052
  0
ARC
  5
33A39
  8
0
 10
6326.5224815641504392
 20
370.4381200668311749
 30
0.0
 40
0.0565509659659776
 50
295.2777190369828872
 51
336.3929867363586936
  0
ARC
  5
33A3A
  8
0
 10
6326.6708189344790298
 20
370.3993152264375794
 30
0.0
 40
0.07538580248741
 50
167.6234958144158895
 51
189.9087933965359127
  0
ARC
  5
33A3B
  8
0
 10
6326.348185349564119
 20
370.4567924168637205
 30
0.0
 40
0.2581703982975912
 50
344.1642697902927921
 51
350.7904597044804973
  0
ARC
  5
33A3C
  8
0
 10
6327.3265587560163112
 20
370.3500198038844928
 30
0.0
 40
0.7264854883457217
 50
173.215367544395292
 51
174.8308580224806974
  0
ARC
  5
33A3D
  8
0
 10
6326.2043927484746746
 20
372.0197330853196149
 30
0.0
 40
0.0058364354346171
 50
193.3384246642233109
 51
298.6063806659290094
  0
ARC
  5
33A3E
  8
0
 10
6326.1978797545671114
 20
371.9353453761942774
 30
0.0
 40
0.0094862665829847
 50
196.5268139821079103
 51
323.7902831205138909
  0
ARC
  5
33A3F
  8
0
 10
6326.1859433847630498
 20
371.7885265868865758
 30
0.0
 40
0.0042428807825656
 50
192.5855527318070983
 51
322.5515148162851915
  0
ARC
  5
33A40
  8
0
 10
6326.1837058457913372
 20
371.7197559087007903
 30
0.0
 40
0.0078679458162515
 50
202.1777355311558892
 51
306.5058722808715856
  0
ARC
  5
33A41
  8
0
 10
6326.1740609263370061
 20
371.5901346056426178
 30
0.0
 40
0.0080285237607944
 50
185.2827132578842964
 51
328.1666312709277804
  0
ARC
  5
33A42
  8
0
 10
6326.1676001219084355
 20
371.5406461075406241
 30
0.0
 40
0.0099272171502189
 50
199.4807972057743939
 51
330.2121050799216846
  0
ARC
  5
33A43
  8
0
 10
6326.1654860662038118
 20
371.4093902843567889
 30
0.0
 40
0.0078733749854541
 50
224.2153157575887121
 51
340.0513867671311914
  0
ARC
  5
33A44
  8
0
 10
6326.16576602754958
 20
371.3239293222649167
 30
0.0
 40
0.0064896067585201
 50
183.7065516648951018
 51
343.8192293975588996
  0
ARC
  5
33A45
  8
0
 10
6326.1723571667444048
 20
371.1761749848255931
 30
0.0
 40
0.0042931650417566
 50
188.933065504177307
 51
327.963175210921122
  0
ARC
  5
33A46
  8
0
 10
6326.1744768489288617
 20
371.1145623003740184
 30
0.0
 40
0.0082759647639873
 50
212.0565414561309012
 51
334.128239826942206
  0
ARC
  5
33A47
  8
0
 10
6326.176510901790607
 20
371.0085256210120974
 30
0.0
 40
0.0068889267453666
 50
201.4453457128909122
 51
343.5546830761333013
  0
ARC
  5
33A48
  8
0
 10
6326.1790127215208486
 20
370.9633994097675895
 30
0.0
 40
0.0097527897984195
 50
211.2365699037677018
 51
316.7084108060294056
  0
ARC
  5
33A49
  8
0
 10
6326.1856073952603765
 20
370.8689154209494063
 30
0.0
 40
0.0111634132840936
 50
203.6911640772642897
 51
320.286852320925675
  0
ARC
  5
33A4A
  8
0
 10
6326.186400115181641
 20
370.8166252949565092
 30
0.0
 40
0.012421710142054
 50
207.9810693053744899
 51
327.7179984512264923
  0
ARC
  5
33A4B
  8
0
 10
6326.1912734965217169
 20
370.7463406088459124
 30
0.0
 40
0.011715142291219
 50
205.5599140289191951
 51
323.4016919563741794
  0
ARC
  5
33A4C
  8
0
 10
6326.1962682029588905
 20
370.6598580047692053
 30
0.0
 40
0.0096426741503823
 50
209.506167855936809
 51
328.3812159532860733
  0
ARC
  5
33A4D
  8
0
 10
6326.2029433579837132
 20
370.5629011989076957
 30
0.0
 40
0.0087563059154628
 50
208.7139890375260052
 51
347.7597685962761034
  0
ARC
  5
33A4E
  8
0
 10
6326.2047965334650144
 20
370.4847119746019075
 30
0.0
 40
0.0099257494096532
 50
211.3773087711180949
 51
331.2635210039996991
  0
LINE
  5
33A4F
  8
0
 10
6328.9611057255388005
 20
371.2519533044363129
 30
0.0
 11
6328.4994038276890933
 21
371.2519533044363129
 31
0.0
  0
LINE
  5
33A50
  8
0
 10
6329.031105725530324
 20
374.9919558698379092
 30
0.0
 11
6328.4994038276890933
 21
374.9919558698379092
 31
0.0
  0
LINE
  5
33A51
  8
0
 10
6329.0411057255387277
 20
374.981953304413878
 30
0.0
 11
6329.0411057255387277
 21
371.2636704488618875
 31
0.0
  0
LINE
  5
33A52
  8
0
 10
6328.3511844657386973
 20
374.8330217786323146
 30
0.0
 11
6328.3511844657386973
 21
371.4108848302402066
 31
0.0
  0
LINE
  5
33A53
  8
0
 10
6328.1543340720381821
 20
374.0108965731168951
 30
0.0
 11
6328.1543340720381821
 21
372.233010035755683
 31
0.0
  0
LINE
  5
33A54
  8
0
 10
6326.9732317098387284
 20
373.8378965731139942
 30
0.0
 11
6326.9732317098387284
 21
372.406010035758527
 31
0.0
  0
LINE
  5
33A55
  8
0
 10
6326.9532324657384379
 20
373.5105067776606802
 30
0.0
 11
6326.9532324657384379
 21
372.7333998312118979
 31
0.0
  0
ARC
  5
33A56
  8
0
 10
6328.4994128058997376
 20
374.951940844144417
 30
0.0
 40
0.0400150267007233
 50
90.0128555837592614
 51
137.6954558883859079
  0
LINE
  5
33A57
  8
0
 10
6328.4698185838387872
 20
374.9788738050363008
 30
0.0
 11
6328.361599221938377
 21
374.8599422791363054
 31
0.0
  0
ARC
  5
33A58
  8
0
 10
6328.3911844655413006
 20
374.8330217786731282
 30
0.0
 40
0.039999999802919
 50
137.6999998926270905
 51
180.0000000583926862
  0
LINE
  5
33A59
  8
0
 10
6328.4698185838387872
 20
374.9788738050363008
 30
0.0
 11
6328.4698185838387872
 21
371.2650328038362773
 31
0.0
  0
LINE
  5
33A5A
  8
0
 10
6328.2494914128355958
 20
374.106205272936279
 30
0.0
 11
6328.3411844657375696
 21
374.106205272936279
 31
0.0
  0
LINE
  5
33A5B
  8
0
 10
6328.1143340720391279
 20
373.9489533044363156
 30
0.0
 11
6327.0842884414369109
 21
373.9489533044363156
 31
0.0
  0
ARC
  5
33A5C
  8
0
 10
6327.0842884414369109
 20
373.9089533039482944
 30
0.0
 40
0.0400000004880488
 50
90.0000001390300355
 51
134.999999603977102
  0
LINE
  5
33A5D
  8
0
 10
6327.0560041700391594
 20
373.9372375757362761
 30
0.0
 11
6326.9849474386392103
 21
373.8661808442362826
 31
0.0
  0
ARC
  5
33A5E
  8
0
 10
6327.0132317093966776
 20
373.8378965731239987
 30
0.0
 40
0.0399999995591126
 50
134.999999642291499
 51
180.0000000142325973
  0
ARC
  5
33A5F
  8
0
 10
6326.9382324632997552
 20
373.5104966056484841
 30
0.0
 40
0.0150000058877916
 50
0.0388542122598783
 51
90.0000000000521254
  0
ARC
  5
33A60
  8
0
 10
6328.114721208348783
 20
373.9885646009262814
 30
0.0
 40
0.0396131882602251
 50
269.4400443204067983
 51
0.2319381780549374
  0
ARC
  5
33A61
  8
0
 10
6328.1943340716088642
 20
374.0108965731168951
 30
0.0
 40
0.0399999995716523
 50
134.9999996458334977
 51
180.0005598952106141
  0
LINE
  5
33A62
  8
0
 10
6328.1660498008377544
 20
374.0391808442362844
 30
0.0
 11
6328.2212071414387538
 21
374.0944895442362963
 31
0.0
  0
ARC
  5
33A63
  8
0
 10
6328.2494914128355958
 20
374.066205272448201
 30
0.0
 40
0.0400000004880295
 50
90.0000001390300355
 51
134.9999996040438077
  0
ARC
  5
33A64
  8
0
 10
6328.3411844657375696
 20
374.0962052729362881
 30
0.0
 40
0.0100000000000087
 50
0.0000000000097707
 51
89.9999999999478888
  0
ARC
  5
33A65
  8
0
 10
6329.0311013447681034
 20
374.9819514898616148
 30
0.0
 40
0.0100043809354984
 50
0.0103920668424878
 51
89.974911074885398
  0
ARC
  5
33A66
  8
0
 10
6328.4994038276890933
 20
371.2919533046749052
 30
0.0
 40
0.0400000002386007
 50
222.3000002665552017
 51
269.999999927827389
  0
LINE
  5
33A67
  8
0
 10
6328.4698185838387872
 20
371.2650328038362773
 30
0.0
 11
6328.361599221938377
 21
371.3839643297362727
 31
0.0
  0
ARC
  5
33A68
  8
0
 10
6328.3911844655413006
 20
371.410884830199393
 30
0.0
 40
0.0399999998028786
 50
179.9999999415877028
 51
222.30000010744169
  0
LINE
  5
33A69
  8
0
 10
6328.2494914128355958
 20
372.1377013359362991
 30
0.0
 11
6328.3411844657375696
 21
372.1377013359362991
 31
0.0
  0
ARC
  5
33A6A
  8
0
 10
6327.0842884414369109
 20
372.3349533049243973
 30
0.0
 40
0.0400000004880488
 50
225.000000396022898
 51
269.9999998609177965
  0
LINE
  5
33A6B
  8
0
 10
6327.0560041700391594
 20
372.306669033136302
 30
0.0
 11
6326.9849474386392103
 21
372.3777257646362955
 31
0.0
  0
ARC
  5
33A6C
  8
0
 10
6327.0132317093966776
 20
372.4060100357485794
 30
0.0
 40
0.0399999995591163
 50
179.9999999857705859
 51
225.0000003577083874
  0
ARC
  5
33A6D
  8
0
 10
6326.9382324632997552
 20
372.733410003224094
 30
0.0
 40
0.0150000058877939
 50
270.0
 51
359.9611457877302882
  0
ARC
  5
33A6E
  8
0
 10
6328.1943340715979502
 20
372.2330100357485776
 30
0.0
 40
0.0399999995591021
 50
179.9999999898188889
 51
225.0000003577083874
  0
LINE
  5
33A6F
  8
0
 10
6328.1660498008377544
 20
372.2047257646362937
 30
0.0
 11
6328.2212071414387538
 21
372.1494170646362818
 31
0.0
  0
ARC
  5
33A70
  8
0
 10
6328.2494914128355958
 20
372.1777013364243203
 30
0.0
 40
0.0400000004880295
 50
225.0000003959561923
 51
269.9999998609699787
  0
ARC
  5
33A71
  8
0
 10
6329.0311005911844404
 20
371.2636704488232908
 30
0.0
 40
0.0100051343540088
 50
270.0483812409406141
 51
0.0000002209016851
  0
LINE
  5
33A72
  8
0
 10
6328.2212071414387538
 20
374.0944895442362963
 30
0.0
 11
6328.2212071414387538
 21
372.1494170646362818
 31
0.0
  0
LINE
  5
33A73
  8
0
 10
6327.0560041700391594
 20
373.9372375757362761
 30
0.0
 11
6327.0560041700391594
 21
372.306669033136302
 31
0.0
  0
ARC
  5
33A74
  8
0
 10
6326.9532317098401109
 20
373.4719533044362834
 30
0.0
 40
0.0199999999999978
 50
270.0
 51
0.0000000000032569
  0
ARC
  5
33A75
  8
0
 10
6326.9532317098401109
 20
372.7719533044362947
 30
0.0
 40
0.0199999999999978
 50
359.9999999999968168
 51
90.0
  0
ARC
  5
33A76
  8
0
 10
6328.3411844657375696
 20
372.14770133593629
 30
0.0
 40
0.0100000000000087
 50
270.0000000000521254
 51
359.9999999999902229
  0
LINE
  5
33A77
  8
0
 10
6328.1143340720391279
 20
372.2949533044363193
 30
0.0
 11
6327.0842884414369109
 21
372.2949533044363193
 31
0.0
  0
ARC
  5
33A78
  8
0
 10
6328.114721208348783
 20
372.2553420079462967
 30
0.0
 40
0.0396131882602251
 50
359.7680618219450253
 51
90.5599556795411758
  0
LINE
  5
33A79
  8
0
 10
6328.9611057255388005
 20
371.2519533090363097
 30
0.0
 11
6328.9611057255388005
 21
371.2526218731363201
 31
0.0
  0
LINE
  5
33A7A
  8
0
 10
6328.9611057255388005
 20
371.2526218731363201
 30
0.0
 11
6328.9911057255376363
 21
371.253665318036326
 31
0.0
  0
LINE
  5
33A7B
  8
0
 10
6328.9911057255376363
 20
371.253665318036326
 30
0.0
 11
6329.0311090396398868
 21
371.253665318036326
 31
0.0
  0
ATTDEF
  5
33AB2
  8
DEFPOINTS
 10
6329.0274628648048747
 20
373.1189448668566229
 30
0.0
 40
0.001
  1
P24923-BNW
  3

  2
MODELNUMBER
 70
     0
1001
ACDBATTR
1070
     0
1070
     1
  0
ATTDEF
  5
33AB3
  8
DEFPOINTS
 10
6329.0273370551485641
 20
373.1172780264774929
 30
0.0
 40
0.001
  1
PINNA PALETTA
  3

  2
TRADENAME
 70
     0
1001
ACDBATTR
1070
     0
1070
     1
  0
ATTDEF
  5
33AB4
  8
DEFPOINTS
 10
6329.0274628648048747
 20
373.1156115335232926
 30
0.0
 40
0.001
  1
VALVE TRIM
  3

  2
PRODUCT
 70
     0
1001
ACDBATTR
1070
     0
1070
     1
  0
ENDSEC
  0
EOF
