  0
SECTION
  2
HEADER
  9
$ACADVER
  1
AC1009
  9
$INSBASE
 10
6322.0204434635388679
 20
373.1228118766379112
 30
0.0
  9
$EXTMIN
 10
6320.1504434635398866
 20
370.2973653186379011
 30
0.0
  9
$EXTMAX
 10
6323.8904434635396683
 20
374.9919558698379092
 30
0.0
  9
$LIMMIN
 10
0.0
 20
0.0
  9
$LIMMAX
 10
11.6929133858000007
 20
8.2677165353999982
  9
$ORTHOMODE
 70
     0
  9
$REGENMODE
 70
     1
  9
$FILLMODE
 70
     1
  9
$QTEXTMODE
 70
     0
  9
$MIRRTEXT
 70
     0
  9
$DRAGMODE
 70
     2
  9
$LTSCALE
 40
0.6431102362
  9
$OSMODE
 70
  3839
  9
$ATTMODE
 70
     1
  9
$TEXTSIZE
 40
0.2
  9
$TRACEWID
 40
0.05
  9
$TEXTSTYLE
  7
STANDARD
  9
$CLAYER
  8
0
  9
$CELTYPE
  6
BYLAYER
  9
$CECOLOR
 62
   256
  9
$DIMSCALE
 40
1.0
  9
$DIMASZ
 40
0.1875
  9
$DIMEXO
 40
0.0625
  9
$DIMDLI
 40
0.4443307087
  9
$DIMRND
 40
0.0
  9
$DIMDLE
 40
0.0
  9
$DIMEXE
 40
0.125
  9
$DIMTP
 40
0.01
  9
$DIMTM
 40
0.01
  9
$DIMTXT
 40
2.0
  9
$DIMCEN
 40
0.1052362205
  9
$DIMTSZ
 40
0.0
  9
$DIMTOL
 70
     1
  9
$DIMLIM
 70
     0
  9
$DIMTIH
 70
     1
  9
$DIMTOH
 70
     1
  9
$DIMSE1
 70
     0
  9
$DIMSE2
 70
     0
  9
$DIMTAD
 70
     0
  9
$DIMZIN
 70
     0
  9
$DIMBLK
  1

  9
$DIMASO
 70
     1
  9
$DIMSHO
 70
     1
  9
$DIMPOST
  1
\X
  9
$DIMAPOST
  1

  9
$DIMALT
 70
     1
  9
$DIMALTD
 70
     2
  9
$DIMALTF
 40
25.3999999999999986
  9
$DIMLFAC
 40
1.0
  9
$DIMTOFL
 70
     0
  9
$DIMTVP
 40
0.0
  9
$DIMTIX
 70
     0
  9
$DIMSOXD
 70
     0
  9
$DIMSAH
 70
     0
  9
$DIMBLK1
  1

  9
$DIMBLK2
  1

  9
$DIMSTYLE
  2
STANDARD
  9
$DIMCLRD
 70
     0
  9
$DIMCLRE
 70
     0
  9
$DIMCLRT
 70
     0
  9
$DIMTFAC
 40
1.0
  9
$DIMGAP
 40
0.09
  9
$LUNITS
 70
     2
  9
$LUPREC
 70
     4
  9
$SKETCHINC
 40
0.1
  9
$FILLETRAD
 40
0.0
  9
$AUNITS
 70
     0
  9
$AUPREC
 70
     0
  9
$MENU
  1
.
  9
$ELEVATION
 40
0.0
  9
$PELEVATION
 40
0.0
  9
$THICKNESS
 40
0.0
  9
$LIMCHECK
 70
     0
  9
$BLIPMODE
 70
     0
  9
$CHAMFERA
 40
0.0
  9
$CHAMFERB
 40
0.0
  9
$SKPOLY
 70
     0
  9
$TDCREATE
 40
2458060.468368056230247
  9
$TDUPDATE
 40
2460283.4951736112125218
  9
$TDINDWG
 40
0.7428427083
  9
$TDUSRTIMER
 40
0.7428427083
  9
$USRTIMER
 70
     1
  9
$ANGBASE
 50
0.0
  9
$ANGDIR
 70
     0
  9
$PDMODE
 70
     0
  9
$PDSIZE
 40
0.3125
  9
$PLINEWID
 40
0.0
  9
$COORDS
 70
     1
  9
$SPLFRAME
 70
     0
  9
$SPLINETYPE
 70
     6
  9
$SPLINESEGS
 70
     8
  9
$ATTDIA
 70
     1
  9
$ATTREQ
 70
     1
  9
$HANDLING
 70
     1
  9
$HANDSEED
  5
33C04
  9
$SURFTAB1
 70
     6
  9
$SURFTAB2
 70
     6
  9
$SURFTYPE
 70
     6
  9
$SURFU
 70
     6
  9
$SURFV
 70
     6
  9
$UCSNAME
  2

  9
$UCSORG
 10
0.0
 20
0.0
 30
0.0
  9
$UCSXDIR
 10
1.0
 20
0.0
 30
0.0
  9
$UCSYDIR
 10
0.0
 20
1.0
 30
0.0
  9
$PUCSNAME
  2

  9
$PUCSORG
 10
0.0
 20
0.0
 30
0.0
  9
$PUCSXDIR
 10
1.0
 20
0.0
 30
0.0
  9
$PUCSYDIR
 10
0.0
 20
1.0
 30
0.0
  9
$USERI1
 70
     0
  9
$USERI2
 70
     0
  9
$USERI3
 70
     0
  9
$USERI4
 70
     0
  9
$USERI5
 70
     0
  9
$USERR1
 40
0.0
  9
$USERR2
 40
0.0
  9
$USERR3
 40
0.0
  9
$USERR4
 40
0.0
  9
$USERR5
 40
0.0
  9
$WORLDVIEW
 70
     1
  9
$SHADEDGE
 70
     3
  9
$SHADEDIF
 70
    70
  9
$TILEMODE
 70
     1
  9
$MAXACTVP
 70
    64
  9
$PLIMCHECK
 70
     0
  9
$PEXTMIN
 10
1.0000000000000000E+20
 20
1.0000000000000000E+20
 30
1.0000000000000000E+20
  9
$PEXTMAX
 10
-1.0000000000000000E+20
 20
-1.0000000000000000E+20
 30
-1.0000000000000000E+20
  9
$PLIMMIN
 10
0.0
 20
0.0
  9
$PLIMMAX
 10
12.0
 20
9.0
  9
$UNITMODE
 70
     0
  9
$VISRETAIN
 70
     1
  9
$PLINEGEN
 70
     0
  9
$PSLTSCALE
 70
     1
  0
ENDSEC
  0
SECTION
  2
TABLES
  0
TABLE
  2
VPORT
 70
     1
  0
VPORT
  2
*ACTIVE
 70
     0
 10
0.0
 20
0.0
 11
1.0
 21
1.0
 12
2410.6550870182268227
 22
240.0650554916988142
 13
0.0
 23
0.0
 14
1.0
 24
1.0
 15
0.0
 25
0.0
 16
0.0
 26
0.0
 36
60.4960186965801583
 17
3911.3653564453120453
 27
132.5796051025390057
 37
0.0
 40
4.7258530853922593
 41
2.1211111111111101
 42
50.0
 43
0.0
 44
0.0
 50
0.0
 51
0.0
 71
     0
 72
   100
 73
     1
 74
     1
 75
     0
 76
     0
 77
     0
 78
     0
  0
ENDTAB
  0
TABLE
  2
LTYPE
 70
     2
  0
LTYPE
  2
CONTINUOUS
 70
     0
  3
Solid line
 72
    65
 73
     0
 40
0.0
  0
LTYPE
  2
PHANTOM2
 70
     0
  3
___ _ _ ___ _ _ ___ _ _ ___ _ _
 72
    65
 73
     6
 40
1.25
 49
0.625
 49
-0.125
 49
0.125
 49
-0.125
 49
0.125
 49
-0.125
  0
ENDTAB
  0
TABLE
  2
LAYER
 70
     2
  0
LAYER
  2
0
 70
     0
 62
   255
  6
CONTINUOUS
  0
LAYER
  2
DEFPOINTS
 70
     0
 62
     7
  6
CONTINUOUS
  0
ENDTAB
  0
TABLE
  2
STYLE
 70
     1
  0
STYLE
  2
STANDARD
 70
     0
 40
0.0
 41
0.8
 50
0.0
 71
     0
 42
0.2
  3
txt
  4

  0
ENDTAB
  0
TABLE
  2
VIEW
 70
     0
  0
ENDTAB
  0
TABLE
  2
UCS
 70
     0
  0
ENDTAB
  0
TABLE
  2
APPID
 70
    11
  0
APPID
  2
ACAD
 70
     0
  0
APPID
  2
ACAD_MLEADERVER
 70
     0
  0
APPID
  2
ACAD_EXEMPT_FROM_CAD_STANDARDS
 70
     0
  0
APPID
  2
ACAD_NAV_VCDISPLAY
 70
     0
  0
APPID
  2
ACAECLAYERSTANDARD
 70
     0
  0
APPID
  2
ACCMTRANSPARENCY
 70
     0
  0
APPID
  2
ACAD_DSTYLE_DIMJAG
 70
     0
  0
APPID
  2
ACAD_DSTYLE_DIMTALN
 70
     0
  0
APPID
  2
ACDBATTR
 70
     0
  0
APPID
  2
ACADANNOTATIVE
 70
     0
  0
APPID
  2
DCO15
 70
     0
  0
ENDTAB
  0
TABLE
  2
DIMSTYLE
 70
     1
  0
DIMSTYLE
  2
STANDARD
 70
     0
  3

  4

  5

  6

  7

 40
1.0
 41
0.1875
 42
0.0625
 43
0.38
 44
0.125
 45
0.0
 46
0.0
 47
0.01
 48
0.01
140
0.15625
141
0.09
142
0.0
143
25.3999999999999986
144
1.0
145
0.0
146
1.0
147
0.09
 71
     1
 72
     0
 73
     1
 74
     1
 75
     0
 76
     0
 77
     0
 78
     4
170
     0
171
     2
172
     0
173
     0
174
     0
175
     0
176
     0
177
     0
178
     0
  0
ENDTAB
  0
ENDSEC
  0
SECTION
  2
BLOCKS
  0
BLOCK
  8
0
  2
$MODEL_SPACE
 70
     0
 10
0.0
 20
0.0
 30
0.0
  3
$MODEL_SPACE
  1

  0
ENDBLK
  5
21
  8
0
  0
BLOCK
 67
     1
  8
0
  2
$PAPER_SPACE
 70
     0
 10
0.0
 20
0.0
 30
0.0
  3
$PAPER_SPACE
  1

  0
ENDBLK
  5
1D
 67
     1
  8
0
  0
BLOCK
  8
0
  2
_FILLED
 70
     0
 10
0.0
 20
0.0
 30
0.0
  3
_FILLED
  1

  0
SOLID
  5
3361B
  8
0
  6
BYBLOCK
 62
     0
 10
0.0
 20
0.0
 30
0.0
 11
-1.0
 21
0.1666666667
 31
0.0
 12
-1.0
 22
-0.1666666667
 32
0.0
 13
-1.0
 23
-0.1666666667
 33
0.0
  0
ENDBLK
  5
3361C
  8
0
  6
BYBLOCK
 62
     0
  0
ENDSEC
  0
SECTION
  2
ENTITIES
  0
ATTDEF
  5
32C9A
  8
DEFPOINTS
 10
6322.0214114239370247
 20
373.1277837361615184
 30
0.0
 40
0.001
  1
P24923-BNW
  3

  2
MODELNUMBER
 70
     0
1001
ACDBATTR
1070
     0
1070
     1
  0
ATTDEF
  5
32C9B
  8
DEFPOINTS
 10
6322.0212856142798046
 20
373.1261168957823884
 30
0.0
 40
0.001
  1
PINNA PALETTA
  3

  2
TRADENAME
 70
     0
1001
ACDBATTR
1070
     0
1070
     1
  0
ATTDEF
  5
32C9C
  8
DEFPOINTS
 10
6322.0214114239370247
 20
373.1244504028281881
 30
0.0
 40
0.001
  1
VALVE TRIM
  3

  2
PRODUCT
 70
     0
1001
ACDBATTR
1070
     0
1070
     1
  0
ARC
  5
338FB
  8
0
 10
6322.0204434635388679
 20
373.1219558698379046
 30
0.0
 40
1.869999999999999
 50
282.340106795145914
 51
257.659893204854086
  0
LINE
  5
338FC
  8
0
 10
6321.6169001564394421
 20
373.1219558698379046
 30
0.0
 11
6321.6169001564394421
 21
372.2414991769379071
 31
0.0
  0
LINE
  5
338FD
  8
0
 10
6322.4239867706392033
 20
373.1219558698379046
 30
0.0
 11
6322.4239867706392033
 21
372.2414991771086079
 31
0.0
  0
ARC
  5
338FE
  8
0
 10
6322.0204434635388679
 20
373.1219558698379046
 30
0.0
 40
0.4035433070999997
 50
0.0
 51
180.0
  0
LINE
  5
338FF
  8
0
 10
6322.3331951650961855
 20
370.2973653186379011
 30
0.0
 11
6321.7076917619806409
 21
370.2973653186379011
 31
0.0
  0
LINE
  5
33900
  8
0
 10
6321.6207977942385696
 20
372.2264991769379208
 30
0.0
 11
6322.4200891328391663
 21
372.2264991769379208
 31
0.0
  0
ARC
  5
33901
  8
0
 10
6321.6319001564397695
 20
372.2414991769379071
 30
0.0
 40
0.0149999999999997
 50
180.0
 51
270.0
  0
LINE
  5
33902
  8
0
 10
6321.6207977942385696
 20
372.2264991769379208
 30
0.0
 11
6321.6207977942385696
 21
370.3823186797898188
 31
0.0
  0
ARC
  5
33903
  8
0
 10
6321.6357977950028726
 20
370.3823186797898188
 30
0.0
 40
0.0150000007635987
 50
180.0000005801690008
 51
224.9999983478188028
  0
LINE
  5
33904
  8
0
 10
6321.6251911924391607
 20
370.3717120778379126
 30
0.0
 11
6321.6937723371393076
 21
370.3031309332379237
 31
0.0
  0
ARC
  5
33905
  8
0
 10
6321.7076917618505831
 20
370.3170503575951216
 30
0.0
 40
0.0196850389572164
 50
224.9999992699684128
 51
270.0000003805607776
  0
LINE
  5
33906
  8
0
 10
6322.4200891328391663
 20
372.2264991769379208
 30
0.0
 11
6322.4200891328391663
 21
370.3823186797898188
 31
0.0
  0
ARC
  5
33907
  8
0
 10
6322.4050891320748633
 20
370.3823186797898188
 30
0.0
 40
0.0150000007635987
 50
315.0000016521810835
 51
359.9999994198278159
  0
LINE
  5
33908
  8
0
 10
6322.4156957346403942
 20
370.3717120778379126
 30
0.0
 11
6322.3471145899393377
 21
370.3031309332379237
 31
0.0
  0
ARC
  5
33909
  8
0
 10
6322.3331951652271528
 20
370.3170503575951216
 30
0.0
 40
0.0196850389572179
 50
269.9999996194392224
 51
315.0000007300315019
  0
ARC
  5
3390A
  8
0
 10
6322.4089867704688004
 20
372.2414991771086079
 30
0.0
 40
0.0150000001707076
 50
270.0000002700871846
 51
359.9999993479383988
  0
ARC
  5
3390B
  8
0
 10
6322.0204434635388679
 20
373.1219558698379046
 30
0.0
 40
0.8269999999999998
 50
299.2066169859684237
 51
240.793383014031491
  0
ARC
  5
3390C
  8
0
 10
6322.0204434635388679
 20
373.1219558698379046
 30
0.0
 40
0.9842519684999997
 50
293.9563153235595792
 51
246.0436846764403924
  0
ARC
  5
3390D
  8
0
 10
6322.0204434635388679
 20
373.1219558698379046
 30
0.0
 40
0.7442275397999998
 50
302.8356480713712813
 51
237.1643519286286903
  0
ARC
  5
3390E
  8
0
 10
6322.0204434635388679
 20
373.1219558698379046
 30
0.0
 40
0.9172275397999998
 50
296.1013205699233026
 51
243.8986794300766121
  0
LINE
  5
3390F
  8
0
 10
6321.6251911924391607
 20
370.3717120778379126
 30
0.0
 11
6322.4156957346403942
 21
370.3717120778379126
 31
0.0
  0
ARC
  5
33910
  8
0
 10
6322.0204434635388679
 20
373.1219558698379046
 30
0.0
 40
1.737988974699999
 50
283.2939622270500877
 51
256.7060377729497986
  0
ARC
  5
33911
  8
0
 10
6292.5076546014133783
 20
372.1636424686378177
 30
0.0
 40
29.113660863226329
 50
359.8958685669003899
 51
0.1237022874984089
  0
ARC
  5
33912
  8
0
 10
6361.693674442354677
 20
371.0761617607233802
 30
0.0
 40
40.0857315451836769
 50
178.3555612931270105
 51
178.5489291032162953
  0
ARC
  5
33913
  8
0
 10
6335.0789407374568327
 20
371.5804816745123276
 30
0.0
 40
13.4611806191350691
 50
177.2492531147111094
 51
178.7827635721316142
  0
ARC
  5
33914
  8
0
 10
6307.6978350453573512
 20
372.8044363153600784
 30
0.0
 40
13.9532890172010902
 50
356.2609817349035097
 51
357.6261629663159169
  0
ARC
  5
33915
  8
0
 10
6496.9960988243910833
 20
361.2717012161191974
 30
0.0
 40
175.6869511753718882
 50
176.425055308362289
 51
176.5867683491835862
  0
ARC
  5
33916
  8
0
 10
6391.730571654369669
 20
365.7805253239341141
 30
0.0
 40
70.3601336644521638
 50
174.7435332176567897
 51
175.1651226003166073
  0
ARC
  5
33917
  8
0
 10
6289.3399076190607957
 20
375.3914604604070746
 30
0.0
 40
32.4988536496491065
 50
353.3604522796549077
 51
354.4112860445770252
  0
ARC
  5
33918
  8
0
 10
6305.0727682250726502
 20
374.122864199051719
 30
0.0
 40
16.7418785705736788
 50
351.2725522067880206
 51
353.4961058808037251
  0
ARC
  5
33919
  8
0
 10
6305.6691339599547064
 20
374.0056105573236209
 30
0.0
 40
16.1514967475902615
 50
350.9777772631952075
 51
353.6759518256852743
  0
ARC
  5
3391A
  8
0
 10
6309.0186495053394538
 20
373.7648764547275846
 30
0.0
 40
12.8239037857667508
 50
349.3293094273561792
 51
353.1101079221460282
  0
ARC
  5
3391B
  8
0
 10
6317.1541005505596331
 20
372.6180601299997761
 30
0.0
 40
4.6276798719770813
 50
347.8892493718882974
 51
355.1462402628279733
  0
ARC
  5
3391C
  8
0
 10
6326.1525681611810796
 20
370.8090446575426995
 30
0.0
 40
4.5516115525069401
 50
169.3891939637470898
 51
174.6482387149657995
  0
ARC
  5
3391D
  8
0
 10
6313.395088127613235
 20
373.2949138500154049
 30
0.0
 40
8.4632766607294059
 50
348.7305920528975207
 51
352.747557634475811
  0
ARC
  5
3391E
  8
0
 10
6327.7682294697178804
 20
370.4308566528338247
 30
0.0
 40
6.1924394824308084
 50
168.7305920528974923
 51
173.0878354806449124
  0
ARC
  5
3391F
  8
0
 10
6318.5292952105819495
 20
372.5008364772961045
 30
0.0
 40
3.297539813462206
 50
346.0193047908736048
 51
355.2277882617714226
  0
ARC
  5
33920
  8
0
 10
6334.1443713959433808
 20
369.2185035576580958
 30
0.0
 40
12.6616026952635998
 50
168.6784410932770015
 51
171.5321348608048027
  0
ARC
  5
33921
  8
0
 10
6310.0500621195560598
 20
374.1968251324108792
 30
0.0
 40
11.9628766751003095
 50
347.8659134727640208
 51
350.5199977340736268
  0
ARC
  5
33922
  8
0
 10
6331.0485180117011623
 20
369.6820779915466915
 30
0.0
 40
9.5154401025311426
 50
167.8659134727639923
 51
172.2141430860054072
  0
ARC
  5
33923
  8
0
 10
6313.0656991310743251
 20
373.5373177040858081
 30
0.0
 40
8.9031926713571838
 50
347.158203605813128
 51
351.5335554430384946
  0
ARC
  5
33924
  8
0
 10
6329.5874612801708281
 20
369.7709888526097757
 30
0.0
 40
8.0424220276960678
 50
167.1582036058098879
 51
172.129514726846395
  0
ARC
  5
33925
  8
0
 10
6312.6802121844311841
 20
373.6714961180441037
 30
0.0
 40
9.3378193795070406
 50
346.9816258392783084
 51
351.0978929070953996
  0
ARC
  5
33926
  8
0
 10
6326.7699949902307708
 20
370.2200093398370768
 30
0.0
 40
5.1707703534534106
 50
164.8884333085219112
 51
170.1766084032682897
  0
ARC
  5
33927
  8
0
 10
6325.3291781135558267
 20
370.331050637984788
 30
0.0
 40
3.7346252732076621
 50
168.0834158725184011
 51
173.2034004539659975
  0
ARC
  5
33928
  8
0
 10
6308.8752765337339952
 20
374.5121455188721029
 30
0.0
 40
13.2619933098341605
 50
346.7563815034898766
 51
350.0757760961488998
  0
ARC
  5
33929
  8
0
 10
6373.9391193698693314
 20
358.2826905891931233
 30
0.0
 40
53.796899546049552
 50
165.8060841339897138
 51
166.3163752912471125
  0
ARC
  5
3392A
  8
0
 10
6324.2239316518889609
 20
370.480206950513093
 30
0.0
 40
2.6089151468055101
 50
168.3078862140297076
 51
176.1849500343396073
  0
ARC
  5
3392B
  8
0
 10
6312.8352053175758556
 20
373.680276868121382
 30
0.0
 40
9.2402402407396735
 50
345.2539970220258851
 51
350.9479787902711792
  0
ARC
  5
3392C
  8
0
 10
6329.9262655755428568
 20
369.1818511330200181
 30
0.0
 40
8.4329081724809072
 50
165.2539970220257999
 51
168.7080854878695106
  0
ARC
  5
3392D
  8
0
 10
6323.9468241344102353
 20
370.3757839578618132
 30
0.0
 40
2.3354336511590992
 50
168.7080854878695106
 51
174.8556263762957883
  0
ARC
  5
3392E
  8
0
 10
6317.7812919590251113
 20
372.6396589919905864
 30
0.0
 40
4.2310746979412768
 50
343.9866313003083746
 51
354.3907948580958873
  0
ARC
  5
3392F
  8
0
 10
6337.7687290665189721
 20
366.9033062083497043
 30
0.0
 40
16.5632366728262497
 50
163.9866313003084031
 51
166.6434952394517097
  0
ARC
  5
33930
  8
0
 10
6323.5338306010780798
 20
370.3715801698950827
 30
0.0
 40
1.914102703331745
 50
169.2206662304826921
 51
178.0842178375631875
  0
ARC
  5
33931
  8
0
 10
6316.2654402743528408
 20
372.8544872356815745
 30
0.0
 40
5.775746775450135
 50
345.3972347919449248
 51
353.757977879747898
  0
ARC
  5
33932
  8
0
 10
6241.1953552441700594
 20
394.422614803775673
 30
0.0
 40
83.8810683774432704
 50
343.7016497666584769
 51
344.068538408511472
  0
ARC
  5
33933
  8
0
 10
6323.9529456097252478
 20
370.2362227940687944
 30
0.0
 40
2.338444176621651
 50
163.9611450973584965
 51
175.7945116319089891
  0
ARC
  5
33934
  8
0
 10
6314.0123980026610298
 20
373.4790272598655747
 30
0.0
 40
8.1511615095963084
 50
343.6718059930960862
 51
349.1616204444060259
  0
ARC
  5
33935
  8
0
 10
6297.3133894496986613
 20
378.3710802463332925
 30
0.0
 40
25.5519968077733211
 50
342.8640677880900967
 51
343.6718059930960862
  0
ARC
  5
33936
  8
0
 10
6324.1978496198689754
 20
370.0386026801103867
 30
0.0
 40
2.5944279657682339
 50
161.9506933810382918
 51
171.6475243272815021
  0
ARC
  5
33937
  8
0
 10
6316.7185495206404084
 20
372.7038992686655092
 30
0.0
 40
5.377117754837009
 50
342.7629780524017065
 51
350.2582335666181734
  0
ARC
  5
33938
  8
0
 10
6312.1027506338814419
 20
374.1359966719660974
 30
0.0
 40
10.2099742947674503
 50
340.0551811770048971
 51
342.7629780524017065
  0
ARC
  5
33939
  8
0
 10
6322.8743891143185465
 20
370.2271851705662016
 30
0.0
 40
1.2489524833707291
 50
160.0551811770079098
 51
171.3294377699610038
  0
ARC
  5
3393A
  8
0
 10
6316.5208627179536052
 20
372.7939028948817963
 30
0.0
 40
5.622749617433378
 50
341.3832485291724197
 51
347.6499020146740122
  0
ARC
  5
3393B
  8
0
 10
6388.8988977673152476
 20
348.4124429805154932
 30
0.0
 40
70.7515624590905645
 50
161.383248529172306
 51
161.881094114902595
  0
ARC
  5
3393C
  8
0
 10
6317.3285000115884031
 20
372.4275261622645985
 30
0.0
 40
4.7721267156265927
 50
342.0678417261268009
 51
349.0329951484430921
  0
ARC
  5
3393D
  8
0
 10
6317.2176040275262494
 20
372.4634133372977089
 30
0.0
 40
4.888684892572881
 50
337.4588216506642766
 51
342.0678417261268009
  0
ARC
  5
3393E
  8
0
 10
6326.2896024698211477
 20
368.6980275841248726
 30
0.0
 40
4.9337020682021722
 50
157.458821650664305
 51
159.6285268120547869
  0
ARC
  5
3393F
  8
0
 10
6318.4293864186338396
 20
372.0823750242284973
 30
0.0
 40
3.6560083714089591
 50
332.8749321757841813
 51
348.376173529413677
  0
ARC
  5
33940
  8
0
 10
6319.1562438664386718
 20
371.8769424165138844
 30
0.0
 40
2.9489030652376642
 50
330.2907916728773898
 51
346.2341497049100099
  0
ARC
  5
33941
  8
0
 10
6319.8406194420958855
 20
371.6001099997009192
 30
0.0
 40
2.252322552565051
 50
328.2670128902051943
 51
345.21958875301749
  0
ARC
  5
33942
  8
0
 10
6320.5860937071065564
 20
371.2712643838935946
 30
0.0
 40
1.4779308328980401
 50
324.6168115045448985
 51
345.5343460857164928
  0
ARC
  5
33943
  8
0
 10
6320.5436064888217516
 20
371.3242102398310749
 30
0.0
 40
1.5753744937367771
 50
324.7715788267515791
 51
338.8721672828137912
  0
ARC
  5
33944
  8
0
 10
6321.0453519380225771
 20
371.1432779782858233
 30
0.0
 40
1.096134326654945
 50
318.3965362369926879
 51
331.9626474749351246
  0
ARC
  5
33945
  8
0
 10
6321.1376123379977798
 20
371.016865477889894
 30
0.0
 40
0.9905080748193578
 50
322.6160783744530818
 51
331.7696275177273719
  0
ARC
  5
33946
  8
0
 10
6322.638338327735255
 20
369.9995115106148091
 30
0.0
 40
0.7768119323356178
 50
142.6953045192973093
 51
147.6237496954832977
  0
ARC
  5
33947
  8
0
 10
6351.5332323256652671
 20
372.1636424686378177
 30
0.0
 40
29.113660863226329
 50
179.876297712501497
 51
180.1041314330994965
  0
ARC
  5
33948
  8
0
 10
6282.3472124847239684
 20
371.0761617607233802
 30
0.0
 40
40.0857315451836769
 50
1.451070896783657
 51
1.6444387068762589
  0
ARC
  5
33949
  8
0
 10
6308.9619461896218127
 20
371.5804816745123276
 30
0.0
 40
13.4611806191350691
 50
1.2172364278683829
 51
2.7507468852889119
  0
ARC
  5
3394A
  8
0
 10
6336.3430518817222037
 20
372.8044363153600784
 30
0.0
 40
13.9532890172010902
 50
182.3738370336841115
 51
183.7390182650964903
  0
ARC
  5
3394B
  8
0
 10
6147.0447881026875621
 20
361.2717012161191974
 30
0.0
 40
175.6869511753718882
 50
3.4132316508163392
 51
3.5749446916376741
  0
ARC
  5
3394C
  8
0
 10
6354.7009793080178497
 20
375.3914604604070746
 30
0.0
 40
32.4988536496491065
 50
185.5887139554228895
 51
186.6395477203450923
  0
ARC
  5
3394D
  8
0
 10
6338.9681187020050857
 20
374.122864199051719
 30
0.0
 40
16.7418785705736788
 50
186.5038941191961896
 51
188.7274477932118941
  0
ARC
  5
3394E
  8
0
 10
6338.3717529671230295
 20
374.0056105573236209
 30
0.0
 40
16.1514967475902615
 50
186.3240481743146972
 51
189.0222227368047925
  0
ARC
  5
3394F
  8
0
 10
6335.0222374217401011
 20
373.7648764547275846
 30
0.0
 40
12.8239037857667508
 50
186.8898920778540003
 51
190.6706905726437924
  0
ARC
  5
33950
  8
0
 10
6326.8867863765190123
 20
372.6180601299997761
 30
0.0
 40
4.6276798719770813
 50
184.8537597371687866
 51
192.1107506281115889
  0
ARC
  5
33951
  8
0
 10
6317.8883187658975658
 20
370.8090446575426995
 30
0.0
 40
4.5516115525069401
 50
5.3517612850309773
 51
10.6108060362529102
  0
ARC
  5
33952
  8
0
 10
6330.6457987994663199
 20
373.2949138500154049
 30
0.0
 40
8.4632766607294059
 50
187.2524423655208921
 51
191.2694079471025077
  0
ARC
  5
33953
  8
0
 10
6316.2726574573598555
 20
370.4308566528338247
 30
0.0
 40
6.1924394824308084
 50
6.9121645193550378
 51
11.2694079471025006
  0
ARC
  5
33954
  8
0
 10
6325.5115917164966959
 20
372.5008364772961045
 30
0.0
 40
3.297539813462206
 50
184.7722117382253089
 51
193.9806952091263099
  0
ARC
  5
33955
  8
0
 10
6309.8965155311361741
 20
369.2185035576580958
 30
0.0
 40
12.6616026952635998
 50
8.4678651391952151
 51
11.3215589067198401
  0
ARC
  5
33956
  8
0
 10
6333.9908248075216761
 20
374.1968251324108792
 30
0.0
 40
11.9628766751003095
 50
189.4800022659262879
 51
192.134086527235894
  0
ARC
  5
33957
  8
0
 10
6312.9923689153783926
 20
369.6820779915466915
 30
0.0
 40
9.5154401025311426
 50
7.7858569139945359
 51
12.1340865272359597
  0
ARC
  5
33958
  8
0
 10
6330.9751877960043203
 20
373.5373177040858081
 30
0.0
 40
8.9031926713571838
 50
188.4664445569615054
 51
192.8417963941869004
  0
ARC
  5
33959
  8
0
 10
6314.4534256469078173
 20
369.7709888526097757
 30
0.0
 40
8.0424220276960678
 50
7.8704852731536148
 51
12.84179639418692
  0
ARC
  5
3395A
  8
0
 10
6331.3606747426483707
 20
373.6714961180441037
 30
0.0
 40
9.3378193795070406
 50
188.9021070929013888
 51
193.0183741607185084
  0
ARC
  5
3395B
  8
0
 10
6317.2708919368478746
 20
370.2200093398370768
 30
0.0
 40
5.1707703534534106
 50
9.8233915967284577
 51
15.1115666914780196
  0
ARC
  5
3395C
  8
0
 10
6318.7117088135219092
 20
370.331050637984788
 30
0.0
 40
3.7346252732076621
 50
6.7965995460340336
 51
11.91658412748159
  0
ARC
  5
3395D
  8
0
 10
6335.1656103933446502
 20
374.5121455188721029
 30
0.0
 40
13.2619933098341605
 50
189.9242239038511002
 51
193.2436184965069117
  0
ARC
  5
3395E
  8
0
 10
6270.1017675572102235
 20
358.2826905891931233
 30
0.0
 40
53.796899546049552
 50
13.6836247087529106
 51
14.1939158660103306
  0
ARC
  5
3395F
  8
0
 10
6319.816955275188775
 20
370.480206950513093
 30
0.0
 40
2.6089151468055101
 50
3.8150499656604389
 51
11.6921137859702799
  0
ARC
  5
33960
  8
0
 10
6331.2056816095027898
 20
373.680276868121382
 30
0.0
 40
9.2402402407396735
 50
189.0520212097254955
 51
194.7460029779709032
  0
ARC
  5
33961
  8
0
 10
6314.1146213515357886
 20
369.1818511330200181
 30
0.0
 40
8.4329081724809072
 50
11.2919145121305107
 51
14.7460029779741202
  0
ARC
  5
33962
  8
0
 10
6320.0940627926684101
 20
370.3757839578618132
 30
0.0
 40
2.3354336511590992
 50
5.1443736237041433
 51
11.2919145121305107
  0
ARC
  5
33963
  8
0
 10
6326.2595949680544436
 20
372.6396589919905864
 30
0.0
 40
4.2310746979412768
 50
185.609205141903999
 51
196.0133686996915969
  0
ARC
  5
33964
  8
0
 10
6306.2721578605596733
 20
366.9033062083497043
 30
0.0
 40
16.5632366728262497
 50
13.3565047605482494
 51
16.0133686996916182
  0
ARC
  5
33965
  8
0
 10
6320.5070563259996561
 20
370.3715801698950827
 30
0.0
 40
1.914102703331745
 50
1.915782162436777
 51
10.7793337695173292
  0
ARC
  5
33966
  8
0
 10
6327.7754466527267141
 20
372.8544872356815745
 30
0.0
 40
5.775746775450135
 50
186.242022120252102
 51
194.6027652080551036
  0
ARC
  5
33967
  8
0
 10
6320.0879413173533976
 20
370.2362227940687944
 30
0.0
 40
2.338444176621651
 50
4.2054883680909638
 51
16.0388549026414893
  0
ARC
  5
33968
  8
0
 10
6330.0284889244167061
 20
373.4790272598655747
 30
0.0
 40
8.1511615095963084
 50
190.8383795555938889
 51
196.3281940069039138
  0
ARC
  5
33969
  8
0
 10
6346.7274974773790746
 20
378.3710802463332925
 30
0.0
 40
25.5519968077733211
 50
196.3281940069039138
 51
197.1359322119099033
  0
ARC
  5
3396A
  8
0
 10
6319.84303730720967
 20
370.0386026801103867
 30
0.0
 40
2.5944279657682339
 50
8.3524756727184837
 51
18.0493066189616407
  0
ARC
  5
3396B
  8
0
 10
6327.3223374064391464
 20
372.7038992686655092
 30
0.0
 40
5.377117754837009
 50
189.7417664333817982
 51
197.2370219475982935
  0
ARC
  5
3396C
  8
0
 10
6331.9381362931972035
 20
374.1359966719660974
 30
0.0
 40
10.2099742947674503
 50
197.2370219475982935
 51
199.9448188229920902
  0
ARC
  5
3396D
  8
0
 10
6321.1664978127591894
 20
370.2271851705662016
 30
0.0
 40
1.2489524833707291
 50
8.6705622300389837
 51
19.9448188229920795
  0
ARC
  5
3396E
  8
0
 10
6327.5200242091250402
 20
372.7939028948817963
 30
0.0
 40
5.622749617433378
 50
192.3500979853228046
 51
198.6167514708276087
  0
ARC
  5
3396F
  8
0
 10
6326.7123869154902422
 20
372.4275261622645985
 30
0.0
 40
4.7721267156265927
 50
190.9670048515536962
 51
197.9321582738701011
  0
ARC
  5
33970
  8
0
 10
6326.8232828995533055
 20
372.4634133372977089
 30
0.0
 40
4.888684892572881
 50
197.9321582738701011
 51
202.5411783493356097
  0
ARC
  5
33971
  8
0
 10
6317.7512844572584072
 20
368.6980275841248726
 30
0.0
 40
4.9337020682021722
 50
20.3714731879451989
 51
22.5411783493356417
  0
ARC
  5
33972
  8
0
 10
6325.6115005084438963
 20
372.0823750242284973
 30
0.0
 40
3.6560083714089591
 50
191.6238264705862946
 51
207.1250678242157903
  0
ARC
  5
33973
  8
0
 10
6324.8846430606399736
 20
371.8769424165138844
 30
0.0
 40
2.9489030652376642
 50
193.7658502950899049
 51
209.7092083271226102
  0
ARC
  5
33974
  8
0
 10
6324.2002674849818504
 20
371.6001099997009192
 30
0.0
 40
2.252322552565051
 50
194.78041124698251
 51
211.7329871097948057
  0
ARC
  5
33975
  8
0
 10
6323.4547932199711795
 20
371.2712643838935946
 30
0.0
 40
1.4779308328980401
 50
194.4656539142833935
 51
215.3831884954551015
  0
ARC
  5
33976
  8
0
 10
6323.4972804382568938
 20
371.3242102398310749
 30
0.0
 40
1.5753744937367771
 50
201.1278327171860951
 51
215.2284211732483925
  0
ARC
  5
33977
  8
0
 10
6322.9955349890560683
 20
371.1432779782858233
 30
0.0
 40
1.096134326654945
 50
208.0373525250649038
 51
221.6034637630073121
  0
ARC
  5
33978
  8
0
 10
6322.9032745890808656
 20
371.016865477889894
 30
0.0
 40
0.9905080748193578
 50
208.2303724822725997
 51
217.3839216255470035
  0
ARC
  5
33979
  8
0
 10
6321.4025485993442999
 20
369.9995115106148091
 30
0.0
 40
0.7768119323356178
 50
32.3762503045166525
 51
37.3046954807026268
  0
ARC
  5
3397A
  8
0
 10
6402.8455316829076764
 20
394.422614803775673
 30
0.0
 40
83.8810683774432704
 50
195.9314615914884996
 51
196.2983502333414947
  0
ARC
  5
3397B
  8
0
 10
6255.1419891597633978
 20
348.4124429805154932
 30
0.0
 40
70.7515624590905645
 50
18.1189058850974298
 51
18.6167514708276691
  0
ARC
  5
3397C
  8
0
 10
6322.0204434635388679
 20
371.9459094886667003
 30
0.0
 40
0.0023195804003184
 50
9.4142131229234653
 51
170.5857868771857966
  0
ARC
  5
3397D
  8
0
 10
6322.0204434635388679
 20
371.7931619674567969
 30
0.0
 40
0.0024763250082124
 50
20.9801092042011916
 51
159.0198907958140069
  0
ARC
  5
3397E
  8
0
 10
6322.0204434635388679
 20
371.5870626332530264
 30
0.0
 40
0.0081291146187125
 50
31.2787963109628784
 51
148.721203689037111
  0
ARC
  5
3397F
  8
0
 10
6322.0204434635388679
 20
371.5168462925299195
 30
0.0
 40
0.0075167398395618
 50
21.9765579963308006
 51
158.0234420036661902
  0
ARC
  5
33980
  8
0
 10
6322.0204434635388679
 20
371.3385220939699138
 30
0.0
 40
0.012357205383976
 50
35.7582167886873492
 51
144.2417832113179088
  0
ARC
  5
33981
  8
0
 10
6322.0204434635388679
 20
371.0239053953608277
 30
0.0
 40
0.0025860026282879
 50
38.3039913782063906
 51
141.6960086218693107
  0
ARC
  5
33982
  8
0
 10
6322.0204434635388679
 20
370.9016692999953762
 30
0.0
 40
0.0032983417124524
 50
7.1152637719039697
 51
172.8847362280992002
  0
ARC
  5
33983
  8
0
 10
6322.0204434635388679
 20
370.7512516655069135
 30
0.0
 40
0.0089639775096236
 50
34.7923996841575374
 51
145.2076003158423987
  0
ARC
  5
33984
  8
0
 10
6322.0204434635388679
 20
370.6249009746878755
 30
0.0
 40
0.0082221762943569
 50
22.468139272967651
 51
157.5318607270322957
  0
ARC
  5
33985
  8
0
 10
6322.0204434635388679
 20
370.5448160402909821
 30
0.0
 40
0.0107351732095038
 50
19.1489756115675718
 51
160.8510243884323927
  0
ARC
  5
33986
  8
0
 10
6321.6889088753332544
 20
370.4054244674675829
 30
0.0
 40
0.0588334659733172
 50
170.1633483113706973
 51
199.0338535762730885
  0
ARC
  5
33987
  8
0
 10
6321.4785857014476278
 20
370.4355262333290852
 30
0.0
 40
0.1623682810576015
 50
342.3282940652426873
 51
352.9039606177208839
  0
ARC
  5
33988
  8
0
 10
6321.7013432456087685
 20
370.4016960110836862
 30
0.0
 40
0.0476957132840341
 50
163.2079742577654997
 51
195.8400445646711034
  0
ARC
  5
33989
  8
0
 10
6321.4652304295150316
 20
370.4676086557157078
 30
0.0
 40
0.2059537143845013
 50
337.4649925575924954
 51
345.3372063923271185
  0
ARC
  5
3398A
  8
0
 10
6321.711062873733681
 20
370.4029466243654269
 30
0.0
 40
0.030474465921289
 50
155.7248890538022863
 51
212.6660342625881981
  0
ARC
  5
3398B
  8
0
 10
6321.6638860451857909
 20
370.4426321839570164
 30
0.0
 40
0.0601184727038728
 50
290.9774896561676769
 51
333.1413230755870813
  0
ARC
  5
3398C
  8
0
 10
6321.7798716101669925
 20
370.402506234521411
 30
0.0
 40
0.0269574975698295
 50
151.2432643912455887
 51
216.6284373801667869
  0
ARC
  5
3398D
  8
0
 10
6321.729631161882935
 20
370.4517750470030251
 30
0.0
 40
0.0713389895442569
 50
293.6403078196266279
 51
329.4185177635337141
  0
ARC
  5
3398E
  8
0
 10
6321.8519109759017738
 20
370.4002817433816972
 30
0.0
 40
0.0262823338260209
 50
144.6844200489036041
 51
205.2920553728220057
  0
ARC
  5
3398F
  8
0
 10
6321.8038349912012563
 20
370.4618609832796778
 30
0.0
 40
0.0767601111781756
 50
288.4659120218798876
 51
322.8226988452967134
  0
ARC
  5
33990
  8
0
 10
6321.9353903558176171
 20
370.4027674670344936
 30
0.0
 40
0.0166355240016434
 50
130.1891840613216971
 51
254.5846253892536026
  0
ARC
  5
33991
  8
0
 10
6321.9304191873334275
 20
370.4478828735132083
 30
0.0
 40
0.0611549187983075
 50
270.5145498543203075
 51
328.0006056297477244
  0
ARC
  5
33992
  8
0
 10
6322.3519780517463005
 20
370.4054244674675829
 30
0.0
 40
0.0588334659733172
 50
340.9661464237267978
 51
9.8366516886292548
  0
ARC
  5
33993
  8
0
 10
6322.5623012256310176
 20
370.4355262333290852
 30
0.0
 40
0.1623682810576015
 50
187.0960393822790877
 51
197.671705934754101
  0
ARC
  5
33994
  8
0
 10
6322.3395436814689674
 20
370.4016960110836862
 30
0.0
 40
0.0476957132840341
 50
344.159955435328925
 51
16.7920257422344292
  0
ARC
  5
33995
  8
0
 10
6322.5756564975636138
 20
370.4676086557157078
 30
0.0
 40
0.2059537143845013
 50
194.66279360767291
 51
202.5350074424075899
  0
ARC
  5
33996
  8
0
 10
6322.3298240533449643
 20
370.4029466243654269
 30
0.0
 40
0.030474465921289
 50
327.3339657374119156
 51
24.2751109461977101
  0
ARC
  5
33997
  8
0
 10
6322.3770008818928545
 20
370.4426321839570164
 30
0.0
 40
0.0601184727038728
 50
206.858676924412805
 51
249.0225103438322094
  0
ARC
  5
33998
  8
0
 10
6322.2610153169116529
 20
370.402506234521411
 30
0.0
 40
0.0269574975698295
 50
323.3715626198331847
 51
28.7567356087543402
  0
ARC
  5
33999
  8
0
 10
6322.3112557651957104
 20
370.4517750470030251
 30
0.0
 40
0.0713389895442569
 50
210.5814822364635006
 51
246.3596921803734006
  0
ARC
  5
3399A
  8
0
 10
6322.1889759511768716
 20
370.4002817433816972
 30
0.0
 40
0.0262823338260209
 50
334.7079446271779943
 51
35.3155799510963817
  0
ARC
  5
3399B
  8
0
 10
6322.2370519358782985
 20
370.4618609832796778
 30
0.0
 40
0.0767601111781756
 50
217.1773011547032866
 51
251.5340879781201977
  0
ARC
  5
3399C
  8
0
 10
6322.1054965712610283
 20
370.4027674670344936
 30
0.0
 40
0.0166355240016434
 50
285.4153746107463121
 51
49.8108159386783029
  0
ARC
  5
3399D
  8
0
 10
6322.1104677397452178
 20
370.4478828735132083
 30
0.0
 40
0.0611549187983075
 50
211.999394370252304
 51
269.4854501456795788
  0
CIRCLE
  5
33AA9
  8
0
 10
6320.6814434635389262
 20
373.1219558698379046
 30
0.0
 40
0.1179999999999997
  0
CIRCLE
  5
33AAA
  8
0
 10
6320.8608354478392357
 20
372.4524558698378769
 30
0.0
 40
0.1179999999999997
  0
CIRCLE
  5
33AAB
  8
0
 10
6321.350943463538897
 20
371.9623478541378745
 30
0.0
 40
0.1179999999999999
  0
LINE
  5
33AAC
  8
0
 10
6321.4179061397389887
 20
371.9223478541379109
 30
0.0
 11
6321.2839807873669997
 21
371.9223478541377972
 31
0.0
  0
ARC
  5
33AAD
  8
0
 10
6321.350943463538897
 20
371.9623478541378745
 30
0.0
 40
0.078
 50
329.1481140139384252
 51
210.8518859860616033
  0
ARC
  5
33AAE
  8
0
 10
6320.8608354478392357
 20
372.4524558698378769
 30
0.0
 40
0.0779999999999999
 50
15.6184982756431801
 51
164.3815017244006924
  0
LINE
  5
33AAF
  8
0
 10
6320.9359553519916517
 20
372.4734558698377782
 30
0.0
 11
6320.7857155436859102
 21
372.4734558698377782
 31
0.0
  0
ENDSEC
  0
EOF
