  0
SECTION
  2
HEADER
  9
$ACADVER
  1
AC1009
  9
$INSBASE
 10
4523.3645775753348062
 20
461.237444925723878
 30
0.0
  9
$EXTMIN
 10
4520.3412822997343028
 20
457.8857611493240256
 30
0.0
  9
$EXTMAX
 10
4526.3878728509353095
 20
461.241782076986226
 30
0.0
  9
$LIMMIN
 10
0.0
 20
0.0
  9
$LIMMAX
 10
11.6929133858000007
 20
8.2677165353999982
  9
$ORTHOMODE
 70
     0
  9
$REGENMODE
 70
     1
  9
$FILLMODE
 70
     1
  9
$QTEXTMODE
 70
     0
  9
$MIRRTEXT
 70
     0
  9
$DRAGMODE
 70
     2
  9
$LTSCALE
 40
0.6431102362
  9
$OSMODE
 70
  4095
  9
$ATTMODE
 70
     1
  9
$TEXTSIZE
 40
0.2
  9
$TRACEWID
 40
0.05
  9
$TEXTSTYLE
  7
STANDARD
  9
$CLAYER
  8
0
  9
$CELTYPE
  6
BYLAYER
  9
$CECOLOR
 62
   256
  9
$DIMSCALE
 40
1.0
  9
$DIMASZ
 40
0.1875
  9
$DIMEXO
 40
0.0625
  9
$DIMDLI
 40
0.4443307087
  9
$DIMRND
 40
0.0
  9
$DIMDLE
 40
0.0
  9
$DIMEXE
 40
0.125
  9
$DIMTP
 40
0.01
  9
$DIMTM
 40
0.01
  9
$DIMTXT
 40
2.0
  9
$DIMCEN
 40
0.1052362205
  9
$DIMTSZ
 40
0.0
  9
$DIMTOL
 70
     1
  9
$DIMLIM
 70
     0
  9
$DIMTIH
 70
     1
  9
$DIMTOH
 70
     1
  9
$DIMSE1
 70
     0
  9
$DIMSE2
 70
     0
  9
$DIMTAD
 70
     0
  9
$DIMZIN
 70
     0
  9
$DIMBLK
  1

  9
$DIMASO
 70
     1
  9
$DIMSHO
 70
     1
  9
$DIMPOST
  1
\X
  9
$DIMAPOST
  1

  9
$DIMALT
 70
     1
  9
$DIMALTD
 70
     2
  9
$DIMALTF
 40
25.3999999999999986
  9
$DIMLFAC
 40
1.0
  9
$DIMTOFL
 70
     0
  9
$DIMTVP
 40
0.0
  9
$DIMTIX
 70
     0
  9
$DIMSOXD
 70
     0
  9
$DIMSAH
 70
     0
  9
$DIMBLK1
  1

  9
$DIMBLK2
  1

  9
$DIMSTYLE
  2
STANDARD
  9
$DIMCLRD
 70
     0
  9
$DIMCLRE
 70
     0
  9
$DIMCLRT
 70
     0
  9
$DIMTFAC
 40
1.0
  9
$DIMGAP
 40
0.09
  9
$LUNITS
 70
     2
  9
$LUPREC
 70
     4
  9
$SKETCHINC
 40
0.1
  9
$FILLETRAD
 40
0.0
  9
$AUNITS
 70
     0
  9
$AUPREC
 70
     0
  9
$MENU
  1
.
  9
$ELEVATION
 40
0.0
  9
$PELEVATION
 40
0.0
  9
$THICKNESS
 40
0.0
  9
$LIMCHECK
 70
     0
  9
$BLIPMODE
 70
     0
  9
$CHAMFERA
 40
0.0
  9
$CHAMFERB
 40
0.0
  9
$SKPOLY
 70
     0
  9
$TDCREATE
 40
2458060.468368056230247
  9
$TDUPDATE
 40
2460274.4590277778916061
  9
$TDINDWG
 40
1.5264958333
  9
$TDUSRTIMER
 40
1.5264958333
  9
$USRTIMER
 70
     1
  9
$ANGBASE
 50
0.0
  9
$ANGDIR
 70
     0
  9
$PDMODE
 70
     0
  9
$PDSIZE
 40
0.3125
  9
$PLINEWID
 40
0.0
  9
$COORDS
 70
     1
  9
$SPLFRAME
 70
     0
  9
$SPLINETYPE
 70
     6
  9
$SPLINESEGS
 70
     8
  9
$ATTDIA
 70
     1
  9
$ATTREQ
 70
     1
  9
$HANDLING
 70
     1
  9
$HANDSEED
  5
19C22
  9
$SURFTAB1
 70
     6
  9
$SURFTAB2
 70
     6
  9
$SURFTYPE
 70
     6
  9
$SURFU
 70
     6
  9
$SURFV
 70
     6
  9
$UCSNAME
  2

  9
$UCSORG
 10
0.0
 20
0.0
 30
0.0
  9
$UCSXDIR
 10
1.0
 20
0.0
 30
0.0
  9
$UCSYDIR
 10
0.0
 20
1.0
 30
0.0
  9
$PUCSNAME
  2

  9
$PUCSORG
 10
0.0
 20
0.0
 30
0.0
  9
$PUCSXDIR
 10
1.0
 20
0.0
 30
0.0
  9
$PUCSYDIR
 10
0.0
 20
1.0
 30
0.0
  9
$USERI1
 70
     0
  9
$USERI2
 70
     0
  9
$USERI3
 70
     0
  9
$USERI4
 70
     0
  9
$USERI5
 70
     0
  9
$USERR1
 40
0.0
  9
$USERR2
 40
0.0
  9
$USERR3
 40
0.0
  9
$USERR4
 40
0.0
  9
$USERR5
 40
0.0
  9
$WORLDVIEW
 70
     1
  9
$SHADEDGE
 70
     3
  9
$SHADEDIF
 70
    70
  9
$TILEMODE
 70
     1
  9
$MAXACTVP
 70
    64
  9
$PLIMCHECK
 70
     0
  9
$PEXTMIN
 10
1.0000000000000000E+20
 20
1.0000000000000000E+20
 30
1.0000000000000000E+20
  9
$PEXTMAX
 10
-1.0000000000000000E+20
 20
-1.0000000000000000E+20
 30
-1.0000000000000000E+20
  9
$PLIMMIN
 10
0.0
 20
0.0
  9
$PLIMMAX
 10
12.0
 20
9.0
  9
$UNITMODE
 70
     0
  9
$VISRETAIN
 70
     1
  9
$PLINEGEN
 70
     0
  9
$PSLTSCALE
 70
     1
  0
ENDSEC
  0
SECTION
  2
TABLES
  0
TABLE
  2
VPORT
 70
     1
  0
VPORT
  2
*ACTIVE
 70
     0
 10
0.0
 20
0.0
 11
1.0
 21
1.0
 12
611.9992211300226472
 22
326.984166510615978
 13
0.0
 23
0.0
 14
1.0
 24
1.0
 15
0.0
 25
0.0
 16
0.0
 26
0.0
 36
60.4960186965801583
 17
3911.3653564453120453
 27
132.5796051025390057
 37
0.0
 40
3.3786967447410912
 41
2.1409244644870351
 42
50.0
 43
0.0
 44
0.0
 50
0.0
 51
0.0
 71
     0
 72
   100
 73
     1
 74
     1
 75
     0
 76
     0
 77
     0
 78
     0
  0
ENDTAB
  0
TABLE
  2
LTYPE
 70
     2
  0
LTYPE
  2
CONTINUOUS
 70
     0
  3
Solid line
 72
    65
 73
     0
 40
0.0
  0
LTYPE
  2
PHANTOM2
 70
     0
  3
___ _ _ ___ _ _ ___ _ _ ___ _ _
 72
    65
 73
     6
 40
1.25
 49
0.625
 49
-0.125
 49
0.125
 49
-0.125
 49
0.125
 49
-0.125
  0
ENDTAB
  0
TABLE
  2
LAYER
 70
     2
  0
LAYER
  2
0
 70
     0
 62
   255
  6
CONTINUOUS
  0
LAYER
  2
DEFPOINTS
 70
     0
 62
     7
  6
CONTINUOUS
  0
ENDTAB
  0
TABLE
  2
STYLE
 70
     1
  0
STYLE
  2
STANDARD
 70
     0
 40
0.0
 41
0.8
 50
0.0
 71
     0
 42
0.2
  3
txt
  4

  0
ENDTAB
  0
TABLE
  2
VIEW
 70
     0
  0
ENDTAB
  0
TABLE
  2
UCS
 70
     0
  0
ENDTAB
  0
TABLE
  2
APPID
 70
    11
  0
APPID
  2
ACAD
 70
     0
  0
APPID
  2
ACAD_MLEADERVER
 70
     0
  0
APPID
  2
ACAD_EXEMPT_FROM_CAD_STANDARDS
 70
     0
  0
APPID
  2
ACAD_NAV_VCDISPLAY
 70
     0
  0
APPID
  2
ACAECLAYERSTANDARD
 70
     0
  0
APPID
  2
ACCMTRANSPARENCY
 70
     0
  0
APPID
  2
ACAD_DSTYLE_DIMJAG
 70
     0
  0
APPID
  2
ACAD_DSTYLE_DIMTALN
 70
     0
  0
APPID
  2
ACDBATTR
 70
     0
  0
APPID
  2
ACADANNOTATIVE
 70
     0
  0
APPID
  2
DCO15
 70
     0
  0
ENDTAB
  0
TABLE
  2
DIMSTYLE
 70
     1
  0
DIMSTYLE
  2
STANDARD
 70
     0
  3

  4

  5

  6

  7

 40
1.0
 41
0.1875
 42
0.0625
 43
0.38
 44
0.125
 45
0.0
 46
0.0
 47
0.01
 48
0.01
140
0.15625
141
0.09
142
0.0
143
25.3999999999999986
144
1.0
145
0.0
146
1.0
147
0.09
 71
     1
 72
     0
 73
     1
 74
     1
 75
     0
 76
     0
 77
     0
 78
     4
170
     0
171
     2
172
     0
173
     0
174
     0
175
     0
176
     0
177
     0
178
     0
  0
ENDTAB
  0
ENDSEC
  0
SECTION
  2
BLOCKS
  0
BLOCK
  8
0
  2
$MODEL_SPACE
 70
     0
 10
0.0
 20
0.0
 30
0.0
  3
$MODEL_SPACE
  1

  0
ENDBLK
  5
21
  8
0
  0
BLOCK
 67
     1
  8
0
  2
$PAPER_SPACE
 70
     0
 10
0.0
 20
0.0
 30
0.0
  3
$PAPER_SPACE
  1

  0
ENDBLK
  5
1D
 67
     1
  8
0
  0
ENDSEC
  0
SECTION
  2
ENTITIES
  0
ATTDEF
  5
194DB
  8
DEFPOINTS
 10
4523.3645802150576856
 20
461.2407820769861928
 30
0.0
 40
0.001
  1
P24922-BNW
  3

  2
MODELNUMBER
 70
     0
1001
ACDBATTR
1070
     0
1070
     1
  0
ATTDEF
  5
194DC
  8
DEFPOINTS
 10
4523.3645802150576856
 20
461.2391152366071196
 30
0.0
 40
0.001
  1
PINNA PALETTA
  3

  2
TRADENAME
 70
     0
1001
ACDBATTR
1070
     0
1070
     1
  0
ATTDEF
  5
194DD
  8
DEFPOINTS
 10
4523.3645802150576856
 20
461.2374487436529762
 30
0.0
 40
0.001
  1
VALVE TRIM
  3

  2
PRODUCT
 70
     0
1001
ACDBATTR
1070
     0
1070
     1
  0
LINE
  5
19A29
  8
0
 10
4526.3878728509353095
 20
461.2274449257146784
 30
0.0
 11
4526.3878728509353095
 21
460.6332430278743004
 31
0.0
  0
LINE
  5
19A2A
  8
0
 10
4520.3412822997343028
 20
461.2274449257146784
 30
0.0
 11
4520.3412822997343028
 21
460.6332430278743004
 31
0.0
  0
LINE
  5
19A2B
  8
0
 10
4520.3512822997581679
 20
461.237444925723878
 30
0.0
 11
4526.3778728509132634
 21
461.237444925723878
 31
0.0
  0
LINE
  5
19A2C
  8
0
 10
4520.5002138255385944
 20
460.4850236659239044
 30
0.0
 11
4526.2289413251319274
 21
460.4850236659239044
 31
0.0
  0
LINE
  5
19A2D
  8
0
 10
4522.4756343066537738
 20
460.2880219129239094
 30
0.0
 11
4524.253520844014929
 21
460.2880219129239094
 31
0.0
  0
LINE
  5
19A2E
  8
0
 10
4522.6486343066580957
 20
459.047021912923924
 30
0.0
 11
4524.0805208440133356
 21
459.047021912923924
 31
0.0
  0
LINE
  5
19A2F
  8
0
 10
4522.9760241021112961
 20
459.0370219129238762
 30
0.0
 11
4523.7531310485601352
 21
459.0370219129238762
 31
0.0
  0
ARC
  5
19A30
  8
0
 10
4520.381282299974373
 20
460.6332430278743004
 30
0.0
 40
0.0400000002386007
 50
180.0000000721790911
 51
227.6999997334580996
  0
LINE
  5
19A31
  8
0
 10
4520.354361799135404
 20
460.6036577840238806
 30
0.0
 11
4520.4732933250352289
 21
460.4954384221239252
 31
0.0
  0
ARC
  5
19A32
  8
0
 10
4520.5002138254976671
 20
460.5250236657267919
 30
0.0
 40
0.039999999802919
 50
227.6999998926089006
 51
270.0000000584155941
  0
LINE
  5
19A33
  8
0
 10
4520.354361799135404
 20
460.6036577840238806
 30
0.0
 11
4526.3747933515351178
 21
460.6036577840238806
 31
0.0
  0
LINE
  5
19A34
  8
0
 10
4522.3803256068349583
 20
460.3833306130209735
 30
0.0
 11
4522.3803256068349583
 21
460.4760146852239018
 31
0.0
  0
LINE
  5
19A35
  8
0
 10
4522.5375775753345806
 20
460.2580219129238799
 30
0.0
 11
4522.5375775753345806
 21
459.1580786445210265
 31
0.0
  0
LINE
  5
19A36
  8
0
 10
4522.9610342682353803
 20
459.0220219104850798
 30
0.0
 11
4522.9610342682353803
 21
458.2893044564239062
 31
0.0
  0
ARC
  5
19A37
  8
0
 10
4522.5775775758229429
 20
459.1580786445210265
 30
0.0
 40
0.0400000004880488
 50
180.0000001390561124
 51
224.9999996040162955
  0
LINE
  5
19A38
  8
0
 10
4522.5492933040341086
 20
459.1297943731239002
 30
0.0
 11
4522.6203500355350116
 21
459.0587376417238943
 31
0.0
  0
ARC
  5
19A39
  8
0
 10
4522.6486343066480913
 20
459.0870219124830101
 30
0.0
 40
0.0399999995591126
 50
224.999999642270808
 51
270.0000000142260888
  0
ARC
  5
19A3A
  8
0
 10
4522.9760342741219574
 20
459.0220219104850798
 30
0.0
 40
0.0150000058877916
 50
90.0388542122338151
 51
180.000000000032486
  0
LINE
  5
19A3B
  8
0
 10
4522.9920775753353155
 20
459.047021912923924
 30
0.0
 11
4522.9920775753353155
 21
459.0370219129238762
 31
0.0
  0
ARC
  5
19A3C
  8
0
 10
4522.5075775753357448
 20
460.2580219129238799
 30
0.0
 40
0.0299999999999985
 50
0.0
 51
90.0
  0
ARC
  5
19A3D
  8
0
 10
4522.4756343066537738
 20
460.3280219124936252
 30
0.0
 40
0.0399999995716523
 50
224.9999996458265912
 51
270.0005598952106993
  0
LINE
  5
19A3E
  8
0
 10
4522.4473500355352371
 20
460.2997376417238797
 30
0.0
 11
4522.3920413355335768
 21
460.355046341623904
 31
0.0
  0
ARC
  5
19A3F
  8
0
 10
4522.4203256073233206
 20
460.3833306130209735
 30
0.0
 40
0.0400000004880295
 50
180.0000001390494901
 51
224.9999996040230883
  0
ARC
  5
19A40
  8
0
 10
4522.4003256068353949
 20
460.4760146852239018
 30
0.0
 40
0.0200000000000102
 50
153.2275027809727135
 51
179.9999999999901945
  0
ARC
  5
19A41
  8
0
 10
4520.3512822997354306
 20
461.2274449257238871
 30
0.0
 40
0.0100000000000034
 50
89.9999998721215348
 51
180.000000052953709
  0
ARC
  5
19A42
  8
0
 10
4526.3478728506970583
 20
460.6332430278743004
 30
0.0
 40
0.0400000002386007
 50
312.300000266541872
 51
359.9999999278209089
  0
LINE
  5
19A43
  8
0
 10
4526.3747933515351178
 20
460.6036577840238806
 30
0.0
 11
4526.2558618256352929
 21
460.4954384221239252
 31
0.0
  0
ARC
  5
19A44
  8
0
 10
4526.2289413251719452
 20
460.5250236657267919
 30
0.0
 40
0.0399999998028786
 50
269.9999999415845195
 51
312.3000001074020133
  0
LINE
  5
19A45
  8
0
 10
4524.348829543834654
 20
460.3833306130209735
 30
0.0
 11
4524.348829543834654
 21
460.4760146852239018
 31
0.0
  0
LINE
  5
19A46
  8
0
 10
4524.1915775753350317
 20
460.2580219129238799
 30
0.0
 11
4524.1915775753350317
 21
459.1580786445210265
 31
0.0
  0
LINE
  5
19A47
  8
0
 10
4523.768120882436051
 20
459.0220219104850798
 30
0.0
 11
4523.768120882436051
 21
458.2893044564239062
 31
0.0
  0
ARC
  5
19A48
  8
0
 10
4524.1515775748466694
 20
459.1580786445210265
 30
0.0
 40
0.0400000004880488
 50
315.0000003959838182
 51
359.9999998609438876
  0
LINE
  5
19A49
  8
0
 10
4524.1798618466364132
 20
459.1297943731239002
 30
0.0
 11
4524.1088051151364198
 21
459.0587376417238943
 31
0.0
  0
ARC
  5
19A4A
  8
0
 10
4524.08052084402334
 20
459.0870219124830101
 30
0.0
 40
0.0399999995591163
 50
269.9999999857739112
 51
315.0000003577292205
  0
ARC
  5
19A4B
  8
0
 10
4523.7531208765476549
 20
459.0220219104850798
 30
0.0
 40
0.0150000058877939
 50
359.9999999999805027
 51
89.9611457877140737
  0
LINE
  5
19A4C
  8
0
 10
4523.7370775753361158
 20
459.047021912923924
 30
0.0
 11
4523.7370775753361158
 21
459.0370219129238762
 31
0.0
  0
ARC
  5
19A4D
  8
0
 10
4524.2215775753347771
 20
460.2580219129238799
 30
0.0
 40
0.0299999999999985
 50
90.0
 51
180.0
  0
ARC
  5
19A4E
  8
0
 10
4524.253520844022205
 20
460.3280219124829955
 30
0.0
 40
0.0399999995591021
 50
269.9999999898384999
 51
315.0000003577314942
  0
LINE
  5
19A4F
  8
0
 10
4524.2818051151352847
 20
460.2997376417238797
 30
0.0
 11
4524.3371138151351261
 21
460.355046341623904
 31
0.0
  0
ARC
  5
19A50
  8
0
 10
4524.3088295433472013
 20
460.3833306130209735
 30
0.0
 40
0.0400000004880295
 50
315.0000003959768833
 51
359.9999998609504246
  0
ARC
  5
19A51
  8
0
 10
4524.328829543835127
 20
460.4760146852239018
 30
0.0
 40
0.0200000000000102
 50
0.0000000000097707
 51
26.7724972190272617
  0
ARC
  5
19A52
  8
0
 10
4526.3778728509350913
 20
461.2274449257238871
 30
0.0
 40
0.0100000000000016
 50
0.0000000000097707
 51
90.0000001278784509
  0
ARC
  5
19A54
  8
0
 10
4523.3645775753348062
 20
458.2893044564239062
 30
0.0
 40
0.4035433070999997
 50
180.0
 51
0.0
  0
LINE
  5
19A55
  8
0
 10
4522.3920413355335768
 20
460.355046341623904
 30
0.0
 11
4524.3371138151351261
 21
460.355046341623904
 31
0.0
  0
LINE
  5
19A56
  8
0
 10
4522.5492933040341086
 20
459.1297943731239002
 30
0.0
 11
4524.1798618466364132
 21
459.1297943731239002
 31
0.0
  0
ENDSEC
  0
EOF
