  0
SECTION
  2
HEADER
  9
$ACADVER
  1
AC1009
  9
$INSBASE
 10
4550.1006992759357672
 20
461.7589807321693911
 30
0.0
  9
$EXTMIN
 10
4546.7490154995357443
 20
458.7356854311972256
 30
0.0
  9
$EXTMAX
 10
4550.1118242419706803
 20
464.7822760077693829
 30
0.0
  9
$LIMMIN
 10
0.0
 20
0.0
  9
$LIMMAX
 10
11.6929133858000007
 20
8.2677165353999982
  9
$ORTHOMODE
 70
     0
  9
$REGENMODE
 70
     1
  9
$FILLMODE
 70
     1
  9
$QTEXTMODE
 70
     0
  9
$MIRRTEXT
 70
     0
  9
$DRAGMODE
 70
     2
  9
$LTSCALE
 40
0.6431102362
  9
$OSMODE
 70
  4095
  9
$ATTMODE
 70
     1
  9
$TEXTSIZE
 40
0.2
  9
$TRACEWID
 40
0.05
  9
$TEXTSTYLE
  7
STANDARD
  9
$CLAYER
  8
0
  9
$CELTYPE
  6
BYLAYER
  9
$CECOLOR
 62
   256
  9
$DIMSCALE
 40
1.0
  9
$DIMASZ
 40
0.1875
  9
$DIMEXO
 40
0.0625
  9
$DIMDLI
 40
0.4443307087
  9
$DIMRND
 40
0.0
  9
$DIMDLE
 40
0.0
  9
$DIMEXE
 40
0.125
  9
$DIMTP
 40
0.01
  9
$DIMTM
 40
0.01
  9
$DIMTXT
 40
2.0
  9
$DIMCEN
 40
0.1052362205
  9
$DIMTSZ
 40
0.0
  9
$DIMTOL
 70
     1
  9
$DIMLIM
 70
     0
  9
$DIMTIH
 70
     1
  9
$DIMTOH
 70
     1
  9
$DIMSE1
 70
     0
  9
$DIMSE2
 70
     0
  9
$DIMTAD
 70
     0
  9
$DIMZIN
 70
     0
  9
$DIMBLK
  1

  9
$DIMASO
 70
     1
  9
$DIMSHO
 70
     1
  9
$DIMPOST
  1
\X
  9
$DIMAPOST
  1

  9
$DIMALT
 70
     1
  9
$DIMALTD
 70
     2
  9
$DIMALTF
 40
25.3999999999999986
  9
$DIMLFAC
 40
1.0
  9
$DIMTOFL
 70
     0
  9
$DIMTVP
 40
0.0
  9
$DIMTIX
 70
     0
  9
$DIMSOXD
 70
     0
  9
$DIMSAH
 70
     0
  9
$DIMBLK1
  1

  9
$DIMBLK2
  1

  9
$DIMSTYLE
  2
STANDARD
  9
$DIMCLRD
 70
     0
  9
$DIMCLRE
 70
     0
  9
$DIMCLRT
 70
     0
  9
$DIMTFAC
 40
1.0
  9
$DIMGAP
 40
0.09
  9
$LUNITS
 70
     2
  9
$LUPREC
 70
     4
  9
$SKETCHINC
 40
0.1
  9
$FILLETRAD
 40
0.0
  9
$AUNITS
 70
     0
  9
$AUPREC
 70
     0
  9
$MENU
  1
.
  9
$ELEVATION
 40
0.0
  9
$PELEVATION
 40
0.0
  9
$THICKNESS
 40
0.0
  9
$LIMCHECK
 70
     0
  9
$BLIPMODE
 70
     0
  9
$CHAMFERA
 40
0.0
  9
$CHAMFERB
 40
0.0
  9
$SKPOLY
 70
     0
  9
$TDCREATE
 40
2458060.468368056230247
  9
$TDUPDATE
 40
2459898.8180092591792345
  9
$TDINDWG
 40
1.5283708332999999
  9
$TDUSRTIMER
 40
1.5283708332999999
  9
$USRTIMER
 70
     1
  9
$ANGBASE
 50
0.0
  9
$ANGDIR
 70
     0
  9
$PDMODE
 70
     0
  9
$PDSIZE
 40
0.3125
  9
$PLINEWID
 40
0.0
  9
$COORDS
 70
     1
  9
$SPLFRAME
 70
     0
  9
$SPLINETYPE
 70
     6
  9
$SPLINESEGS
 70
     8
  9
$ATTDIA
 70
     1
  9
$ATTREQ
 70
     1
  9
$HANDLING
 70
     1
  9
$HANDSEED
  5
1A408
  9
$SURFTAB1
 70
     6
  9
$SURFTAB2
 70
     6
  9
$SURFTYPE
 70
     6
  9
$SURFU
 70
     6
  9
$SURFV
 70
     6
  9
$UCSNAME
  2

  9
$UCSORG
 10
0.0
 20
0.0
 30
0.0
  9
$UCSXDIR
 10
1.0
 20
0.0
 30
0.0
  9
$UCSYDIR
 10
0.0
 20
1.0
 30
0.0
  9
$PUCSNAME
  2

  9
$PUCSORG
 10
0.0
 20
0.0
 30
0.0
  9
$PUCSXDIR
 10
1.0
 20
0.0
 30
0.0
  9
$PUCSYDIR
 10
0.0
 20
1.0
 30
0.0
  9
$USERI1
 70
     0
  9
$USERI2
 70
     0
  9
$USERI3
 70
     0
  9
$USERI4
 70
     0
  9
$USERI5
 70
     0
  9
$USERR1
 40
0.0
  9
$USERR2
 40
0.0
  9
$USERR3
 40
0.0
  9
$USERR4
 40
0.0
  9
$USERR5
 40
0.0
  9
$WORLDVIEW
 70
     1
  9
$SHADEDGE
 70
     3
  9
$SHADEDIF
 70
    70
  9
$TILEMODE
 70
     1
  9
$MAXACTVP
 70
    64
  9
$PLIMCHECK
 70
     0
  9
$PEXTMIN
 10
1.0000000000000000E+20
 20
1.0000000000000000E+20
 30
1.0000000000000000E+20
  9
$PEXTMAX
 10
-1.0000000000000000E+20
 20
-1.0000000000000000E+20
 30
-1.0000000000000000E+20
  9
$PLIMMIN
 10
0.0
 20
0.0
  9
$PLIMMAX
 10
12.0
 20
9.0
  9
$UNITMODE
 70
     0
  9
$VISRETAIN
 70
     1
  9
$PLINEGEN
 70
     0
  9
$PSLTSCALE
 70
     1
  0
ENDSEC
  0
SECTION
  2
TABLES
  0
TABLE
  2
VPORT
 70
     1
  0
VPORT
  2
*ACTIVE
 70
     0
 10
0.0
 20
0.0
 11
1.0
 21
1.0
 12
637.0650634254411671
 22
329.1793756169442986
 13
0.0
 23
0.0
 14
1.0
 24
1.0
 15
0.0
 25
0.0
 16
0.0
 26
0.0
 36
60.4960186965801583
 17
3911.3653564453120453
 27
132.5796051025390057
 37
0.0
 40
6.093768136337359
 41
2.095052083333333
 42
50.0
 43
0.0
 44
0.0
 50
0.0
 51
0.0
 71
     0
 72
   100
 73
     1
 74
     1
 75
     0
 76
     0
 77
     0
 78
     0
  0
ENDTAB
  0
TABLE
  2
LTYPE
 70
     2
  0
LTYPE
  2
CONTINUOUS
 70
     0
  3
Solid line
 72
    65
 73
     0
 40
0.0
  0
LTYPE
  2
PHANTOM2
 70
     0
  3
___ _ _ ___ _ _ ___ _ _ ___ _ _
 72
    65
 73
     6
 40
1.25
 49
0.625
 49
-0.125
 49
0.125
 49
-0.125
 49
0.125
 49
-0.125
  0
ENDTAB
  0
TABLE
  2
LAYER
 70
     2
  0
LAYER
  2
0
 70
     0
 62
   255
  6
CONTINUOUS
  0
LAYER
  2
DEFPOINTS
 70
     0
 62
     7
  6
CONTINUOUS
  0
ENDTAB
  0
TABLE
  2
STYLE
 70
     1
  0
STYLE
  2
STANDARD
 70
     0
 40
0.0
 41
0.8
 50
0.0
 71
     0
 42
0.2
  3
txt
  4

  0
ENDTAB
  0
TABLE
  2
VIEW
 70
     0
  0
ENDTAB
  0
TABLE
  2
UCS
 70
     0
  0
ENDTAB
  0
TABLE
  2
APPID
 70
    11
  0
APPID
  2
ACAD
 70
     0
  0
APPID
  2
ACAD_MLEADERVER
 70
     0
  0
APPID
  2
ACAD_EXEMPT_FROM_CAD_STANDARDS
 70
     0
  0
APPID
  2
ACAD_NAV_VCDISPLAY
 70
     0
  0
APPID
  2
ACAECLAYERSTANDARD
 70
     0
  0
APPID
  2
ACCMTRANSPARENCY
 70
     0
  0
APPID
  2
ACAD_DSTYLE_DIMJAG
 70
     0
  0
APPID
  2
ACAD_DSTYLE_DIMTALN
 70
     0
  0
APPID
  2
ACDBATTR
 70
     0
  0
APPID
  2
ACADANNOTATIVE
 70
     0
  0
APPID
  2
DCO15
 70
     0
  0
ENDTAB
  0
TABLE
  2
DIMSTYLE
 70
     1
  0
DIMSTYLE
  2
STANDARD
 70
     0
  3

  4

  5

  6

  7

 40
1.0
 41
0.1875
 42
0.0625
 43
0.38
 44
0.125
 45
0.0
 46
0.0
 47
0.01
 48
0.01
140
0.15625
141
0.09
142
0.0
143
25.3999999999999986
144
1.0
145
0.0
146
1.0
147
0.09
 71
     1
 72
     0
 73
     1
 74
     1
 75
     0
 76
     0
 77
     0
 78
     4
170
     0
171
     2
172
     0
173
     0
174
     0
175
     0
176
     0
177
     0
178
     0
  0
ENDTAB
  0
ENDSEC
  0
SECTION
  2
BLOCKS
  0
BLOCK
  8
0
  2
$MODEL_SPACE
 70
     0
 10
0.0
 20
0.0
 30
0.0
  3
$MODEL_SPACE
  1

  0
ENDBLK
  5
21
  8
0
  0
BLOCK
 67
     1
  8
0
  2
$PAPER_SPACE
 70
     0
 10
0.0
 20
0.0
 30
0.0
  3
$PAPER_SPACE
  1

  0
ENDBLK
  5
1D
 67
     1
  8
0
  0
ENDSEC
  0
SECTION
  2
ENTITIES
  0
ATTDEF
  5
19E4D
  8
DEFPOINTS
 10
4550.1011575753018406
 20
461.7594102915001031
 30
0.0
 40
0.001
  1
P24918-LV
  3

  2
MODELNUMBER
 70
     0
1001
ACDBATTR
1070
     0
1070
     1
  0
ATTDEF
  5
19E4E
  8
DEFPOINTS
 10
4550.1011575753018406
 20
461.7577434511209162
 30
0.0
 40
0.001
  1
PURE PALETTA
  3

  2
TRADENAME
 70
     0
1001
ACDBATTR
1070
     0
1070
     1
  0
ATTDEF
  5
19E4F
  8
DEFPOINTS
 10
4550.1011575753018406
 20
461.7560769581667728
 30
0.0
 40
0.001
  1
VALVE TRIM
  3

  2
PRODUCT
 70
     0
1001
ACDBATTR
1070
     0
1070
     1
  0
LINE
  5
1A304
  8
0
 10
4546.7490154995357443
 20
462.0444095105522138
 30
0.0
 11
4546.7490154995357443
 21
460.8785240392693936
 31
0.0
  0
LINE
  5
1A305
  8
0
 10
4550.0906992759273635
 20
458.7356854565672961
 30
0.0
 11
4549.4964973780852233
 21
458.7356854565672961
 31
0.0
  0
LINE
  5
1A306
  8
0
 10
4550.0906992759273635
 20
464.7822760077693829
 30
0.0
 11
4549.4964973780852233
 21
464.7822760077693829
 31
0.0
  0
LINE
  5
1A307
  8
0
 10
4550.1006992759357672
 20
464.7722760077471094
 30
0.0
 11
4550.1006992759357672
 21
458.7456854565917865
 31
0.0
  0
LINE
  5
1A308
  8
0
 10
4549.3482780161357368
 20
464.6233444819653755
 30
0.0
 11
4549.3482780161357368
 21
458.8946169823734067
 31
0.0
  0
LINE
  5
1A309
  8
0
 10
4549.1512762631364239
 20
462.6479240008500824
 30
0.0
 11
4549.1512762631364239
 21
460.8700374634889272
 31
0.0
  0
LINE
  5
1A30A
  8
0
 10
4547.9102762631364385
 20
462.4749240008471247
 30
0.0
 11
4547.9102762631364385
 21
461.0430374634916006
 31
0.0
  0
LINE
  5
1A30B
  8
0
 10
4547.9002762631371297
 20
462.1475342053939244
 30
0.0
 11
4547.9002762631371297
 21
461.3704272589450284
 31
0.0
  0
ARC
  5
1A30C
  8
0
 10
4549.4964973780852233
 20
464.7422760075306769
 30
0.0
 40
0.0400000002386007
 50
90.0000000721726536
 51
137.6999997334447983
  0
LINE
  5
1A30D
  8
0
 10
4549.4669121342367362
 20
464.7691965083694186
 30
0.0
 11
4549.3586927723372355
 21
464.6502649824694799
 31
0.0
  0
ARC
  5
1A30E
  8
0
 10
4549.3882780159383401
 20
464.6233444820061891
 30
0.0
 40
0.0399999998029209
 50
137.6999998926270905
 51
180.0000000583926862
  0
LINE
  5
1A30F
  8
0
 10
4549.4669121342367362
 20
464.7691965083694186
 30
0.0
 11
4549.4669121342367362
 21
458.7487649559694773
 31
0.0
  0
LINE
  5
1A310
  8
0
 10
4549.2465849632344543
 20
462.7432327006694095
 30
0.0
 11
4549.339269035435791
 21
462.7432327006694095
 31
0.0
  0
LINE
  5
1A311
  8
0
 10
4549.1212762631348596
 20
462.5859807321693893
 30
0.0
 11
4548.0213329947318925
 21
462.5859807321693893
 31
0.0
  0
ARC
  5
1A312
  8
0
 10
4548.0213329947318925
 20
462.5459807316814249
 30
0.0
 40
0.0400000004880488
 50
90.0000001390821467
 51
134.999999603977102
  0
LINE
  5
1A313
  8
0
 10
4547.9930487233386884
 20
462.5742650034694066
 30
0.0
 11
4547.9219919919378299
 21
462.5032082719695268
 31
0.0
  0
ARC
  5
1A314
  8
0
 10
4547.9502762626962067
 20
462.4749240008570723
 30
0.0
 40
0.0399999995591226
 50
134.999999642291499
 51
180.0000000142260888
  0
ARC
  5
1A315
  8
0
 10
4547.885276260696628
 20
462.1475240333817283
 30
0.0
 40
0.0150000058878023
 50
0.0388542122891903
 51
90.0
  0
LINE
  5
1A316
  8
0
 10
4547.9102762631364385
 20
462.1314807321693934
 30
0.0
 11
4547.9002762631371297
 21
462.1314807321693934
 31
0.0
  0
ARC
  5
1A317
  8
0
 10
4549.1212762631348596
 20
462.6159807321694757
 30
0.0
 40
0.0299999999999985
 50
270.0
 51
0.0000000000032569
  0
ARC
  5
1A318
  8
0
 10
4549.1912762627061966
 20
462.6479240008500824
 30
0.0
 40
0.0399999995716523
 50
134.9999996458334977
 51
180.000559895213911
  0
LINE
  5
1A319
  8
0
 10
4549.1629919919369058
 20
462.6762082719694149
 30
0.0
 11
4549.2183006918357933
 21
462.7315169719694268
 31
0.0
  0
ARC
  5
1A31A
  8
0
 10
4549.2465849632344543
 20
462.7032327001813883
 30
0.0
 40
0.0400000004880295
 50
90.0000001390300355
 51
134.9999996040438077
  0
ARC
  5
1A31B
  8
0
 10
4549.339269035435791
 20
462.7232327006694277
 30
0.0
 40
0.0200000000000102
 50
63.2275027809713421
 51
90.0
  0
ARC
  5
1A31C
  8
0
 10
4550.0906992759355489
 20
464.772276007769392
 30
0.0
 40
0.0100000000000051
 50
359.9999998721150973
 51
90.0000000529439745
  0
ARC
  5
1A31D
  8
0
 10
4549.4964523840926631
 20
458.7755836824014182
 30
0.0
 40
0.0398982512042678
 50
222.2353867424438079
 51
270.0646134455059837
  0
LINE
  5
1A31E
  8
0
 10
4549.4669121342367362
 20
458.7487649559694773
 30
0.0
 11
4549.3586927723372355
 21
458.8676964818694159
 31
0.0
  0
ARC
  5
1A31F
  8
0
 10
4549.3882780159383401
 20
458.8946169823325931
 30
0.0
 40
0.0399999998029248
 50
179.999999941610497
 51
222.3000001073729095
  0
LINE
  5
1A320
  8
0
 10
4549.2465849632344543
 20
460.7747287636693727
 30
0.0
 11
4549.339269035435791
 21
460.7747287636693727
 31
0.0
  0
LINE
  5
1A321
  8
0
 10
4549.1212762631348596
 20
460.9319807321693929
 30
0.0
 11
4548.0213329947318925
 21
460.9319807321693929
 31
0.0
  0
ARC
  5
1A322
  8
0
 10
4548.0213329947318925
 20
460.9719807326575847
 30
0.0
 40
0.0400000004880488
 50
225.000000396022898
 51
269.9999998609177965
  0
LINE
  5
1A323
  8
0
 10
4547.9930487233386884
 20
460.9436964608693756
 30
0.0
 11
4547.9219919919378299
 21
461.0147531923694828
 31
0.0
  0
ARC
  5
1A324
  8
0
 10
4547.9502762626962067
 20
461.0430374634817099
 30
0.0
 40
0.0399999995591127
 50
179.9999999857705859
 51
225.0000003577083874
  0
ARC
  5
1A325
  8
0
 10
4547.885276260696628
 20
461.3704374309572813
 30
0.0
 40
0.0150000058878004
 50
270.0000093155334184
 51
359.9611457877139742
  0
LINE
  5
1A326
  8
0
 10
4547.9102762631364385
 20
461.3864807321693888
 30
0.0
 11
4547.9002762631371297
 21
461.3864807321693888
 31
0.0
  0
ARC
  5
1A327
  8
0
 10
4549.1212762631348596
 20
460.9019807321694202
 30
0.0
 40
0.0299999999999985
 50
359.9999999999968168
 51
90.0
  0
ARC
  5
1A328
  8
0
 10
4549.1912762626952826
 20
460.8700374634818218
 30
0.0
 40
0.0399999995591038
 50
179.9999999898157057
 51
225.0000003577083874
  0
LINE
  5
1A329
  8
0
 10
4549.1629919919369058
 20
460.841753192369481
 30
0.0
 11
4549.2183006918357933
 21
460.786444492369526
 31
0.0
  0
ARC
  5
1A32A
  8
0
 10
4549.2465849632344543
 20
460.8147287641575076
 30
0.0
 40
0.0400000004880295
 50
225.0000003959561923
 51
269.9999998609699787
  0
ARC
  5
1A32B
  8
0
 10
4549.339269035435791
 20
460.7947287636695251
 30
0.0
 40
0.0200000000000102
 50
270.0
 51
296.7724972190285939
  0
ARC
  5
1A32C
  8
0
 10
4550.09069927593373
 20
458.7456854565687081
 30
0.0
 40
0.0100000000014435
 50
270.0000000082334282
 51
0.0000001308845578
  0
LINE
  5
1A32D
  8
0
 10
4546.867130028253996
 20
462.1625240392693854
 30
0.0
 11
4547.885276260696628
 21
462.1625240392693854
 31
0.0
  0
ARC
  5
1A32E
  8
0
 10
4546.8671300280657306
 20
462.0444095107404792
 30
0.0
 40
0.1181145285289791
 50
89.9999999086508069
 51
180.0000000913427129
  0
LINE
  5
1A32F
  8
0
 10
4547.4690777981177234
 20
458.9343901809683075
 30
0.0
 11
4546.8360399286366373
 21
458.9343901809684212
 31
0.0
  0
ARC
  5
1A330
  8
0
 10
4546.7640154995033299
 20
460.8785240392355149
 30
0.0
 40
0.0149999999661024
 50
179.9999998705646931
 51
270.0000001294939125
  0
LINE
  5
1A331
  8
0
 10
4547.5561021137373245
 20
461.2373271888694148
 30
0.0
 11
4547.5561021137373245
 21
460.8785240392693936
 31
0.0
  0
LINE
  5
1A332
  8
0
 10
4546.7490154995357443
 20
460.8635240392694072
 30
0.0
 11
4546.7490154995357443
 21
459.0193435347325135
 31
0.0
  0
ARC
  5
1A333
  8
0
 10
4546.7640154995378907
 20
459.0193435631690022
 30
0.0
 40
0.0150000000013704
 50
180.0001091995167997
 51
224.9999999989543937
  0
LINE
  5
1A334
  8
0
 10
4546.7534088978190994
 20
459.0087369614503814
 30
0.0
 11
4546.8218977926362641
 21
458.9402480666681754
 31
0.0
  0
ARC
  5
1A335
  8
0
 10
4546.8360131638573876
 20
458.9543255147356149
 30
0.0
 40
0.0199353517342826
 50
224.9229294792606026
 51
270.0769241198868826
  0
ARC
  5
1A336
  8
0
 10
4547.5411033088794284
 20
460.8785228441263939
 30
0.0
 40
0.014998804904585
 50
269.9954345261406274
 51
0.0045654737975705
  0
ARC
  5
1A337
  8
0
 10
4547.6742166046888087
 20
461.2373229341172873
 30
0.0
 40
0.1181144910288809
 50
90.0020639241064231
 51
179.9979360758838141
  0
LINE
  5
1A338
  8
0
 10
4547.6742123499370791
 20
461.3554374250695105
 30
0.0
 11
4547.8852762631340738
 21
461.3554374250695105
 31
0.0
  0
LINE
  5
1A339
  8
0
 10
4549.2183006918357933
 20
462.7315169719694268
 30
0.0
 11
4549.2183006918357933
 21
460.786444492369526
 31
0.0
  0
LINE
  5
1A33A
  8
0
 10
4547.9930487233386884
 20
462.5742650034694066
 30
0.0
 11
4547.9930487233386884
 21
460.9436964608693756
 31
0.0
  0
LINE
  5
1A33B
  8
0
 10
4546.7534088978190994
 20
459.0087369614503814
 30
0.0
 11
4547.5517086940326408
 21
459.0087369400649777
 31
0.0
  0
LINE
  5
1A33D
  8
0
 10
4546.7490154995357443
 20
460.8635240392683272
 30
0.0
 11
4547.5561021137373245
 21
460.8635240392670198
 31
0.0
  0
LINE
  5
1A33E
  8
0
 10
4547.5561021137373245
 20
460.8635240392683272
 30
0.0
 11
4547.5561021137373245
 21
459.0193435251958931
 31
0.0
  0
ARC
  5
1A33F
  8
0
 10
4547.5411021139016157
 20
459.0193435631359762
 30
0.0
 40
0.01499999983564
 50
314.9998840242104734
 51
359.9998544994896861
  0
LINE
  5
1A340
  8
0
 10
4547.5517086940326408
 20
459.0087369400649777
 30
0.0
 11
4547.4832198206358953
 21
458.9402480666682891
 31
0.0
  0
ARC
  5
1A341
  8
0
 10
4547.4690776207926319
 20
458.9543902845248908
 30
0.0
 40
0.0200001035574099
 50
270.0005079965180812
 51
314.9999635098171211
  0
LINE
  5
1A342
  8
0
 10
4546.7836104439866176
 20
462.12792909481999
 30
0.0
 11
4547.5906970471260138
 21
461.320842491680196
 31
0.0
  0
ENDSEC
  0
EOF
