  0
SECTION
  2
HEADER
  9
$ACADVER
  1
AC1009
  9
$INSBASE
 10
4554.9911165882449495
 20
460.2270815136558895
 30
0.0
  9
$EXTMIN
 10
4551.9678213126444462
 20
456.8753976050484198
 30
0.0
  9
$EXTMAX
 10
4558.0144118638463624
 20
460.2319112525872811
 30
0.0
  9
$LIMMIN
 10
0.0
 20
0.0
  9
$LIMMAX
 10
11.6929133858000007
 20
8.2677165353999982
  9
$ORTHOMODE
 70
     0
  9
$REGENMODE
 70
     1
  9
$FILLMODE
 70
     1
  9
$QTEXTMODE
 70
     0
  9
$MIRRTEXT
 70
     0
  9
$DRAGMODE
 70
     2
  9
$LTSCALE
 40
0.6431102362
  9
$OSMODE
 70
  4095
  9
$ATTMODE
 70
     1
  9
$TEXTSIZE
 40
0.2
  9
$TRACEWID
 40
0.05
  9
$TEXTSTYLE
  7
STANDARD
  9
$CLAYER
  8
0
  9
$CELTYPE
  6
BYLAYER
  9
$CECOLOR
 62
   256
  9
$DIMSCALE
 40
1.0
  9
$DIMASZ
 40
0.1875
  9
$DIMEXO
 40
0.0625
  9
$DIMDLI
 40
0.4443307087
  9
$DIMRND
 40
0.0
  9
$DIMDLE
 40
0.0
  9
$DIMEXE
 40
0.125
  9
$DIMTP
 40
0.01
  9
$DIMTM
 40
0.01
  9
$DIMTXT
 40
2.0
  9
$DIMCEN
 40
0.1052362205
  9
$DIMTSZ
 40
0.0
  9
$DIMTOL
 70
     1
  9
$DIMLIM
 70
     0
  9
$DIMTIH
 70
     1
  9
$DIMTOH
 70
     1
  9
$DIMSE1
 70
     0
  9
$DIMSE2
 70
     0
  9
$DIMTAD
 70
     0
  9
$DIMZIN
 70
     0
  9
$DIMBLK
  1

  9
$DIMASO
 70
     1
  9
$DIMSHO
 70
     1
  9
$DIMPOST
  1
\X
  9
$DIMAPOST
  1

  9
$DIMALT
 70
     1
  9
$DIMALTD
 70
     2
  9
$DIMALTF
 40
25.3999999999999986
  9
$DIMLFAC
 40
1.0
  9
$DIMTOFL
 70
     0
  9
$DIMTVP
 40
0.0
  9
$DIMTIX
 70
     0
  9
$DIMSOXD
 70
     0
  9
$DIMSAH
 70
     0
  9
$DIMBLK1
  1

  9
$DIMBLK2
  1

  9
$DIMSTYLE
  2
STANDARD
  9
$DIMCLRD
 70
     0
  9
$DIMCLRE
 70
     0
  9
$DIMCLRT
 70
     0
  9
$DIMTFAC
 40
1.0
  9
$DIMGAP
 40
0.09
  9
$LUNITS
 70
     2
  9
$LUPREC
 70
     4
  9
$SKETCHINC
 40
0.1
  9
$FILLETRAD
 40
0.0
  9
$AUNITS
 70
     0
  9
$AUPREC
 70
     0
  9
$MENU
  1
.
  9
$ELEVATION
 40
0.0
  9
$PELEVATION
 40
0.0
  9
$THICKNESS
 40
0.0
  9
$LIMCHECK
 70
     0
  9
$BLIPMODE
 70
     0
  9
$CHAMFERA
 40
0.0
  9
$CHAMFERB
 40
0.0
  9
$SKPOLY
 70
     0
  9
$TDCREATE
 40
2458060.468368056230247
  9
$TDUPDATE
 40
2459898.8183101858012378
  9
$TDINDWG
 40
1.5302342593
  9
$TDUSRTIMER
 40
1.5302342593
  9
$USRTIMER
 70
     1
  9
$ANGBASE
 50
0.0
  9
$ANGDIR
 70
     0
  9
$PDMODE
 70
     0
  9
$PDSIZE
 40
0.3125
  9
$PLINEWID
 40
0.0
  9
$COORDS
 70
     1
  9
$SPLFRAME
 70
     0
  9
$SPLINETYPE
 70
     6
  9
$SPLINESEGS
 70
     8
  9
$ATTDIA
 70
     1
  9
$ATTREQ
 70
     1
  9
$HANDLING
 70
     1
  9
$HANDSEED
  5
1A48F
  9
$SURFTAB1
 70
     6
  9
$SURFTAB2
 70
     6
  9
$SURFTYPE
 70
     6
  9
$SURFU
 70
     6
  9
$SURFV
 70
     6
  9
$UCSNAME
  2

  9
$UCSORG
 10
0.0
 20
0.0
 30
0.0
  9
$UCSXDIR
 10
1.0
 20
0.0
 30
0.0
  9
$UCSYDIR
 10
0.0
 20
1.0
 30
0.0
  9
$PUCSNAME
  2

  9
$PUCSORG
 10
0.0
 20
0.0
 30
0.0
  9
$PUCSXDIR
 10
1.0
 20
0.0
 30
0.0
  9
$PUCSYDIR
 10
0.0
 20
1.0
 30
0.0
  9
$USERI1
 70
     0
  9
$USERI2
 70
     0
  9
$USERI3
 70
     0
  9
$USERI4
 70
     0
  9
$USERI5
 70
     0
  9
$USERR1
 40
0.0
  9
$USERR2
 40
0.0
  9
$USERR3
 40
0.0
  9
$USERR4
 40
0.0
  9
$USERR5
 40
0.0
  9
$WORLDVIEW
 70
     1
  9
$SHADEDGE
 70
     3
  9
$SHADEDIF
 70
    70
  9
$TILEMODE
 70
     1
  9
$MAXACTVP
 70
    64
  9
$PLIMCHECK
 70
     0
  9
$PEXTMIN
 10
1.0000000000000000E+20
 20
1.0000000000000000E+20
 30
1.0000000000000000E+20
  9
$PEXTMAX
 10
-1.0000000000000000E+20
 20
-1.0000000000000000E+20
 30
-1.0000000000000000E+20
  9
$PLIMMIN
 10
0.0
 20
0.0
  9
$PLIMMAX
 10
12.0
 20
9.0
  9
$UNITMODE
 70
     0
  9
$VISRETAIN
 70
     1
  9
$PLINEGEN
 70
     0
  9
$PSLTSCALE
 70
     1
  0
ENDSEC
  0
SECTION
  2
TABLES
  0
TABLE
  2
VPORT
 70
     1
  0
VPORT
  2
*ACTIVE
 70
     0
 10
0.0
 20
0.0
 11
1.0
 21
1.0
 12
643.6257601429324495
 22
325.9740493262788164
 13
0.0
 23
0.0
 14
1.0
 24
1.0
 15
0.0
 25
0.0
 16
0.0
 26
0.0
 36
60.4960186965801583
 17
3911.3653564453120453
 27
132.5796051025390057
 37
0.0
 40
3.3827023105887402
 41
2.095052083333333
 42
50.0
 43
0.0
 44
0.0
 50
0.0
 51
0.0
 71
     0
 72
   100
 73
     1
 74
     1
 75
     0
 76
     0
 77
     0
 78
     0
  0
ENDTAB
  0
TABLE
  2
LTYPE
 70
     2
  0
LTYPE
  2
CONTINUOUS
 70
     0
  3
Solid line
 72
    65
 73
     0
 40
0.0
  0
LTYPE
  2
PHANTOM2
 70
     0
  3
___ _ _ ___ _ _ ___ _ _ ___ _ _
 72
    65
 73
     6
 40
1.25
 49
0.625
 49
-0.125
 49
0.125
 49
-0.125
 49
0.125
 49
-0.125
  0
ENDTAB
  0
TABLE
  2
LAYER
 70
     2
  0
LAYER
  2
0
 70
     0
 62
   255
  6
CONTINUOUS
  0
LAYER
  2
DEFPOINTS
 70
     0
 62
     7
  6
CONTINUOUS
  0
ENDTAB
  0
TABLE
  2
STYLE
 70
     1
  0
STYLE
  2
STANDARD
 70
     0
 40
0.0
 41
0.8
 50
0.0
 71
     0
 42
0.2
  3
txt
  4

  0
ENDTAB
  0
TABLE
  2
VIEW
 70
     0
  0
ENDTAB
  0
TABLE
  2
UCS
 70
     0
  0
ENDTAB
  0
TABLE
  2
APPID
 70
    11
  0
APPID
  2
ACAD
 70
     0
  0
APPID
  2
ACAD_MLEADERVER
 70
     0
  0
APPID
  2
ACAD_EXEMPT_FROM_CAD_STANDARDS
 70
     0
  0
APPID
  2
ACAD_NAV_VCDISPLAY
 70
     0
  0
APPID
  2
ACAECLAYERSTANDARD
 70
     0
  0
APPID
  2
ACCMTRANSPARENCY
 70
     0
  0
APPID
  2
ACAD_DSTYLE_DIMJAG
 70
     0
  0
APPID
  2
ACAD_DSTYLE_DIMTALN
 70
     0
  0
APPID
  2
ACDBATTR
 70
     0
  0
APPID
  2
ACADANNOTATIVE
 70
     0
  0
APPID
  2
DCO15
 70
     0
  0
ENDTAB
  0
TABLE
  2
DIMSTYLE
 70
     1
  0
DIMSTYLE
  2
STANDARD
 70
     0
  3

  4

  5

  6

  7

 40
1.0
 41
0.1875
 42
0.0625
 43
0.38
 44
0.125
 45
0.0
 46
0.0
 47
0.01
 48
0.01
140
0.15625
141
0.09
142
0.0
143
25.3999999999999986
144
1.0
145
0.0
146
1.0
147
0.09
 71
     1
 72
     0
 73
     1
 74
     1
 75
     0
 76
     0
 77
     0
 78
     4
170
     0
171
     2
172
     0
173
     0
174
     0
175
     0
176
     0
177
     0
178
     0
  0
ENDTAB
  0
ENDSEC
  0
SECTION
  2
BLOCKS
  0
BLOCK
  8
0
  2
$MODEL_SPACE
 70
     0
 10
0.0
 20
0.0
 30
0.0
  3
$MODEL_SPACE
  1

  0
ENDBLK
  5
21
  8
0
  0
BLOCK
 67
     1
  8
0
  2
$PAPER_SPACE
 70
     0
 10
0.0
 20
0.0
 30
0.0
  3
$PAPER_SPACE
  1

  0
ENDBLK
  5
1D
 67
     1
  8
0
  0
ENDSEC
  0
SECTION
  2
ENTITIES
  0
ATTDEF
  5
19E4D
  8
DEFPOINTS
 10
4554.9873177819808916
 20
460.2309112525873047
 30
0.0
 40
0.001
  1
P24918-LV
  3

  2
MODELNUMBER
 70
     0
1001
ACDBATTR
1070
     0
1070
     1
  0
ATTDEF
  5
19E4E
  8
DEFPOINTS
 10
4554.9873177819808916
 20
460.2292444122081747
 30
0.0
 40
0.001
  1
PURE PALETTA
  3

  2
TRADENAME
 70
     0
1001
ACDBATTR
1070
     0
1070
     1
  0
ATTDEF
  5
19E4F
  8
DEFPOINTS
 10
4554.9873177819808916
 20
460.2275779192540881
 30
0.0
 40
0.001
  1
VALVE TRIM
  3

  2
PRODUCT
 70
     0
1001
ACDBATTR
1070
     0
1070
     1
  0
LINE
  5
1A39C
  8
0
 10
4558.0144118638463624
 20
460.2170815136465762
 30
0.0
 11
4558.0144118638463624
 21
459.6228796158063119
 31
0.0
  0
LINE
  5
1A39D
  8
0
 10
4551.9678213126444462
 20
460.2170815136465762
 30
0.0
 11
4551.9678213126444462
 21
459.6228796158063119
 31
0.0
  0
LINE
  5
1A39E
  8
0
 10
4551.9778213126683113
 20
460.2270815136558895
 30
0.0
 11
4558.0044118638234067
 21
460.2270815136558895
 31
0.0
  0
LINE
  5
1A39F
  8
0
 10
4552.1267528384487377
 20
459.4746602538559728
 30
0.0
 11
4557.8554803380429803
 21
459.4746602538559728
 31
0.0
  0
LINE
  5
1A3A0
  8
0
 10
4554.1021733195639172
 20
459.2776585008559209
 30
0.0
 11
4555.8800598569241629
 21
459.2776585008559209
 31
0.0
  0
LINE
  5
1A3A1
  8
0
 10
4554.2751733195673296
 20
458.0366585008559923
 30
0.0
 11
4555.70705985692166
 21
458.0366585008559923
 31
0.0
  0
LINE
  5
1A3A2
  8
0
 10
4554.6025631150214394
 20
458.0266585008558877
 30
0.0
 11
4555.3796700614702786
 21
458.0266585008558877
 31
0.0
  0
ARC
  5
1A3A3
  8
0
 10
4552.0078213128826974
 20
459.6228796158063119
 30
0.0
 40
0.0400000002386007
 50
180.0000000721790911
 51
227.6999997334536943
  0
LINE
  5
1A3A4
  8
0
 10
4551.9809008120446379
 20
459.5932943719558921
 30
0.0
 11
4552.0998323379453723
 21
459.4850750100559935
 31
0.0
  0
ARC
  5
1A3A5
  8
0
 10
4552.126752838406901
 20
459.5146602536588034
 30
0.0
 40
0.039999999802919
 50
227.6999998926089006
 51
270.0000000584155941
  0
LINE
  5
1A3A6
  8
0
 10
4551.9809008120446379
 20
459.5932943719558921
 30
0.0
 11
4558.0013323644470802
 21
459.5932943719558921
 31
0.0
  0
LINE
  5
1A3A7
  8
0
 10
4554.0068646197451017
 20
459.3729672009529281
 30
0.0
 11
4554.0068646197451017
 21
459.4656512731559133
 31
0.0
  0
LINE
  5
1A3A8
  8
0
 10
4554.1641165882438145
 20
459.2476585008558914
 30
0.0
 11
4554.1641165882438145
 21
458.1477152324529811
 31
0.0
  0
LINE
  5
1A3A9
  8
0
 10
4554.5875732811437047
 20
458.0116584984169776
 30
0.0
 11
4554.5875732811446142
 21
457.2789410443559746
 31
0.0
  0
ARC
  5
1A3AA
  8
0
 10
4554.2041165887339957
 20
458.1477152324529811
 30
0.0
 40
0.0400000004880488
 50
180.0000001390561124
 51
224.9999996040230883
  0
LINE
  5
1A3AB
  8
0
 10
4554.1758323169433424
 20
458.1194309610559117
 30
0.0
 11
4554.2468890484451549
 21
458.0483742296559058
 31
0.0
  0
ARC
  5
1A3AC
  8
0
 10
4554.2751733195582347
 20
458.0766585004150784
 30
0.0
 40
0.0399999995591126
 50
224.9999996422731101
 51
270.0000000142260888
  0
ARC
  5
1A3AD
  8
0
 10
4554.6024820618304148
 20
458.0117496617746724
 30
0.0
 40
0.014909059405811
 50
89.6885096213798931
 51
180.3503445823893117
  0
LINE
  5
1A3AE
  8
0
 10
4554.6186165882445493
 20
458.0366585008559923
 30
0.0
 11
4554.6186165882445493
 21
458.0266585008558877
 31
0.0
  0
ARC
  5
1A3AF
  8
0
 10
4554.1341165882458881
 20
459.2476585008558914
 30
0.0
 40
0.0299999999999985
 50
0.0
 51
90.0
  0
ARC
  5
1A3B0
  8
0
 10
4554.1021733195639172
 20
459.3176585004255799
 30
0.0
 40
0.0399999995716523
 50
224.9999996458151088
 51
270.0005598952106993
  0
LINE
  5
1A3B1
  8
0
 10
4554.0738890484453805
 20
459.2893742296558912
 30
0.0
 11
4554.0185803484437201
 21
459.3446829295559155
 31
0.0
  0
ARC
  5
1A3B2
  8
0
 10
4554.0468646202316449
 20
459.3729672009529281
 30
0.0
 40
0.0400000004880295
 50
180.0000001390494901
 51
224.9999996040255041
  0
ARC
  5
1A3B3
  8
0
 10
4554.0268646197446287
 20
459.4656512731559133
 30
0.0
 40
0.0200000000000102
 50
153.227502780963988
 51
179.9999999999901945
  0
ARC
  5
1A3B4
  8
0
 10
4551.9778213126455739
 20
460.2170815136558986
 30
0.0
 40
0.0100000000000034
 50
89.9999998721215348
 51
180.000000052953709
  0
ARC
  5
1A3B5
  8
0
 10
4557.9744118636062922
 20
459.6228796158063119
 30
0.0
 40
0.0400000002386007
 50
312.3000002665463057
 51
359.9999999278209089
  0
LINE
  5
1A3B6
  8
0
 10
4558.0013323644470802
 20
459.5932943719558921
 30
0.0
 11
4557.8824008385454363
 21
459.4850750100559935
 31
0.0
  0
ARC
  5
1A3B7
  8
0
 10
4557.8554803380820886
 20
459.5146602536588034
 30
0.0
 40
0.0399999998028786
 50
269.9999999415845195
 51
312.3000001073933163
  0
LINE
  5
1A3B8
  8
0
 10
4555.9753685567447974
 20
459.3729672009529281
 30
0.0
 11
4555.9753685567447974
 21
459.4656512731559133
 31
0.0
  0
LINE
  5
1A3B9
  8
0
 10
4555.8181165882451751
 20
459.2476585008558914
 30
0.0
 11
4555.8181165882451751
 21
458.1477152324529811
 31
0.0
  0
LINE
  5
1A3BA
  8
0
 10
4555.3946598953452849
 20
458.0116584984169776
 30
0.0
 11
4555.3946598953461944
 21
457.2789410443559746
 31
0.0
  0
ARC
  5
1A3BB
  8
0
 10
4555.7781165877577223
 20
458.1477152324529811
 30
0.0
 40
0.0400000004880488
 50
315.0000003959768833
 51
359.9999998609438876
  0
LINE
  5
1A3BC
  8
0
 10
4555.8064008595465566
 20
458.1194309610559117
 30
0.0
 11
4555.7353441280447441
 21
458.0483742296559058
 31
0.0
  0
ARC
  5
1A3BD
  8
0
 10
4555.7070598569316644
 20
458.0766585004150784
 30
0.0
 40
0.0399999995591163
 50
269.9999999857739112
 51
315.0000003577268899
  0
ARC
  5
1A3BE
  8
0
 10
4555.3796611127972938
 20
458.0116597209278098
 30
0.0
 40
0.0149987825975163
 50
359.9953299736977215
 51
89.9658158112808053
  0
LINE
  5
1A3BF
  8
0
 10
4555.3636165882462592
 20
458.0366585008559923
 30
0.0
 11
4555.3636165882462592
 21
458.0266585008558877
 31
0.0
  0
ARC
  5
1A3C0
  8
0
 10
4555.8481165882440109
 20
459.2476585008558914
 30
0.0
 40
0.0299999999999985
 50
90.0
 51
180.0
  0
ARC
  5
1A3C1
  8
0
 10
4555.8800598569323483
 20
459.317658500415007
 30
0.0
 40
0.0399999995591021
 50
269.9999999898384999
 51
315.0000003577268899
  0
LINE
  5
1A3C2
  8
0
 10
4555.9083441280454281
 20
459.2893742296558912
 30
0.0
 11
4555.9636528280461789
 21
459.3446829295559155
 31
0.0
  0
ARC
  5
1A3C3
  8
0
 10
4555.9353685562582541
 20
459.3729672009529281
 30
0.0
 40
0.0400000004880295
 50
315.0000003959746095
 51
359.9999998609504246
  0
ARC
  5
1A3C4
  8
0
 10
4555.9553685567452703
 20
459.4656512731559133
 30
0.0
 40
0.0200000000000102
 50
0.0000000000097707
 51
26.77249721903598
  0
ARC
  5
1A3C5
  8
0
 10
4558.0044118638452346
 20
460.2170815136558986
 30
0.0
 40
0.0100000000000016
 50
0.0000000000097707
 51
90.0000001278784509
  0
ARC
  5
1A3C6
  8
0
 10
4554.9911165882449495
 20
457.2789409121486983
 30
0.0
 40
0.403543307100358
 50
179.9999812289781005
 51
0.0000187710185853
  0
LINE
  5
1A3C7
  8
0
 10
4554.0185803484437201
 20
459.3446829295559155
 30
0.0
 11
4555.9636528280461789
 21
459.3446829295559155
 31
0.0
  0
LINE
  5
1A3C8
  8
0
 10
4554.1758323169433424
 20
458.1194309610559117
 30
0.0
 11
4555.8064008595465566
 21
458.1194309610559117
 31
0.0
  0
ENDSEC
  0
EOF
