  0
SECTION
  2
HEADER
  9
$ACADVER
  1
AC1009
  9
$INSBASE
 10
4558.8813108941776591
 20
460.0795585747911787
 30
0.0
  9
$EXTMIN
 10
4555.8580156185771557
 20
457.0562632991903911
 30
0.0
  9
$EXTMAX
 10
4561.9046061697799814
 20
463.102853850392421
 30
0.0
  9
$LIMMIN
 10
0.0
 20
0.0
  9
$LIMMAX
 10
11.6929133858000007
 20
8.2677165353999982
  9
$ORTHOMODE
 70
     0
  9
$REGENMODE
 70
     1
  9
$FILLMODE
 70
     1
  9
$QTEXTMODE
 70
     0
  9
$MIRRTEXT
 70
     0
  9
$DRAGMODE
 70
     2
  9
$LTSCALE
 40
0.6431102362
  9
$OSMODE
 70
  4095
  9
$ATTMODE
 70
     1
  9
$TEXTSIZE
 40
0.2
  9
$TRACEWID
 40
0.05
  9
$TEXTSTYLE
  7
STANDARD
  9
$CLAYER
  8
0
  9
$CELTYPE
  6
BYLAYER
  9
$CECOLOR
 62
   256
  9
$DIMSCALE
 40
1.0
  9
$DIMASZ
 40
0.1875
  9
$DIMEXO
 40
0.0625
  9
$DIMDLI
 40
0.4443307087
  9
$DIMRND
 40
0.0
  9
$DIMDLE
 40
0.0
  9
$DIMEXE
 40
0.125
  9
$DIMTP
 40
0.01
  9
$DIMTM
 40
0.01
  9
$DIMTXT
 40
2.0
  9
$DIMCEN
 40
0.1052362205
  9
$DIMTSZ
 40
0.0
  9
$DIMTOL
 70
     1
  9
$DIMLIM
 70
     0
  9
$DIMTIH
 70
     1
  9
$DIMTOH
 70
     1
  9
$DIMSE1
 70
     0
  9
$DIMSE2
 70
     0
  9
$DIMTAD
 70
     0
  9
$DIMZIN
 70
     0
  9
$DIMBLK
  1

  9
$DIMASO
 70
     1
  9
$DIMSHO
 70
     1
  9
$DIMPOST
  1
\X
  9
$DIMAPOST
  1

  9
$DIMALT
 70
     1
  9
$DIMALTD
 70
     2
  9
$DIMALTF
 40
25.3999999999999986
  9
$DIMLFAC
 40
1.0
  9
$DIMTOFL
 70
     0
  9
$DIMTVP
 40
0.0
  9
$DIMTIX
 70
     0
  9
$DIMSOXD
 70
     0
  9
$DIMSAH
 70
     0
  9
$DIMBLK1
  1

  9
$DIMBLK2
  1

  9
$DIMSTYLE
  2
STANDARD
  9
$DIMCLRD
 70
     0
  9
$DIMCLRE
 70
     0
  9
$DIMCLRT
 70
     0
  9
$DIMTFAC
 40
1.0
  9
$DIMGAP
 40
0.09
  9
$LUNITS
 70
     2
  9
$LUPREC
 70
     4
  9
$SKETCHINC
 40
0.1
  9
$FILLETRAD
 40
0.0
  9
$AUNITS
 70
     0
  9
$AUPREC
 70
     0
  9
$MENU
  1
.
  9
$ELEVATION
 40
0.0
  9
$PELEVATION
 40
0.0
  9
$THICKNESS
 40
0.0
  9
$LIMCHECK
 70
     0
  9
$BLIPMODE
 70
     0
  9
$CHAMFERA
 40
0.0
  9
$CHAMFERB
 40
0.0
  9
$SKPOLY
 70
     0
  9
$TDCREATE
 40
2458060.468368056230247
  9
$TDUPDATE
 40
2459898.8177662040106952
  9
$TDINDWG
 40
1.5289148148
  9
$TDUSRTIMER
 40
1.5289148148
  9
$USRTIMER
 70
     1
  9
$ANGBASE
 50
0.0
  9
$ANGDIR
 70
     0
  9
$PDMODE
 70
     0
  9
$PDSIZE
 40
0.3125
  9
$PLINEWID
 40
0.0
  9
$COORDS
 70
     1
  9
$SPLFRAME
 70
     0
  9
$SPLINETYPE
 70
     6
  9
$SPLINESEGS
 70
     8
  9
$ATTDIA
 70
     1
  9
$ATTREQ
 70
     1
  9
$HANDLING
 70
     1
  9
$HANDSEED
  5
1A433
  9
$SURFTAB1
 70
     6
  9
$SURFTAB2
 70
     6
  9
$SURFTYPE
 70
     6
  9
$SURFU
 70
     6
  9
$SURFV
 70
     6
  9
$UCSNAME
  2

  9
$UCSORG
 10
0.0
 20
0.0
 30
0.0
  9
$UCSXDIR
 10
1.0
 20
0.0
 30
0.0
  9
$UCSYDIR
 10
0.0
 20
1.0
 30
0.0
  9
$PUCSNAME
  2

  9
$PUCSORG
 10
0.0
 20
0.0
 30
0.0
  9
$PUCSXDIR
 10
1.0
 20
0.0
 30
0.0
  9
$PUCSYDIR
 10
0.0
 20
1.0
 30
0.0
  9
$USERI1
 70
     0
  9
$USERI2
 70
     0
  9
$USERI3
 70
     0
  9
$USERI4
 70
     0
  9
$USERI5
 70
     0
  9
$USERR1
 40
0.0
  9
$USERR2
 40
0.0
  9
$USERR3
 40
0.0
  9
$USERR4
 40
0.0
  9
$USERR5
 40
0.0
  9
$WORLDVIEW
 70
     1
  9
$SHADEDGE
 70
     3
  9
$SHADEDIF
 70
    70
  9
$TILEMODE
 70
     1
  9
$MAXACTVP
 70
    64
  9
$PLIMCHECK
 70
     0
  9
$PEXTMIN
 10
1.0000000000000000E+20
 20
1.0000000000000000E+20
 30
1.0000000000000000E+20
  9
$PEXTMAX
 10
-1.0000000000000000E+20
 20
-1.0000000000000000E+20
 30
-1.0000000000000000E+20
  9
$PLIMMIN
 10
0.0
 20
0.0
  9
$PLIMMAX
 10
12.0
 20
9.0
  9
$UNITMODE
 70
     0
  9
$VISRETAIN
 70
     1
  9
$PLINEGEN
 70
     0
  9
$PSLTSCALE
 70
     1
  0
ENDSEC
  0
SECTION
  2
TABLES
  0
TABLE
  2
VPORT
 70
     1
  0
VPORT
  2
*ACTIVE
 70
     0
 10
0.0
 20
0.0
 11
1.0
 21
1.0
 12
647.5159544488659549
 22
327.4999534722522867
 13
0.0
 23
0.0
 14
1.0
 24
1.0
 15
0.0
 25
0.0
 16
0.0
 26
0.0
 36
60.4960186965801583
 17
3911.3653564453120453
 27
132.5796051025390057
 37
0.0
 40
6.0937681107692461
 41
2.095052083333333
 42
50.0
 43
0.0
 44
0.0
 50
0.0
 51
0.0
 71
     0
 72
   100
 73
     1
 74
     1
 75
     0
 76
     0
 77
     0
 78
     0
  0
ENDTAB
  0
TABLE
  2
LTYPE
 70
     2
  0
LTYPE
  2
CONTINUOUS
 70
     0
  3
Solid line
 72
    65
 73
     0
 40
0.0
  0
LTYPE
  2
PHANTOM2
 70
     0
  3
___ _ _ ___ _ _ ___ _ _ ___ _ _
 72
    65
 73
     6
 40
1.25
 49
0.625
 49
-0.125
 49
0.125
 49
-0.125
 49
0.125
 49
-0.125
  0
ENDTAB
  0
TABLE
  2
LAYER
 70
     2
  0
LAYER
  2
0
 70
     0
 62
   255
  6
CONTINUOUS
  0
LAYER
  2
DEFPOINTS
 70
     0
 62
     7
  6
CONTINUOUS
  0
ENDTAB
  0
TABLE
  2
STYLE
 70
     1
  0
STYLE
  2
STANDARD
 70
     0
 40
0.0
 41
0.8
 50
0.0
 71
     0
 42
0.2
  3
txt
  4

  0
ENDTAB
  0
TABLE
  2
VIEW
 70
     0
  0
ENDTAB
  0
TABLE
  2
UCS
 70
     0
  0
ENDTAB
  0
TABLE
  2
APPID
 70
    11
  0
APPID
  2
ACAD
 70
     0
  0
APPID
  2
ACAD_MLEADERVER
 70
     0
  0
APPID
  2
ACAD_EXEMPT_FROM_CAD_STANDARDS
 70
     0
  0
APPID
  2
ACAD_NAV_VCDISPLAY
 70
     0
  0
APPID
  2
ACAECLAYERSTANDARD
 70
     0
  0
APPID
  2
ACCMTRANSPARENCY
 70
     0
  0
APPID
  2
ACAD_DSTYLE_DIMJAG
 70
     0
  0
APPID
  2
ACAD_DSTYLE_DIMTALN
 70
     0
  0
APPID
  2
ACDBATTR
 70
     0
  0
APPID
  2
ACADANNOTATIVE
 70
     0
  0
APPID
  2
DCO15
 70
     0
  0
ENDTAB
  0
TABLE
  2
DIMSTYLE
 70
     1
  0
DIMSTYLE
  2
STANDARD
 70
     0
  3

  4

  5

  6

  7

 40
1.0
 41
0.1875
 42
0.0625
 43
0.38
 44
0.125
 45
0.0
 46
0.0
 47
0.01
 48
0.01
140
0.15625
141
0.09
142
0.0
143
25.3999999999999986
144
1.0
145
0.0
146
1.0
147
0.09
 71
     1
 72
     0
 73
     1
 74
     1
 75
     0
 76
     0
 77
     0
 78
     4
170
     0
171
     2
172
     0
173
     0
174
     0
175
     0
176
     0
177
     0
178
     0
  0
ENDTAB
  0
ENDSEC
  0
SECTION
  2
BLOCKS
  0
BLOCK
  8
0
  2
$MODEL_SPACE
 70
     0
 10
0.0
 20
0.0
 30
0.0
  3
$MODEL_SPACE
  1

  0
ENDBLK
  5
21
  8
0
  0
BLOCK
 67
     1
  8
0
  2
$PAPER_SPACE
 70
     0
 10
0.0
 20
0.0
 30
0.0
  3
$PAPER_SPACE
  1

  0
ENDBLK
  5
1D
 67
     1
  8
0
  0
ENDSEC
  0
SECTION
  2
ENTITIES
  0
ATTDEF
  5
19E4D
  8
DEFPOINTS
 10
4558.8765143833716138
 20
460.0838103351366044
 30
0.0
 40
0.001
  1
P24918-LV
  3

  2
MODELNUMBER
 70
     0
1001
ACDBATTR
1070
     0
1070
     1
  0
ATTDEF
  5
19E4E
  8
DEFPOINTS
 10
4558.8765143833716138
 20
460.0821434947574176
 30
0.0
 40
0.001
  1
PURE PALETTA
  3

  2
TRADENAME
 70
     0
1001
ACDBATTR
1070
     0
1070
     1
  0
ATTDEF
  5
19E4F
  8
DEFPOINTS
 10
4558.8765143833716138
 20
460.0804770018032741
 30
0.0
 40
0.001
  1
VALVE TRIM
  3

  2
PRODUCT
 70
     0
1001
ACDBATTR
1070
     0
1070
     1
  0
CIRCLE
  5
1A357
  8
0
 10
4558.8813108941776591
 20
460.0795585747912924
 30
0.0
 40
3.023295275601007
  0
LINE
  5
1A358
  8
0
 10
4558.4777675870773237
 20
460.0795585747912924
 30
0.0
 11
4558.4777675870773237
 21
459.1991018818911812
 31
0.0
  0
LINE
  5
1A359
  8
0
 10
4559.2848542012779944
 20
460.0795585747912924
 30
0.0
 11
4559.2848542012779944
 21
459.1991018820621093
 31
0.0
  0
ARC
  5
1A35A
  8
0
 10
4558.8813108941776591
 20
460.0795585747912924
 30
0.0
 40
0.4035433070999998
 50
0.0
 51
180.0
  0
LINE
  5
1A35B
  8
0
 10
4559.1979602336223252
 20
457.2549680235912888
 30
0.0
 11
4558.5646615547348119
 21
457.2549680235912888
 31
0.0
  0
ARC
  5
1A35C
  8
0
 10
4558.4927665259392597
 20
459.1991008207531877
 30
0.0
 40
0.0149989388995524
 50
179.9959464644944092
 51
270.0040535352547977
  0
LINE
  5
1A35D
  8
0
 10
4558.4777675870791427
 20
459.1841018818911948
 30
0.0
 11
4558.4777675871227984
 21
457.3399213847432065
 31
0.0
  0
ARC
  5
1A35E
  8
0
 10
4558.4927675878880109
 20
457.3399213847432065
 30
0.0
 40
0.0150000007635987
 50
180.0000005801690008
 51
224.9999983478188028
  0
LINE
  5
1A35F
  8
0
 10
4558.4821609853233895
 20
457.3293147827913003
 30
0.0
 11
4558.5507421300217175
 21
457.2607336381913115
 31
0.0
  0
ARC
  5
1A360
  8
0
 10
4558.5646615547348119
 20
457.274653062548623
 30
0.0
 40
0.0196850389572164
 50
224.9999992699684128
 51
270.0000003805607776
  0
ARC
  5
1A361
  8
0
 10
4559.2698544737568227
 20
459.1991016094108886
 30
0.0
 40
0.0149997275221177
 50
269.9989588008393753
 51
0.0010408180591175
  0
ARC
  5
1A362
  8
0
 10
4558.8813108941776591
 20
460.0795585747912924
 30
0.0
 40
0.8269999999999997
 50
299.2066169859684237
 51
240.793383014031491
  0
ARC
  5
1A363
  8
0
 10
4558.8813108941776591
 20
460.0795585747912924
 30
0.0
 40
0.9842519684999995
 50
294.2048348024235906
 51
245.7951651976333096
  0
ARC
  5
1A364
  8
0
 10
4558.8813108941776591
 20
460.0795585747912924
 30
0.0
 40
0.7442275397999998
 50
302.8356480713712813
 51
237.1643519286286903
  0
ARC
  5
1A365
  8
0
 10
4558.8813108941776591
 20
460.0795585747912924
 30
0.0
 40
0.9172275397999998
 50
296.1013205699233026
 51
243.8986794300766121
  0
LINE
  5
1A366
  8
0
 10
4558.482160985324299
 20
457.3293147827913003
 30
0.0
 11
4559.2804608030337477
 21
457.3293147827913003
 31
0.0
  0
CIRCLE
  5
1A367
  8
0
 10
4558.8813108941776591
 20
460.0795585747912924
 30
0.0
 40
2.8912842502999991
  0
LINE
  5
1A369
  8
0
 10
4559.2848542012789039
 20
459.1841018818911948
 30
0.0
 11
4558.4777675870791427
 21
459.1841018818911948
 31
0.0
  0
LINE
  5
1A36A
  8
0
 10
4559.2848542012789039
 20
459.1841018818911948
 30
0.0
 11
4559.2848542012343387
 21
457.3399213847432065
 31
0.0
  0
ARC
  5
1A36B
  8
0
 10
4559.2698542004700357
 20
457.3399213847432065
 30
0.0
 40
0.0150000007635987
 50
315.0000016521810835
 51
359.9999994198309992
  0
LINE
  5
1A36C
  8
0
 10
4559.2804608030346571
 20
457.3293147827913003
 30
0.0
 11
4559.2118796583354197
 21
457.2607336381913115
 31
0.0
  0
ARC
  5
1A36D
  8
0
 10
4559.1979602336223252
 20
457.274653062548623
 30
0.0
 40
0.0196850389572164
 50
269.9999996194392224
 51
315.0000007300315019
  0
ENDSEC
  0
EOF
