  0
SECTION
  2
HEADER
  9
$ACADVER
  1
AC1009
  9
$INSBASE
 10
4531.8144764509852394
 20
459.9145153207880981
 30
0.0
  9
$EXTMIN
 10
4528.4627926745833975
 20
456.8912200451879926
 30
0.0
  9
$EXTMAX
 10
4531.8251453032116842
 20
462.9378105963880898
 30
0.0
  9
$LIMMIN
 10
0.0
 20
0.0
  9
$LIMMAX
 10
11.6929133858000007
 20
8.2677165353999982
  9
$ORTHOMODE
 70
     0
  9
$REGENMODE
 70
     1
  9
$FILLMODE
 70
     1
  9
$QTEXTMODE
 70
     0
  9
$MIRRTEXT
 70
     0
  9
$DRAGMODE
 70
     2
  9
$LTSCALE
 40
0.6431102362
  9
$OSMODE
 70
    19
  9
$ATTMODE
 70
     1
  9
$TEXTSIZE
 40
0.2
  9
$TRACEWID
 40
0.05
  9
$TEXTSTYLE
  7
STANDARD
  9
$CLAYER
  8
0
  9
$CELTYPE
  6
BYLAYER
  9
$CECOLOR
 62
   256
  9
$DIMSCALE
 40
1.0
  9
$DIMASZ
 40
0.1875
  9
$DIMEXO
 40
0.0625
  9
$DIMDLI
 40
0.4443307087
  9
$DIMRND
 40
0.0
  9
$DIMDLE
 40
0.0
  9
$DIMEXE
 40
0.125
  9
$DIMTP
 40
0.01
  9
$DIMTM
 40
0.01
  9
$DIMTXT
 40
2.0
  9
$DIMCEN
 40
0.1052362205
  9
$DIMTSZ
 40
0.0
  9
$DIMTOL
 70
     1
  9
$DIMLIM
 70
     0
  9
$DIMTIH
 70
     1
  9
$DIMTOH
 70
     1
  9
$DIMSE1
 70
     0
  9
$DIMSE2
 70
     0
  9
$DIMTAD
 70
     0
  9
$DIMZIN
 70
     0
  9
$DIMBLK
  1

  9
$DIMASO
 70
     1
  9
$DIMSHO
 70
     1
  9
$DIMPOST
  1
\X
  9
$DIMAPOST
  1

  9
$DIMALT
 70
     1
  9
$DIMALTD
 70
     2
  9
$DIMALTF
 40
25.3999999999999986
  9
$DIMLFAC
 40
1.0
  9
$DIMTOFL
 70
     0
  9
$DIMTVP
 40
0.0
  9
$DIMTIX
 70
     0
  9
$DIMSOXD
 70
     0
  9
$DIMSAH
 70
     0
  9
$DIMBLK1
  1

  9
$DIMBLK2
  1

  9
$DIMSTYLE
  2
STANDARD
  9
$DIMCLRD
 70
     0
  9
$DIMCLRE
 70
     0
  9
$DIMCLRT
 70
     0
  9
$DIMTFAC
 40
1.0
  9
$DIMGAP
 40
0.09
  9
$LUNITS
 70
     2
  9
$LUPREC
 70
     4
  9
$SKETCHINC
 40
0.1
  9
$FILLETRAD
 40
0.0
  9
$AUNITS
 70
     0
  9
$AUPREC
 70
     0
  9
$MENU
  1
.
  9
$ELEVATION
 40
0.0
  9
$PELEVATION
 40
0.0
  9
$THICKNESS
 40
0.0
  9
$LIMCHECK
 70
     0
  9
$BLIPMODE
 70
     0
  9
$CHAMFERA
 40
0.0
  9
$CHAMFERB
 40
0.0
  9
$SKPOLY
 70
     0
  9
$TDCREATE
 40
2458060.468368056230247
  9
$TDUPDATE
 40
2459284.4958333331160247
  9
$TDINDWG
 40
1.5237412037
  9
$TDUSRTIMER
 40
1.5237412037
  9
$USRTIMER
 70
     1
  9
$ANGBASE
 50
0.0
  9
$ANGDIR
 70
     0
  9
$PDMODE
 70
     0
  9
$PDSIZE
 40
0.3125
  9
$PLINEWID
 40
0.0
  9
$COORDS
 70
     1
  9
$SPLFRAME
 70
     0
  9
$SPLINETYPE
 70
     6
  9
$SPLINESEGS
 70
     8
  9
$ATTDIA
 70
     1
  9
$ATTREQ
 70
     1
  9
$HANDLING
 70
     1
  9
$HANDSEED
  5
19DE1
  9
$SURFTAB1
 70
     6
  9
$SURFTAB2
 70
     6
  9
$SURFTYPE
 70
     6
  9
$SURFU
 70
     6
  9
$SURFV
 70
     6
  9
$UCSNAME
  2

  9
$UCSORG
 10
0.0
 20
0.0
 30
0.0
  9
$UCSXDIR
 10
1.0
 20
0.0
 30
0.0
  9
$UCSYDIR
 10
0.0
 20
1.0
 30
0.0
  9
$PUCSNAME
  2

  9
$PUCSORG
 10
0.0
 20
0.0
 30
0.0
  9
$PUCSXDIR
 10
1.0
 20
0.0
 30
0.0
  9
$PUCSYDIR
 10
0.0
 20
1.0
 30
0.0
  9
$USERI1
 70
     0
  9
$USERI2
 70
     0
  9
$USERI3
 70
     0
  9
$USERI4
 70
     0
  9
$USERI5
 70
     0
  9
$USERR1
 40
0.0
  9
$USERR2
 40
0.0
  9
$USERR3
 40
0.0
  9
$USERR4
 40
0.0
  9
$USERR5
 40
0.0
  9
$WORLDVIEW
 70
     1
  9
$SHADEDGE
 70
     3
  9
$SHADEDIF
 70
    70
  9
$TILEMODE
 70
     1
  9
$MAXACTVP
 70
    64
  9
$PLIMCHECK
 70
     0
  9
$PEXTMIN
 10
1.0000000000000000E+20
 20
1.0000000000000000E+20
 30
1.0000000000000000E+20
  9
$PEXTMAX
 10
-1.0000000000000000E+20
 20
-1.0000000000000000E+20
 30
-1.0000000000000000E+20
  9
$PLIMMIN
 10
0.0
 20
0.0
  9
$PLIMMAX
 10
12.0
 20
9.0
  9
$UNITMODE
 70
     0
  9
$VISRETAIN
 70
     1
  9
$PLINEGEN
 70
     0
  9
$PSLTSCALE
 70
     1
  0
ENDSEC
  0
SECTION
  2
TABLES
  0
TABLE
  2
VPORT
 70
     1
  0
VPORT
  2
*ACTIVE
 70
     0
 10
0.0
 20
0.0
 11
1.0
 21
1.0
 12
618.7786125435859503
 22
327.3349102182489787
 13
0.0
 23
0.0
 14
1.0
 24
1.0
 15
0.0
 25
0.0
 16
0.0
 26
0.0
 36
60.4960186965801583
 17
3911.3653564453120453
 27
132.5796051025390057
 37
0.0
 40
6.0844606381594977
 41
2.005224660397074
 42
50.0
 43
0.0
 44
0.0
 50
0.0
 51
0.0
 71
     0
 72
   100
 73
     1
 74
     1
 75
     0
 76
     0
 77
     0
 78
     0
  0
ENDTAB
  0
TABLE
  2
LTYPE
 70
     2
  0
LTYPE
  2
CONTINUOUS
 70
     0
  3
Solid line
 72
    65
 73
     0
 40
0.0
  0
LTYPE
  2
PHANTOM2
 70
     0
  3
___ _ _ ___ _ _ ___ _ _ ___ _ _
 72
    65
 73
     6
 40
1.25
 49
0.625
 49
-0.125
 49
0.125
 49
-0.125
 49
0.125
 49
-0.125
  0
ENDTAB
  0
TABLE
  2
LAYER
 70
     2
  0
LAYER
  2
0
 70
     0
 62
   255
  6
CONTINUOUS
  0
LAYER
  2
DEFPOINTS
 70
     0
 62
     7
  6
CONTINUOUS
  0
ENDTAB
  0
TABLE
  2
STYLE
 70
     1
  0
STYLE
  2
STANDARD
 70
     0
 40
0.0
 41
0.8
 50
0.0
 71
     0
 42
0.2
  3
txt
  4

  0
ENDTAB
  0
TABLE
  2
VIEW
 70
     0
  0
ENDTAB
  0
TABLE
  2
UCS
 70
     0
  0
ENDTAB
  0
TABLE
  2
APPID
 70
    11
  0
APPID
  2
ACAD
 70
     0
  0
APPID
  2
ACAD_MLEADERVER
 70
     0
  0
APPID
  2
ACAD_EXEMPT_FROM_CAD_STANDARDS
 70
     0
  0
APPID
  2
ACAD_NAV_VCDISPLAY
 70
     0
  0
APPID
  2
ACAECLAYERSTANDARD
 70
     0
  0
APPID
  2
ACCMTRANSPARENCY
 70
     0
  0
APPID
  2
ACAD_DSTYLE_DIMJAG
 70
     0
  0
APPID
  2
ACAD_DSTYLE_DIMTALN
 70
     0
  0
APPID
  2
ACDBATTR
 70
     0
  0
APPID
  2
ACADANNOTATIVE
 70
     0
  0
APPID
  2
DCO15
 70
     0
  0
ENDTAB
  0
TABLE
  2
DIMSTYLE
 70
     1
  0
DIMSTYLE
  2
STANDARD
 70
     0
  3

  4

  5

  6

  7

 40
1.0
 41
0.1875
 42
0.0625
 43
0.38
 44
0.125
 45
0.0
 46
0.0
 47
0.01
 48
0.01
140
0.15625
141
0.09
142
0.0
143
25.3999999999999986
144
1.0
145
0.0
146
1.0
147
0.09
 71
     1
 72
     0
 73
     1
 74
     1
 75
     0
 76
     0
 77
     0
 78
     4
170
     0
171
     2
172
     0
173
     0
174
     0
175
     0
176
     0
177
     0
178
     0
  0
ENDTAB
  0
ENDSEC
  0
SECTION
  2
BLOCKS
  0
BLOCK
  8
0
  2
$MODEL_SPACE
 70
     0
 10
0.0
 20
0.0
 30
0.0
  3
$MODEL_SPACE
  1

  0
ENDBLK
  5
21
  8
0
  0
BLOCK
 67
     1
  8
0
  2
$PAPER_SPACE
 70
     0
 10
0.0
 20
0.0
 30
0.0
  3
$PAPER_SPACE
  1

  0
ENDBLK
  5
1D
 67
     1
  8
0
  0
ENDSEC
  0
SECTION
  2
ENTITIES
  0
ATTDEF
  5
194DB
  8
DEFPOINTS
 10
4531.8144786365428445
 20
459.9178577081016783
 30
0.0
 40
0.001
  1
P24915-SNW
  3

  2
MODELNUMBER
 70
     0
1001
ACDBATTR
1070
     0
1070
     1
  0
ATTDEF
  5
194DC
  8
DEFPOINTS
 10
4531.8144786365428445
 20
459.9161908677226052
 30
0.0
 40
0.001
  1
PINNA PALETTA
  3

  2
TRADENAME
 70
     0
1001
ACDBATTR
1070
     0
1070
     1
  0
ATTDEF
  5
194DD
  8
DEFPOINTS
 10
4531.8144786365428445
 20
459.9145243747684049
 30
0.0
 40
0.001
  1
VALVE TRIM
  3

  2
PRODUCT
 70
     0
1001
ACDBATTR
1070
     0
1070
     1
  0
LINE
  5
19C00
  8
0
 10
4528.4627926745833975
 20
460.1999440991709207
 30
0.0
 11
4528.4627926745833975
 21
459.0340586278879869
 31
0.0
  0
LINE
  5
19C01
  8
0
 10
4531.8044764509741071
 20
456.8912200451879926
 30
0.0
 11
4531.210274553133786
 21
456.8912200451879926
 31
0.0
  0
LINE
  5
19C02
  8
0
 10
4531.8044764509741071
 20
462.9378105963880898
 30
0.0
 11
4531.210274553133786
 21
462.9378105963880898
 31
0.0
  0
LINE
  5
19C03
  8
0
 10
4531.8144764509852394
 20
462.9278105963658163
 30
0.0
 11
4531.8144764509852394
 21
456.9012200452103798
 31
0.0
  0
LINE
  5
19C04
  8
0
 10
4531.0620551911842995
 20
462.7788790705840825
 30
0.0
 11
4531.0620551911842995
 21
457.0501515709921136
 31
0.0
  0
LINE
  5
19C05
  8
0
 10
4530.8650534381840771
 20
460.8034585894686757
 30
0.0
 11
4530.8650534381840771
 21
459.0255720521075204
 31
0.0
  0
LINE
  5
19C06
  8
0
 10
4529.6240534381840916
 20
460.6304585894657748
 30
0.0
 11
4529.6240534381840916
 21
459.1985720521103076
 31
0.0
  0
LINE
  5
19C07
  8
0
 10
4529.6140534381847829
 20
460.3030687940125176
 30
0.0
 11
4529.6140534381847829
 21
459.5259618475636785
 31
0.0
  0
ARC
  5
19C08
  8
0
 10
4531.210274553133786
 20
462.8978105961493839
 30
0.0
 40
0.0400000002386007
 50
90.0000000721726536
 51
137.699999733451989
  0
LINE
  5
19C09
  8
0
 10
4531.1806893092843893
 20
462.9247310969881255
 30
0.0
 11
4531.0724699473839792
 21
462.8057995710880732
 31
0.0
  0
ARC
  5
19C0A
  8
0
 10
4531.1020551909869027
 20
462.7788790706247823
 30
0.0
 40
0.0399999998029209
 50
137.6999998926175124
 51
180.0000000583926862
  0
LINE
  5
19C0B
  8
0
 10
4531.1806893092843893
 20
462.9247310969881255
 30
0.0
 11
4531.1806893092843893
 21
456.9042995445881274
 31
0.0
  0
LINE
  5
19C0C
  8
0
 10
4530.960362138281198
 20
460.8987672892880028
 30
0.0
 11
4531.0530462104843537
 21
460.8987672892880028
 31
0.0
  0
LINE
  5
19C0D
  8
0
 10
4530.8350534381843318
 20
460.7415153207879825
 30
0.0
 11
4529.7351101697813647
 21
460.7415153207879825
 31
0.0
  0
ARC
  5
19C0E
  8
0
 10
4529.7351101697813647
 20
460.701515320300075
 30
0.0
 40
0.0400000004880488
 50
90.0000001390821467
 51
134.9999996039886128
  0
LINE
  5
19C0F
  8
0
 10
4529.7068258983854321
 20
460.7297995920879998
 30
0.0
 11
4529.6357691669845735
 21
460.65874286058812
 31
0.0
  0
ARC
  5
19C10
  8
0
 10
4529.6640534377438598
 20
460.6304585894757793
 30
0.0
 40
0.0399999995591226
 50
134.9999996422822903
 51
180.0000000142260888
  0
ARC
  5
19C11
  8
0
 10
4529.5990534357461001
 20
460.3030586220003215
 30
0.0
 40
0.0150000058878023
 50
0.0388542122891903
 51
90.0
  0
LINE
  5
19C12
  8
0
 10
4529.6240534381840916
 20
460.2870153207881003
 30
0.0
 11
4529.6140534381847829
 21
460.2870153207881003
 31
0.0
  0
ARC
  5
19C13
  8
0
 10
4530.8350534381843318
 20
460.7715153207881258
 30
0.0
 40
0.0299999999999985
 50
270.0
 51
0.0000000000032569
  0
ARC
  5
19C14
  8
0
 10
4530.9050534377538497
 20
460.8034585894686757
 30
0.0
 40
0.0399999995716523
 50
134.9999996458357998
 51
180.000559895213911
  0
LINE
  5
19C15
  8
0
 10
4530.876769166984559
 20
460.8317428605881219
 30
0.0
 11
4530.9320778668843559
 21
460.8870515605880769
 31
0.0
  0
ARC
  5
19C16
  8
0
 10
4530.960362138281198
 20
460.8587672888000952
 30
0.0
 40
0.0400000004880295
 50
90.0000001390300355
 51
134.9999996040322969
  0
ARC
  5
19C17
  8
0
 10
4531.0530462104843537
 20
460.8787672892880778
 30
0.0
 40
0.0200000000000102
 50
63.227502780972813
 51
90.0
  0
ARC
  5
19C18
  8
0
 10
4531.8044764509841116
 20
462.9278105963880989
 30
0.0
 40
0.0100000000000051
 50
359.9999998721150973
 51
90.0000000529439745
  0
ARC
  5
19C19
  8
0
 10
4531.210274553133786
 20
456.9312200454266986
 30
0.0
 40
0.0400000002386007
 50
222.300000266548011
 51
269.999999927827389
  0
LINE
  5
19C1A
  8
0
 10
4531.1806893092843893
 20
456.9042995445881274
 30
0.0
 11
4531.0724699473839792
 21
457.0232310704881229
 31
0.0
  0
ARC
  5
19C1B
  8
0
 10
4531.1020551909869027
 20
457.0501515709513001
 30
0.0
 40
0.0399999998029248
 50
179.999999941610497
 51
222.3000001073801002
  0
LINE
  5
19C1C
  8
0
 10
4530.960362138281198
 20
458.9302633522880797
 30
0.0
 11
4531.0530462104843537
 21
458.9302633522880797
 31
0.0
  0
LINE
  5
19C1D
  8
0
 10
4530.8350534381843318
 20
459.0875153207880999
 30
0.0
 11
4529.7351101697813647
 21
459.0875153207880999
 31
0.0
  0
ARC
  5
19C1E
  8
0
 10
4529.7351101697813647
 20
459.1275153212761779
 30
0.0
 40
0.0400000004880488
 50
225.0000003960113872
 51
269.9999998609177965
  0
LINE
  5
19C1F
  8
0
 10
4529.7068258983854321
 20
459.0992310494880826
 30
0.0
 11
4529.6357691669845735
 21
459.1702877809880761
 31
0.0
  0
ARC
  5
19C20
  8
0
 10
4529.6640534377438598
 20
459.1985720521003032
 30
0.0
 40
0.0399999995591127
 50
179.9999999857705859
 51
225.0000003577198981
  0
ARC
  5
19C21
  8
0
 10
4529.5990534357461001
 20
459.5259720195758746
 30
0.0
 40
0.0150000058878004
 50
270.0000093155334184
 51
359.9611457877139742
  0
LINE
  5
19C22
  8
0
 10
4529.6240534381840916
 20
459.5420153207879821
 30
0.0
 11
4529.6140534381847829
 21
459.5420153207879821
 31
0.0
  0
ARC
  5
19C23
  8
0
 10
4530.8350534381843318
 20
459.0575153207881272
 30
0.0
 40
0.0299999999999985
 50
359.9999999999968168
 51
90.0
  0
ARC
  5
19C24
  8
0
 10
4530.9050534377438453
 20
459.025572052100415
 30
0.0
 40
0.0399999995591038
 50
179.9999999898157057
 51
225.0000003577198981
  0
LINE
  5
19C25
  8
0
 10
4530.876769166984559
 20
458.9972877809880742
 30
0.0
 11
4530.9320778668843559
 21
458.9419790809881192
 31
0.0
  0
ARC
  5
19C26
  8
0
 10
4530.960362138281198
 20
458.9702633527761009
 30
0.0
 40
0.0400000004880295
 50
225.0000003959677031
 51
269.9999998609699787
  0
ARC
  5
19C27
  8
0
 10
4531.0530462104843537
 20
458.9502633522881183
 30
0.0
 40
0.0200000000000102
 50
270.0
 51
296.7724972190271728
  0
ARC
  5
19C28
  8
0
 10
4531.8044764509841116
 20
456.9012200451879835
 30
0.0
 40
0.0100000000000025
 50
270.0
 51
0.0000001278784502
  0
LINE
  5
19C2A
  8
0
 10
4528.5809072033007396
 20
460.3180586278879787
 30
0.0
 11
4529.5990534357461001
 21
460.3180586278879787
 31
0.0
  0
ARC
  5
19C2B
  8
0
 10
4528.5809072031133837
 20
460.1999440993590724
 30
0.0
 40
0.1181145285289791
 50
89.9999999086508069
 51
180.0000000913427129
  0
LINE
  5
19C2C
  8
0
 10
4529.1790876832419599
 20
457.0899247695880945
 30
0.0
 11
4528.5535842801273247
 21
457.0899247695880945
 31
0.0
  0
ARC
  5
19C2D
  8
0
 10
4528.4777926745846344
 20
459.0340586278879869
 30
0.0
 40
0.0149999999999988
 50
179.9999999999967031
 51
270.0
  0
LINE
  5
19C2E
  8
0
 10
4529.2698792887840682
 20
459.3928617774881218
 30
0.0
 11
4529.2698792887840682
 21
459.0340586278879869
 31
0.0
  0
LINE
  5
19C2F
  8
0
 10
4528.466690312384344
 20
459.0190586278881142
 30
0.0
 11
4529.2659816509849406
 21
459.0190586278881142
 31
0.0
  0
LINE
  5
19C30
  8
0
 10
4528.466690312384344
 20
459.0190586278881142
 30
0.0
 11
4528.466690312384344
 21
457.1748781307400122
 31
0.0
  0
ARC
  5
19C31
  8
0
 10
4528.4816903131477375
 20
457.1748781307400122
 30
0.0
 40
0.0150000007635987
 50
180.0000005801690008
 51
224.9999983478095942
  0
LINE
  5
19C32
  8
0
 10
4528.4710837105840255
 20
457.164271528788106
 30
0.0
 11
4528.5396648552841725
 21
457.0956903841881172
 31
0.0
  0
ARC
  5
19C33
  8
0
 10
4528.5535842799963575
 20
457.109609808545315
 30
0.0
 40
0.0196850389572186
 50
224.9999992699731024
 51
270.0000003805607776
  0
LINE
  5
19C34
  8
0
 10
4529.2659816509849406
 20
459.0190586278881142
 30
0.0
 11
4529.2659816509849406
 21
457.1748781307400122
 31
0.0
  0
ARC
  5
19C35
  8
0
 10
4529.2509816502197282
 20
457.1748781307400122
 30
0.0
 40
0.0150000007635987
 50
315.0000016521904058
 51
359.9999994198309992
  0
LINE
  5
19C36
  8
0
 10
4529.2615882527852591
 20
457.164271528788106
 30
0.0
 11
4529.1930071080842026
 21
457.0956903841881172
 31
0.0
  0
ARC
  5
19C37
  8
0
 10
4529.1790876833729271
 20
457.1096098085453718
 30
0.0
 40
0.0196850389572343
 50
269.9999996194911773
 51
315.000000730017689
  0
ARC
  5
19C38
  8
0
 10
4529.2548792887837408
 20
459.0340586278879869
 30
0.0
 40
0.0149999999999988
 50
270.0
 51
359.9999999999935199
  0
ARC
  5
19C39
  8
0
 10
4529.3879937797355524
 20
459.3928575227358806
 30
0.0
 40
0.1181144910288809
 50
90.0020639241064231
 51
179.9979360758838141
  0
LINE
  5
19C3A
  8
0
 10
4529.3879895249847323
 20
459.5109720136881037
 30
0.0
 11
4529.5990534381835459
 21
459.5109720136881037
 31
0.0
  0
LINE
  5
19C3B
  8
0
 10
4530.9320778668843559
 20
460.8870515605880769
 30
0.0
 11
4530.9320778668843559
 21
458.9419790809881192
 31
0.0
  0
LINE
  5
19C3C
  8
0
 10
4529.7068258983854321
 20
460.7297995920879998
 30
0.0
 11
4529.7068258983854321
 21
459.0992310494880826
 31
0.0
  0
LINE
  5
19C3D
  8
0
 10
4528.4710837105840255
 20
457.164271528788106
 30
0.0
 11
4529.2615882527852591
 21
457.164271528788106
 31
0.0
  0
ARC
  5
19C3E
  8
0
 10
4530.0149151530531526
 20
459.0058919943580804
 30
0.0
 40
1.1717110765823411
 50
179.3561237462837994
 51
189.5771174342627035
  0
ARC
  5
19C3F
  8
0
 10
4533.3918584502043814
 20
459.548710216370182
 30
0.0
 40
4.6162981259203617
 50
186.5883482798450075
 51
190.2759946567059046
  0
ARC
  5
19C40
  8
0
 10
4531.7407651545227054
 20
459.2293133236879044
 30
0.0
 40
2.9699528963531758
 50
184.0595903219980016
 51
192.6251871200549033
  0
ARC
  5
19C41
  8
0
 10
4534.5663808120270915
 20
459.853309355160718
 30
0.0
 40
5.8846644528415819
 50
188.1501029572804953
 51
193.2019319586532902
  0
ARC
  5
19C42
  8
0
 10
4536.3883397784293265
 20
460.0371360237836029
 30
0.0
 40
7.7404894601566934
 50
187.5577962047725862
 51
192.3471202931511925
  0
ARC
  5
19C43
  8
0
 10
4534.4232018036000227
 20
459.8449029360825762
 30
0.0
 40
5.8053098503054361
 50
188.1784517175738074
 51
195.1275622601247051
  0
ARC
  5
19C44
  8
0
 10
4534.1595089471629763
 20
459.7327178390862059
 30
0.0
 40
5.5554790399717957
 50
187.3806348182638999
 51
196.0532072689912866
  0
ARC
  5
19C45
  8
0
 10
4533.7020747177803059
 20
459.6811605648808268
 30
0.0
 40
5.1267019484063887
 50
187.4203458875061017
 51
197.7751179654609928
  0
ARC
  5
19C46
  8
0
 10
4533.5231999238048957
 20
459.5416897857393792
 30
0.0
 40
4.9509980863180258
 50
186.0594757001537971
 51
198.5322766040669933
  0
ARC
  5
19C47
  8
0
 10
4533.0862228801297533
 20
459.483306238386092
 30
0.0
 40
4.5383214037452753
 50
185.8713425372359893
 51
197.8054352643212042
  0
ARC
  5
19C48
  8
0
 10
4547.9899515343431631
 20
464.2699296272825222
 30
0.0
 40
20.1918478839197597
 50
197.8054352643212042
 51
198.3810430276029138
  0
ARC
  5
19C49
  8
0
 10
4533.2781168874280411
 20
459.4326564909309809
 30
0.0
 40
4.7379112712047924
 50
185.0080324278773958
 51
200.1754588519881963
  0
ARC
  5
19C4A
  8
0
 10
4533.3267851735818113
 20
459.4706498772707732
 30
0.0
 40
4.8130200909206833
 50
185.3838104542871008
 51
200.9351591302269924
  0
ARC
  5
19C4B
  8
0
 10
4532.9039878681296614
 20
459.3111683171891855
 30
0.0
 40
4.3912584660782477
 50
183.8141731862021118
 51
202.1292722204028962
  0
ARC
  5
19C4C
  8
0
 10
4532.7766734735396312
 20
459.2751199967868274
 30
0.0
 40
4.2803866209260368
 50
183.429596880011303
 51
202.9895363290856949
  0
ARC
  5
19C4D
  8
0
 10
4532.2301241760833364
 20
459.1112393897751076
 30
0.0
 40
3.7377482652725349
 50
181.4131781416236038
 51
204.9619610891016066
  0
ARC
  5
19C4E
  8
0
 10
4532.2236388617566263
 20
459.0671934906586102
 30
0.0
 40
3.7434055769801482
 50
180.7367628000164927
 51
205.6348050692405138
  0
ARC
  5
19C4F
  8
0
 10
4532.4587977068331384
 20
459.0564908825118096
 30
0.0
 40
3.9858957710977299
 50
180.5380827440527014
 51
205.3291098762632032
  0
ARC
  5
19C50
  8
0
 10
4532.2620930606008187
 20
458.9393466447003789
 30
0.0
 40
3.791223320846802
 50
178.7952446183637107
 51
206.0887768718311008
  0
ARC
  5
19C51
  8
0
 10
4532.3464720967022004
 20
458.8341398836504936
 30
0.0
 40
3.8811072246783769
 50
181.4974497771632969
 51
195.7622658051475923
  0
ARC
  5
19C52
  8
0
 10
4530.9206698802418032
 20
458.4316925381742749
 30
0.0
 40
2.3995958928465342
 50
195.7622658051475923
 51
210.7351710273605931
  0
ARC
  5
19C53
  8
0
 10
4531.1869273726288156
 20
458.5388227851079819
 30
0.0
 40
2.7121864995920841
 50
179.4895266987203968
 51
209.3846086566416034
  0
ARC
  5
19C54
  8
0
 10
4530.9067045923256956
 20
458.3989315529570945
 30
0.0
 40
2.4401637916511389
 50
179.3657390676424086
 51
209.2118089642711993
  0
ARC
  5
19C55
  8
0
 10
4530.7837587307521972
 20
458.3116831133787059
 30
0.0
 40
2.3184328630003952
 50
181.9658013469588127
 51
208.4265672967873115
  0
ARC
  5
19C56
  8
0
 10
4530.4321461275148977
 20
458.148239874623016
 30
0.0
 40
1.9681907938067811
 50
183.0208649360276922
 51
208.5352957784573107
  0
ARC
  5
19C57
  8
0
 10
4530.31584550093703
 20
458.0887041882214135
 30
0.0
 40
1.8537305639109269
 50
184.0264012938353062
 51
208.3644994845303131
  0
ARC
  5
19C58
  8
0
 10
4530.6066027044662405
 20
457.9829054723937816
 30
0.0
 40
2.1407333016573742
 50
181.5867842744272878
 51
195.1734261464767997
  0
ARC
  5
19C59
  8
0
 10
4529.3984910955541636
 20
457.6965069619207043
 30
0.0
 40
0.9006562537138862
 50
197.7060846002356982
 51
212.8438329351616005
  0
ARC
  5
19C5A
  8
0
 10
4529.3684994656150593
 20
457.6557917542377822
 30
0.0
 40
0.8818331877648438
 50
185.4580725570855009
 51
210.5152888595231104
  0
ARC
  5
19C5B
  8
0
 10
4532.3011273011288722
 20
458.0403056814050728
 30
0.0
 40
3.8391428451312741
 50
182.8371624333607883
 51
187.0077846340537064
  0
ARC
  5
19C5C
  8
0
 10
4530.0149044828922342
 20
457.7200596771991172
 30
0.0
 40
1.547959490945924
 50
176.8783358411884876
 51
194.6971337195925003
  0
ARC
  5
19C5D
  8
0
 10
4528.9965827133919447
 20
457.4529624100609908
 30
0.0
 40
0.4951916265274574
 50
194.6971337195925003
 51
209.6441822783255873
  0
ARC
  5
19C5E
  8
0
 10
4529.7333931923803902
 20
457.6439839837344152
 30
0.0
 40
1.2664917090554719
 50
178.3290452071996128
 51
200.1340723138588942
  0
ARC
  5
19C5F
  8
0
 10
4529.2770304597434006
 20
457.4955633638401764
 30
0.0
 40
0.8128469673873349
 50
184.5009738538952888
 51
200.7156262659686092
  0
ARC
  5
19C60
  8
0
 10
4529.4118757395999637
 20
457.4214730412480776
 30
0.0
 40
0.9447219108512332
 50
179.7248444145147914
 51
193.057382045104589
  0
ARC
  5
19C61
  8
0
 10
4529.3875101444582469
 20
457.3558451802433069
 30
0.0
 40
0.9242541845654749
 50
184.9408187525785081
 51
189.202466767246591
  0
ARC
  5
19C62
  8
0
 10
4554.5506174976771945
 20
458.3253945326815142
 30
0.0
 40
26.1055181248615789
 50
182.3304359946201032
 51
182.4586076268415127
  0
ARC
  5
19C63
  8
0
 10
4528.2054137036639077
 20
458.9808579954174093
 30
0.0
 40
0.6849806747387552
 50
345.3114504355248187
 51
3.1969262726961452
  0
ARC
  5
19C64
  8
0
 10
4527.8480221796025944
 20
459.0906552326483734
 30
0.0
 40
1.082905534191769
 50
340.1139045102659111
 51
356.2091089321928052
  0
ARC
  5
19C65
  8
0
 10
4526.9981555360327548
 20
459.3083329983483054
 30
0.0
 40
1.988393872822505
 50
340.4179382785279131
 51
351.6348423698888155
  0
ARC
  5
19C66
  8
0
 10
4530.8340552060662958
 20
457.9437836424837087
 30
0.0
 40
2.082984422443896
 50
160.4179382785279131
 51
162.258736874002409
  0
ARC
  5
19C67
  8
0
 10
4526.6918723150847654
 20
459.3611226532394198
 30
0.0
 40
2.3206336682869471
 50
338.3775140692466152
 51
351.5236519191012121
  0
ARC
  5
19C68
  8
0
 10
4526.8184789832221213
 20
459.287743613654186
 30
0.0
 40
2.2166443552081421
 50
340.9513803904256974
 51
353.037916971732102
  0
ARC
  5
19C69
  8
0
 10
4526.3922013530509503
 20
459.4349275053220936
 30
0.0
 40
2.6676163232402641
 50
336.6695511465489972
 51
340.9513803904256974
  0
ARC
  5
19C6A
  8
0
 10
4525.419122118640189
 20
459.6357491169126774
 30
0.0
 40
3.6844514096874601
 50
345.4587024406297928
 51
350.3646833411402213
  0
ARC
  5
19C6B
  8
0
 10
4526.1946244220753215
 20
459.5732147177678826
 30
0.0
 40
2.9209953383407021
 50
334.773137207499019
 51
342.8795170981459819
  0
ARC
  5
19C6C
  8
0
 10
4526.1239754924154113
 20
459.4384990184449862
 30
0.0
 40
2.9880723564168332
 50
344.7041169301326136
 51
351.9306522690487213
  0
ARC
  5
19C6D
  8
0
 10
4526.7298507826635614
 20
459.262445824486008
 30
0.0
 40
2.3572370191213272
 50
333.1903457980513963
 51
344.9468062222524054
  0
ARC
  5
19C6E
  8
0
 10
4526.2752357031486099
 20
459.4061970311371965
 30
0.0
 40
2.8651778031536601
 50
333.2073969918980083
 51
352.2345306177791144
  0
ARC
  5
19C6F
  8
0
 10
4526.1491873750319428
 20
459.361428501549085
 30
0.0
 40
3.0029112630693811
 50
335.1402092903257994
 51
353.4533205220544119
  0
ARC
  5
19C70
  8
0
 10
4529.2622116385618938
 20
457.9190652824822791
 30
0.0
 40
0.4280261774922977
 50
155.1402092903257994
 51
173.6427348167875948
  0
ARC
  5
19C71
  8
0
 10
4525.4518200424727183
 20
459.4725026711926716
 30
0.0
 40
3.7363211701736581
 50
335.1698944780192733
 51
353.0293380453827012
  0
ARC
  5
19C72
  8
0
 10
4526.8055402633026461
 20
459.1302982149625223
 30
0.0
 40
2.3709201889570171
 50
343.0660854229570873
 51
357.3107911493075903
  0
ARC
  5
19C73
  8
0
 10
4525.1528818098076954
 20
459.6334829802106015
 30
0.0
 40
4.0984834647554722
 50
336.9178879494842249
 51
343.0660854229570873
  0
ARC
  5
19C74
  8
0
 10
4530.5680947734508663
 20
457.3256968802394908
 30
0.0
 40
1.787976262859134
 50
156.9178879494841965
 51
164.6454497404369874
  0
ARC
  5
19C75
  8
0
 10
4530.6143085523299305
 20
457.1818700926540942
 30
0.0
 40
1.8562233540497319
 50
154.429136548658704
 51
162.2011356600449119
  0
ARC
  5
19C76
  8
0
 10
4526.0272258392924414
 20
459.2407969523966926
 30
0.0
 40
3.1726246436114378
 50
336.6446729858444087
 51
346.3508832121585215
  0
ARC
  5
19C77
  8
0
 10
4525.9411061889941266
 20
459.2617096516488004
 30
0.0
 40
3.2612470739393902
 50
346.3508832121585215
 51
355.732998893071283
  0
ARC
  5
19C78
  8
0
 10
4526.5556300422331333
 20
459.105958622928199
 30
0.0
 40
2.65516528408105
 50
345.7217038652373162
 51
358.1244524224979955
  0
ARC
  5
19C79
  8
0
 10
4527.0849410912105668
 20
458.8312569855754077
 30
0.0
 40
2.0788866230020151
 50
338.4311670504969811
 51
349.463561439726675
  0
ARC
  5
19C7A
  8
0
 10
4524.7480880319853895
 20
459.5175401201468048
 30
0.0
 40
4.50980637749847
 50
335.5975657045402727
 51
341.2380446770263234
  0
ARC
  5
19C7B
  8
0
 10
4525.9197003977142231
 20
459.0795896972446144
 30
0.0
 40
3.2884058061391701
 50
333.3098788340242891
 51
341.3306894104097182
  0
ARC
  5
19C7C
  8
0
 10
4525.4295426141788994
 20
459.2452063832889735
 30
0.0
 40
3.8057872316422929
 50
341.3306894104097182
 51
348.3206465304090784
  0
ARC
  5
19C7D
  8
0
 10
4524.6053918385223369
 20
459.3458464122717828
 30
0.0
 40
4.633750742734617
 50
349.164952736800501
 51
355.9559507535827265
  0
ARC
  5
19C7E
  8
0
 10
4524.8028081790989745
 20
459.220942242265096
 30
0.0
 40
4.4396828619333686
 50
347.4474286368451885
 51
357.3937172007831009
  0
ARC
  5
19C7F
  8
0
 10
4526.5216689184044299
 20
458.838225010555675
 30
0.0
 40
2.6787300742146001
 50
337.2766144284126995
 51
347.4474286368451885
  0
ARC
  5
19C80
  8
0
 10
4526.3578646394244061
 20
458.9068243946471739
 30
0.0
 40
2.8563186924044541
 50
331.2259931674968243
 51
337.2766144284126995
  0
ARC
  5
19C81
  8
0
 10
4531.5438417882369322
 20
456.2991934377840266
 30
0.0
 40
2.9142547913307659
 50
153.3291807118233123
 51
156.7973439866468084
  0
ARC
  5
19C82
  8
0
 10
4526.7518306313304493
 20
458.7062668208222931
 30
0.0
 40
2.448335366349121
 50
333.329180711823426
 51
345.9498219507776184
  0
ARC
  5
19C83
  8
0
 10
4524.768002096850978
 20
459.2027366160289716
 30
0.0
 40
4.4933434132193621
 50
345.9498219507776184
 51
349.8750656297709725
  0
ARC
  5
19C84
  8
0
 10
4524.045006359108811
 20
459.2088561361620123
 30
0.0
 40
5.207563229226805
 50
351.2073024385973099
 51
357.9113061602772063
  0
ARC
  5
19C85
  8
0
 10
4512.6441097834831453
 20
464.2252646333114967
 30
0.0
 40
17.6231251427901583
 50
337.0503057061612253
 51
337.8673242356014157
  0
ARC
  5
19C86
  8
0
 10
4505.4002851705872672
 20
467.1714902114420056
 30
0.0
 40
25.4431788625307185
 50
337.8673242356014157
 51
338.6954605847336097
  0
ARC
  5
19C87
  8
0
 10
4527.0401102356936462
 20
458.6194574072388264
 30
0.0
 40
2.1775471625671372
 50
341.4676605122505748
 51
353.0514956990112978
  0
ARC
  5
19C88
  8
0
 10
4523.3660602990594271
 20
459.1904269444664806
 30
0.0
 40
5.894955331741297
 50
351.8627247423876838
 51
358.3341579042951253
  0
ARC
  5
19C89
  8
0
 10
4524.0081346447259421
 20
459.0503289540042147
 30
0.0
 40
5.2533970739855906
 50
349.8093671856220226
 51
359.6589499023177154
  0
ARC
  5
19C8A
  8
0
 10
4526.1302763277626582
 20
458.7658803532305001
 30
0.0
 40
3.115871143356383
 50
337.610178230238887
 51
348.0530740421547193
  0
ARC
  5
19C8B
  8
0
 10
4646.8311360680509097
 20
404.7618015597482213
 30
0.0
 40
129.116938914847708
 50
155.8538850867687131
 51
156.00286100617069
  0
ARC
  5
19C8C
  8
0
 10
4525.8985327630780375
 20
458.8105050367078093
 30
0.0
 40
3.3812213475686401
 50
331.7101311309223206
 51
345.7884496055989985
  0
ARC
  5
19C8D
  8
0
 10
4526.0534178161660748
 20
458.6844234702384142
 30
0.0
 40
3.2012305117761399
 50
347.2956075108821778
 51
356.1059302635595145
  0
ARC
  5
19C8E
  8
0
 10
4616.215071886147598
 20
454.8418909396000913
 30
0.0
 40
87.0433356272459378
 50
177.3434244250215954
 51
177.6130881688463035
  0
ARC
  5
19C8F
  8
0
 10
4523.7503893041848642
 20
458.8107882136025069
 30
0.0
 40
5.5152823394526456
 50
353.9158513919466031
 51
0.6805419404548017
  0
ARC
  5
19C90
  8
0
 10
4526.496473395486646
 20
458.5180848675078096
 30
0.0
 40
2.7536427747527421
 50
343.9494128184268789
 51
353.9158513919466031
  0
ARC
  5
19C91
  8
0
 10
4526.3340384019020348
 20
458.629319198613814
 30
0.0
 40
2.9411537388803328
 50
331.1027656586097123
 51
342.7417684912620075
  0
ARC
  5
19C92
  8
0
 10
4527.0818341013400641
 20
458.2862614898867832
 30
0.0
 40
2.1620168989407111
 50
330.0850976226478224
 51
348.2111032636108234
  0
ARC
  5
19C93
  8
0
 10
4526.4873741075616635
 20
458.4103304305049846
 30
0.0
 40
2.769286020689202
 50
348.2111032636108234
 51
357.2294234242236257
  0
ARC
  5
19C94
  8
0
 10
4686.1276681841472964
 20
450.6847924992620733
 30
0.0
 40
157.0578312941968875
 50
177.1383639719497864
 51
177.229423424223512
  0
ARC
  5
19C95
  8
0
 10
4521.8678082729811649
 20
458.6446360981555017
 30
0.0
 40
7.3988345228950401
 50
354.7018415242707761
 51
359.0795551662329217
  0
ARC
  5
19C96
  8
0
 10
4527.2554572612752963
 20
458.1905405407391072
 30
0.0
 40
1.9927885087371611
 50
341.9372840995177967
 51
353.3983527127131765
  0
ARC
  5
19C97
  8
0
 10
4527.2522336669780998
 20
458.1915918524691165
 30
0.0
 40
1.9961792043200861
 50
330.48050284732102
 51
341.9372840995177967
  0
ARC
  5
19C98
  8
0
 10
4539.0141610770988336
 20
452.8167481276802846
 30
0.0
 40
10.9097663480647
 50
155.0926655285537947
 51
156.2648332454216984
  0
ARC
  5
19C99
  8
0
 10
4527.0636711209672285
 20
458.1736766905710283
 30
0.0
 40
2.1922299687630562
 50
339.6527093701689068
 51
348.5578423913642041
  0
ARC
  5
19C9A
  8
0
 10
4526.3420794695603036
 20
458.290456940801505
 30
0.0
 40
2.9227878306274899
 50
349.1202457964542987
 51
357.0003951670843207
  0
ARC
  5
19C9B
  8
0
 10
4525.9888148419540812
 20
458.3530968030751183
 30
0.0
 40
3.279142460546761
 50
356.230380391233723
 51
358.0110014511512873
  0
ARC
  5
19C9C
  8
0
 10
4528.0894627562693131
 20
457.8364062673066996
 30
0.0
 40
1.1446266803882099
 50
326.7033172848965137
 51
351.2175936255429747
  0
ARC
  5
19C9D
  8
0
 10
4525.1239342258149918
 20
458.2708336681420747
 30
0.0
 40
4.1417811071431521
 50
351.5419944569749191
 51
359.3695812667914993
  0
ARC
  5
19C9E
  8
0
 10
4527.0160106322391584
 20
458.0128417619170023
 30
0.0
 40
2.250302660589572
 50
344.5196194914609009
 51
359.9282928250228224
  0
ARC
  5
19C9F
  8
0
 10
4528.6171578238327129
 20
457.5693947304064864
 30
0.0
 40
0.5888823047189528
 50
322.1470985441487755
 51
344.5196194914609009
  0
ARC
  5
19CA0
  8
0
 10
4528.2299729384012608
 20
457.6828158366491266
 30
0.0
 40
1.0168696953692511
 50
332.1664832524497228
 51
351.417184634472278
  0
ARC
  5
19CA1
  8
0
 10
4526.6696558924440978
 20
457.9183129379837851
 30
0.0
 40
2.5948583419190112
 50
351.417184634472278
 51
0.0986602183610655
  0
ARC
  5
19CA2
  8
0
 10
4528.5356187286934073
 20
457.558649603695585
 30
0.0
 40
0.7114338138552228
 50
330.4733791321007175
 51
351.8019633988030819
  0
ARC
  5
19CA3
  8
0
 10
4526.2113054841893245
 20
457.8935069562405147
 30
0.0
 40
3.05974416496483
 50
351.8019633988030819
 51
355.4456218088004107
  0
ARC
  5
19CA4
  8
0
 10
4527.6991109477648934
 20
457.7749932299872739
 30
0.0
 40
1.567225957116769
 50
355.4456218088004107
 51
358.780029154248723
  0
ARC
  5
19CA5
  8
0
 10
4528.7144918827179936
 20
457.4836051931611109
 30
0.0
 40
0.5404019077503281
 50
329.3404435191209245
 51
356.6036140917914281
  0
ARC
  5
19CA6
  8
0
 10
4519.0787017399143224
 20
458.0554666637603987
 30
0.0
 40
10.1931464510245302
 50
356.6036140917914281
 51
358.0560040928336889
  0
ARC
  5
19CA7
  8
0
 10
4528.8784419664189045
 20
457.3942175006038724
 30
0.0
 40
0.3772569797814897
 50
330.4279653238226047
 51
352.8009073062842731
  0
ARC
  5
19CA8
  8
0
 10
4525.9427851475484204
 20
457.7650299725170271
 30
0.0
 40
3.3362403943200158
 50
352.8009073062842731
 51
354.9317953736078834
  0
ARC
  5
19CA9
  8
0
 10
4528.4589611258779769
 20
457.4342106881334189
 30
0.0
 40
0.8084424874484859
 50
343.7537346939611211
 51
356.6012377188953906
  0
ARC
  5
19CAA
  8
0
 10
4528.2206481628190886
 20
457.3771517732612892
 30
0.0
 40
1.051052737635525
 50
350.740731226230821
 51
354.0201260986611942
  0
ARC
  5
19CAB
  8
0
 10
4528.5446178192178195
 20
457.2093242178077048
 30
0.0
 40
0.0755829219559036
 50
182.8776788264754032
 51
203.8477665729182036
  0
ARC
  5
19CAC
  8
0
 10
4528.3780468003405986
 20
457.192282725080986
 30
0.0
 40
0.0983742541606827
 50
352.1021883871421778
 51
9.2142348528524902
  0
ARC
  5
19CAD
  8
0
 10
4528.5341710376696938
 20
457.2163176457856935
 30
0.0
 40
0.0433886291383018
 50
191.0048989528594916
 51
242.2140902690019004
  0
ARC
  5
19CAE
  8
0
 10
4528.4862797658161071
 20
457.1956803270899741
 30
0.0
 40
0.0328686658284109
 50
327.3177427503397894
 51
22.0906975546481803
  0
ARC
  5
19CAF
  8
0
 10
4528.6000291689169899
 20
457.2269055388924812
 30
0.0
 40
0.058840204755009
 50
198.7061442766149924
 51
236.848556020321297
  0
ARC
  5
19CB0
  8
0
 10
4528.5414454440742702
 20
457.1914520448199823
 30
0.0
 40
0.0297994747556061
 50
332.3930625974861073
 51
33.8120864343312633
  0
ARC
  5
19CB1
  8
0
 10
4528.6672960712712666
 20
457.2382029869734765
 30
0.0
 40
0.0658167140619922
 50
207.2915087067389948
 51
246.3767384429752099
  0
ARC
  5
19CB2
  8
0
 10
4528.6197855545633502
 20
457.1935997568836001
 30
0.0
 40
0.026328219673243
 50
323.3986134872814091
 51
33.2532437761975928
  0
ARC
  5
19CB3
  8
0
 10
4528.7191279324406423
 20
457.2208851452348881
 30
0.0
 40
0.0367776176868094
 50
200.4497576107899022
 51
251.7703942004654891
  0
ARC
  5
19CB4
  8
0
 10
4528.6740086984327718
 20
457.1904999615575207
 30
0.0
 40
0.0339203350213307
 50
352.2970533037640166
 51
31.1278967187295308
  0
ARC
  5
19CB5
  8
0
 10
4528.8250063470050009
 20
457.2624623633910232
 30
0.0
 40
0.0968769355345831
 50
214.1818809285666987
 51
239.6430082987361061
  0
ARC
  5
19CB6
  8
0
 10
4528.7484659560732325
 20
457.1942491843515199
 30
0.0
 40
0.0315792182119034
 50
330.8518442120039822
 51
25.8839461703760101
  0
ARC
  5
19CB7
  8
0
 10
4528.8859064846719775
 20
457.2479231262536246
 30
0.0
 40
0.0739172468995872
 50
212.6585643854909904
 51
246.0736071465966859
  0
ARC
  5
19CB8
  8
0
 10
4528.8349435524060027
 20
457.1947855271145045
 30
0.0
 40
0.0254661275254057
 50
325.4902785384329036
 51
24.4588792859605206
  0
ARC
  5
19CB9
  8
0
 10
4528.8973329850314258
 20
457.1960678173708175
 30
0.0
 40
0.0245429410587887
 50
150.8187882061118046
 51
220.6727166656953045
  0
ARC
  5
19CBA
  8
0
 10
4528.8624632754126651
 20
457.2280239005579006
 30
0.0
 40
0.0506319281793861
 50
288.7262735900320081
 51
336.7480819835515149
  0
ARC
  5
19CBB
  8
0
 10
4528.9851806526639848
 20
457.1924341656418278
 30
0.0
 40
0.0332665453561994
 50
152.032642142143203
 51
198.4758443439469886
  0
ARC
  5
19CBC
  8
0
 10
4528.944100654020076
 20
457.232274139590686
 30
0.0
 40
0.0512753457410498
 50
280.7090742636270875
 51
331.7887011116725944
  0
ARC
  5
19CBD
  8
0
 10
4529.0731826371338684
 20
457.1910764019473277
 30
0.0
 40
0.0490200251334828
 50
159.759999800983195
 51
188.1218996168628053
  0
ARC
  5
19CBE
  8
0
 10
4528.9707315065052171
 20
457.2544109472332252
 30
0.0
 40
0.0885671809980773
 50
307.5053052606114079
 51
328.4246816572323269
  0
ARC
  5
19CBF
  8
0
 10
4529.0966743581739138
 20
457.199142001220082
 30
0.0
 40
0.0170454788750685
 50
148.5516090697337859
 51
221.5959843524096868
  0
ARC
  5
19CC0
  8
0
 10
4529.0996460689448213
 20
457.2017800370750251
 30
0.0
 40
0.0210191796783344
 50
221.5959843524121027
 51
317.8600927226398767
  0
ARC
  5
19CC1
  8
0
 10
4529.0468018050969476
 20
457.2495953927959249
 30
0.0
 40
0.0922850513447076
 50
317.8600927226398767
 51
333.2341833239194102
  0
ARC
  5
19CC2
  8
0
 10
4529.1996634140041351
 20
457.1801648137030156
 30
0.0
 40
0.0529376198656338
 50
148.2323704215127123
 51
167.2337389159831957
  0
ARC
  5
19CC3
  8
0
 10
4529.1573061436010903
 20
457.1897619231845056
 30
0.0
 40
0.0095067222648263
 50
167.2337389159800125
 51
293.8318306016033148
  0
ARC
  5
19CC4
  8
0
 10
4529.0101570646456821
 20
457.3026177873881011
 30
0.0
 40
0.1938374584080864
 50
321.1648288011638215
 51
330.7941007359647188
  0
ARC
  5
19CC5
  8
0
 10
4529.2324402368767551
 20
457.1945887379907276
 30
0.0
 40
0.0291683020938176
 50
152.5499292037679027
 51
211.0458539600730035
  0
ARC
  5
19CC6
  8
0
 10
4529.1833025366941001
 20
457.230682083183126
 30
0.0
 40
0.0565509659659776
 50
295.2777190369841946
 51
336.3929867363527251
  0
ARC
  5
19CC7
  8
0
 10
4529.3316399070263287
 20
457.1918772427894169
 30
0.0
 40
0.07538580248741
 50
167.6234958144158895
 51
189.9087933965294894
  0
ARC
  5
19CC8
  8
0
 10
4529.0090063221114178
 20
457.2493544332155011
 30
0.0
 40
0.2581703982975912
 50
344.1642697903052976
 51
350.7904597044804973
  0
ARC
  5
19CC9
  8
0
 10
4529.9873797285617911
 20
457.1425818202362734
 30
0.0
 40
0.7264854883457217
 50
173.2153675444018006
 51
174.830858022487206
  0
ARC
  5
19CCA
  8
0
 10
4528.8652137210201545
 20
458.8122951016712818
 30
0.0
 40
0.0058364354346171
 50
193.3384246642264088
 51
298.6063806659826128
  0
ARC
  5
19CCB
  8
0
 10
4528.8587007271116818
 20
458.7279073925460011
 30
0.0
 40
0.0094862665829847
 50
196.5268139821079103
 51
323.7902831205087182
  0
ARC
  5
19CCC
  8
0
 10
4528.8467643573076202
 20
458.5810886032382996
 30
0.0
 40
0.0042428807825656
 50
192.5855527318134932
 51
322.551514816277404
  0
ARC
  5
19CCD
  8
0
 10
4528.8445268183349981
 20
458.5123179250526277
 30
0.0
 40
0.0078679458162515
 50
202.1777355311467943
 51
306.5058722808695961
  0
ARC
  5
19CCE
  8
0
 10
4528.8348818988833955
 20
458.3826966219943984
 30
0.0
 40
0.0080285237607944
 50
185.2827132578842964
 51
328.1666312709332942
  0
ARC
  5
19CCF
  8
0
 10
4528.8284210944530059
 20
458.3332081238924047
 30
0.0
 40
0.0099272171502189
 50
199.4807972057867005
 51
330.2121050799187856
  0
ARC
  5
19CD0
  8
0
 10
4528.8263070387502012
 20
458.2019523007086832
 30
0.0
 40
0.0078733749854541
 50
224.2153157576003082
 51
340.0513867671404
  0
ARC
  5
19CD1
  8
0
 10
4528.8265870000950599
 20
458.1164913386166972
 30
0.0
 40
0.0064896067585201
 50
183.7065516648951018
 51
343.8192293975588996
  0
ARC
  5
19CD2
  8
0
 10
4528.8331781392889752
 20
457.9687370011773169
 30
0.0
 40
0.0042931650417566
 50
188.9330655041709122
 51
327.963175210921122
  0
ARC
  5
19CD3
  8
0
 10
4528.8352978214743416
 20
457.9071243167256853
 30
0.0
 40
0.0082759647639873
 50
212.0565414561309012
 51
334.1282398269481178
  0
ARC
  5
19CD4
  8
0
 10
4528.8373318743360869
 20
457.8010876373639917
 30
0.0
 40
0.0068889267453666
 50
201.4453457128788045
 51
343.5546830761364845
  0
ARC
  5
19CD5
  8
0
 10
4528.839833694067238
 20
457.755961426119427
 30
0.0
 40
0.0097527897984195
 50
211.2365699037817137
 51
316.7084108060411722
  0
ARC
  5
19CD6
  8
0
 10
4528.8464283678049469
 20
457.6614774373011869
 30
0.0
 40
0.0111634132840936
 50
203.6911640772613055
 51
320.2868523209157274
  0
ARC
  5
19CD7
  8
0
 10
4528.8472210877271209
 20
457.6091873113082897
 30
0.0
 40
0.012421710142054
 50
207.9810693053601085
 51
327.7179984512209785
  0
ARC
  5
19CD8
  8
0
 10
4528.8520944690681063
 20
457.5389026251975793
 30
0.0
 40
0.011715142291219
 50
205.5599140289074001
 51
323.4016919563690067
  0
ARC
  5
19CD9
  8
0
 10
4528.8570891755052799
 20
457.4524200211209859
 30
0.0
 40
0.0096426741503823
 50
209.5061678559451934
 51
328.3812159532694182
  0
ARC
  5
19CDA
  8
0
 10
4528.8637643305310121
 20
457.3554632152594763
 30
0.0
 40
0.0087563059154628
 50
208.7139890375316895
 51
347.7597685962696801
  0
ARC
  5
19CDB
  8
0
 10
4528.8656175060095848
 20
457.2772739909536881
 30
0.0
 40
0.0099257494096532
 50
211.3773087711126095
 51
331.2635210039911726
  0
ENDSEC
  0
EOF
