  0
SECTION
  2
HEADER
  9
$ACADVER
  1
AC1009
  9
$INSBASE
 10
4467.8984833573013
 20
464.1447928688097
 30
0.0
  9
$EXTMIN
 10
4466.5864872943021
 20
455.1908485156892
 30
0.0
  9
$EXTMAX
 10
4469.2104794203024
 20
464.14912712001421
 30
0.0
  9
$LIMMIN
 10
0.0
 20
0.0
  9
$LIMMAX
 10
11.692913385800001
 20
8.2677165353999982
  9
$ORTHOMODE
 70
     0
  9
$REGENMODE
 70
     1
  9
$FILLMODE
 70
     1
  9
$QTEXTMODE
 70
     0
  9
$MIRRTEXT
 70
     0
  9
$DRAGMODE
 70
     2
  9
$LTSCALE
 40
0.6431102362
  9
$OSMODE
 70
    19
  9
$ATTMODE
 70
     1
  9
$TEXTSIZE
 40
0.2
  9
$TRACEWID
 40
0.05
  9
$TEXTSTYLE
  7
STANDARD
  9
$CLAYER
  8
0
  9
$CELTYPE
  6
BYLAYER
  9
$CECOLOR
 62
   256
  9
$DIMSCALE
 40
1.0
  9
$DIMASZ
 40
0.1875
  9
$DIMEXO
 40
0.0625
  9
$DIMDLI
 40
0.4443307087
  9
$DIMRND
 40
0.0
  9
$DIMDLE
 40
0.0
  9
$DIMEXE
 40
0.125
  9
$DIMTP
 40
0.01
  9
$DIMTM
 40
0.01
  9
$DIMTXT
 40
2.0
  9
$DIMCEN
 40
0.1052362205
  9
$DIMTSZ
 40
0.0
  9
$DIMTOL
 70
     1
  9
$DIMLIM
 70
     0
  9
$DIMTIH
 70
     1
  9
$DIMTOH
 70
     1
  9
$DIMSE1
 70
     0
  9
$DIMSE2
 70
     0
  9
$DIMTAD
 70
     0
  9
$DIMZIN
 70
     0
  9
$DIMBLK
  1

  9
$DIMASO
 70
     1
  9
$DIMSHO
 70
     1
  9
$DIMPOST
  1
\X
  9
$DIMAPOST
  1

  9
$DIMALT
 70
     1
  9
$DIMALTD
 70
     2
  9
$DIMALTF
 40
25.399999999999999
  9
$DIMLFAC
 40
1.0
  9
$DIMTOFL
 70
     0
  9
$DIMTVP
 40
0.0
  9
$DIMTIX
 70
     0
  9
$DIMSOXD
 70
     0
  9
$DIMSAH
 70
     0
  9
$DIMBLK1
  1

  9
$DIMBLK2
  1

  9
$DIMSTYLE
  2
STANDARD
  9
$DIMCLRD
 70
     0
  9
$DIMCLRE
 70
     0
  9
$DIMCLRT
 70
     0
  9
$DIMTFAC
 40
1.0
  9
$DIMGAP
 40
0.09
  9
$LUNITS
 70
     2
  9
$LUPREC
 70
     4
  9
$SKETCHINC
 40
0.1
  9
$FILLETRAD
 40
0.0
  9
$AUNITS
 70
     0
  9
$AUPREC
 70
     0
  9
$MENU
  1
.
  9
$ELEVATION
 40
0.0
  9
$PELEVATION
 40
0.0
  9
$THICKNESS
 40
0.0
  9
$LIMCHECK
 70
     0
  9
$BLIPMODE
 70
     0
  9
$CHAMFERA
 40
0.0
  9
$CHAMFERB
 40
0.0
  9
$SKPOLY
 70
     0
  9
$TDCREATE
 40
2458060.4683680669
  9
$TDUPDATE
 40
2459299.9486878589
  9
$TDINDWG
 40
1.4595748610999999
  9
$TDUSRTIMER
 40
1.4595748610999999
  9
$USRTIMER
 70
     1
  9
$ANGBASE
 50
0.0
  9
$ANGDIR
 70
     0
  9
$PDMODE
 70
     0
  9
$PDSIZE
 40
0.3125
  9
$PLINEWID
 40
0.0
  9
$COORDS
 70
     1
  9
$SPLFRAME
 70
     0
  9
$SPLINETYPE
 70
     6
  9
$SPLINESEGS
 70
     8
  9
$ATTDIA
 70
     1
  9
$ATTREQ
 70
     1
  9
$HANDLING
 70
     1
  9
$HANDSEED
  5
1AAC3
  9
$SURFTAB1
 70
     6
  9
$SURFTAB2
 70
     6
  9
$SURFTYPE
 70
     6
  9
$SURFU
 70
     6
  9
$SURFV
 70
     6
  9
$UCSNAME
  2

  9
$UCSORG
 10
0.0
 20
0.0
 30
0.0
  9
$UCSXDIR
 10
1.0
 20
0.0
 30
0.0
  9
$UCSYDIR
 10
0.0
 20
1.0
 30
0.0
  9
$PUCSNAME
  2

  9
$PUCSORG
 10
0.0
 20
0.0
 30
0.0
  9
$PUCSXDIR
 10
1.0
 20
0.0
 30
0.0
  9
$PUCSYDIR
 10
0.0
 20
1.0
 30
0.0
  9
$USERI1
 70
     0
  9
$USERI2
 70
     0
  9
$USERI3
 70
     0
  9
$USERI4
 70
     0
  9
$USERI5
 70
     0
  9
$USERR1
 40
0.0
  9
$USERR2
 40
0.0
  9
$USERR3
 40
0.0
  9
$USERR4
 40
0.0
  9
$USERR5
 40
0.0
  9
$WORLDVIEW
 70
     1
  9
$SHADEDGE
 70
     3
  9
$SHADEDIF
 70
    70
  9
$TILEMODE
 70
     1
  9
$MAXACTVP
 70
    64
  9
$PLIMCHECK
 70
     0
  9
$PEXTMIN
 10
1.0000000000000000E+020
 20
1.0000000000000000E+020
 30
1.0000000000000000E+020
  9
$PEXTMAX
 10
-1.0000000000000000E+020
 20
-1.0000000000000000E+020
 30
-1.0000000000000000E+020
  9
$PLIMMIN
 10
0.0
 20
0.0
  9
$PLIMMAX
 10
12.0
 20
9.0
  9
$UNITMODE
 70
     0
  9
$VISRETAIN
 70
     1
  9
$PLINEGEN
 70
     0
  9
$PSLTSCALE
 70
     1
  0
ENDSEC
  0
SECTION
  2
TABLES
  0
TABLE
  2
VPORT
 70
     1
  0
VPORT
  2
*ACTIVE
 70
     0
 10
0.0
 20
0.0
 11
1.0
 21
1.0
 12
556.53312691198926
 22
327.09038271531273
 13
0.0
 23
0.0
 14
1.0
 24
1.0
 15
0.0
 25
0.0
 16
0.0
 26
0.0
 36
60.496018696580158
 17
3911.365356445312
 27
132.57960510253901
 37
0.0
 40
9.0604626865483269
 41
2.3628472222222219
 42
50.0
 43
0.0
 44
0.0
 50
0.0
 51
0.0
 71
     0
 72
   100
 73
     1
 74
     1
 75
     0
 76
     0
 77
     0
 78
     0
  0
ENDTAB
  0
TABLE
  2
LTYPE
 70
     2
  0
LTYPE
  2
CONTINUOUS
 70
     0
  3
Solid line
 72
    65
 73
     0
 40
0.0
  0
LTYPE
  2
PHANTOM2
 70
     0
  3
___ _ _ ___ _ _ ___ _ _ ___ _ _
 72
    65
 73
     6
 40
1.25
 49
0.625
 49
-0.125
 49
0.125
 49
-0.125
 49
0.125
 49
-0.125
  0
ENDTAB
  0
TABLE
  2
LAYER
 70
     2
  0
LAYER
  2
0
 70
     0
 62
   255
  6
CONTINUOUS
  0
LAYER
  2
DEFPOINTS
 70
     0
 62
     7
  6
CONTINUOUS
  0
ENDTAB
  0
TABLE
  2
STYLE
 70
     1
  0
STYLE
  2
STANDARD
 70
     0
 40
0.0
 41
0.8
 50
0.0
 71
     0
 42
0.2
  3
txt
  4

  0
ENDTAB
  0
TABLE
  2
VIEW
 70
     0
  0
ENDTAB
  0
TABLE
  2
UCS
 70
     0
  0
ENDTAB
  0
TABLE
  2
APPID
 70
    11
  0
APPID
  2
ACAD
 70
     0
  0
APPID
  2
ACAD_MLEADERVER
 70
     0
  0
APPID
  2
ACAD_EXEMPT_FROM_CAD_STANDARDS
 70
     0
  0
APPID
  2
ACAD_NAV_VCDISPLAY
 70
     0
  0
APPID
  2
ACAECLAYERSTANDARD
 70
     0
  0
APPID
  2
ACCMTRANSPARENCY
 70
     0
  0
APPID
  2
ACAD_DSTYLE_DIMJAG
 70
     0
  0
APPID
  2
ACAD_DSTYLE_DIMTALN
 70
     0
  0
APPID
  2
ACDBATTR
 70
     0
  0
APPID
  2
ACADANNOTATIVE
 70
     0
  0
APPID
  2
DCO15
 70
     0
  0
ENDTAB
  0
TABLE
  2
DIMSTYLE
 70
     1
  0
DIMSTYLE
  2
STANDARD
 70
     0
  3

  4

  5

  6

  7

 40
1.0
 41
0.1875
 42
0.0625
 43
0.38
 44
0.125
 45
0.0
 46
0.0
 47
0.01
 48
0.01
140
0.15625
141
0.09
142
0.0
143
25.399999999999999
144
1.0
145
0.0
146
1.0
147
0.09
 71
     1
 72
     0
 73
     1
 74
     1
 75
     0
 76
     0
 77
     0
 78
     4
170
     0
171
     2
172
     0
173
     0
174
     0
175
     0
176
     0
177
     0
178
     0
  0
ENDTAB
  0
ENDSEC
  0
SECTION
  2
BLOCKS
  0
BLOCK
  8
0
  2
$MODEL_SPACE
 70
     0
 10
0.0
 20
0.0
 30
0.0
  3
$MODEL_SPACE
  1

  0
ENDBLK
  5
21
  8
0
  0
BLOCK
 67
     1
  8
0
  2
$PAPER_SPACE
 70
     0
 10
0.0
 20
0.0
 30
0.0
  3
$PAPER_SPACE
  1

  0
ENDBLK
  5
1D
 67
     1
  8
0
  0
ENDSEC
  0
SECTION
  2
ENTITIES
  0
ATTDEF
  5
159BF
  8
DEFPOINTS
 10
4467.8984831007119
 20
464.14812712001418
 30
0.0
 40
0.001
  1
P24914-SNW
  3

  2
MODELNUMBER
 70
     0
1001
ACDBATTR
1070
     0
1070
     1
  0
ATTDEF
  5
159C0
  8
DEFPOINTS
 10
4467.8984831007119
 20
464.14646027963499
 30
0.0
 40
0.001
  1
PINNA PALETTA
  3

  2
TRADENAME
 70
     0
1001
ACDBATTR
1070
     0
1070
     1
  0
ATTDEF
  5
159C1
  8
DEFPOINTS
 10
4467.8984831007119
 20
464.14479378668091
 30
0.0
 40
0.001
  1
BATH SPOUT
  3

  2
PRODUCT
 70
     0
1001
ACDBATTR
1070
     0
1070
     1
  0
LINE
  5
1A8E5
  8
0
 10
4466.7046113098322
 20
464.1447928688097
 30
0.0
 11
4469.0923554047713
 21
464.1447928688097
 31
0.0
  0
LINE
  5
1A8E6
  8
0
 10
4466.6091250894333
 20
464.11454877440963
 30
0.0
 11
4469.1878416251711
 21
464.11454877440963
 31
0.0
  0
LINE
  5
1A8E7
  8
0
 10
4466.719753070377
 20
463.66939916810969
 30
0.0
 11
4469.0772136442247
 21
463.66939916810969
 31
0.0
  0
LINE
  5
1A8E8
  8
0
 10
4466.9927500029817
 20
463.44302121530961
 30
0.0
 11
4468.80421671162
 21
463.44302121530961
 31
0.0
  0
LINE
  5
1A8E9
  8
0
 10
4466.5864872943021
 20
464.09191097927987
 30
0.0
 11
4466.5864872943021
 21
463.79270068062368
 31
0.0
  0
LINE
  5
1A8EA
  8
0
 10
4467.2749105226021
 20
463.44302121530961
 30
0.0
 11
4467.2749105226021
 21
455.73349525815451
 31
0.0
  0
ARC
  5
1A8EB
  8
0
 10
4467.8984833573013
 20
455.88870424261421
 30
0.0
 40
0.6978557269250477
 50
236.26569442397621
 51
303.73430557602381
  0
ARC
  5
1A8EC
  8
0
 10
4467.7504322181949
 20
455.73452753934021
 30
0.0
 40
0.4755228160500952
 50
180.1243797346078
 51
189.13907236735039
  0
ARC
  5
1A8ED
  8
0
 10
4467.7714124554886
 20
455.73838614786268
 30
0.0
 40
0.4968498218081566
 50
189.1941144044095
 51
201.2106425563197
  0
ARC
  5
1A8EE
  8
0
 10
4467.774497650702
 20
455.73958347555259
 30
0.0
 40
0.5001592059057564
 50
201.21064255631671
 51
216.9154107259063
  0
ARC
  5
1A8EF
  8
0
 10
4467.8437060363394
 20
455.79157571584233
 30
0.0
 40
0.5867212858995411
 50
216.9154107259063
 51
235.4467794579644
  0
ARC
  5
1A8F0
  8
0
 10
4467.898506112384
 20
456.24632280704969
 30
0.0
 40
0.7102333228988919
 50
250.0285650845301
 51
252.55602596104509
  0
ARC
  5
1A8F1
  8
0
 10
4467.898506112384
 20
456.24632280704969
 30
0.0
 40
0.7102333228988919
 50
256.27757859412509
 51
259.11100433925662
  0
ARC
  5
1A8F2
  8
0
 10
4467.898506112384
 20
456.24632280704969
 30
0.0
 40
0.7102333228988919
 50
262.11197686898868
 51
264.54609064079227
  0
ARC
  5
1A8F3
  8
0
 10
4467.8508310338793
 20
456.14340631939808
 30
0.0
 40
0.5968506380670237
 50
214.86136233610841
 51
217.2522473977869
  0
ARC
  5
1A8F4
  8
0
 10
4467.8508310338793
 20
456.14340631939808
 30
0.0
 40
0.5968506380670237
 50
220.83174439521829
 51
224.89155874478149
  0
ARC
  5
1A8F5
  8
0
 10
4467.8508310338793
 20
456.14340631939808
 30
0.0
 40
0.5968506380670237
 50
228.96875159611571
 51
232.7487224965615
  0
ARC
  5
1A8F6
  8
0
 10
4467.8508310338793
 20
456.14340631939808
 30
0.0
 40
0.5968506380670237
 50
236.26358768961299
 51
239.83957627348161
  0
ARC
  5
1A8F7
  8
0
 10
4467.850831976647
 20
456.143408266677
 30
0.0
 40
0.5968528013057725
 50
243.2864756368019
 51
246.8055630089126
  0
ARC
  5
1A8F8
  8
0
 10
4467.5613625401329
 20
456.00246999100227
 30
0.0
 40
0.2725985048130882
 50
199.01803114319361
 51
205.21327394521151
  0
ARC
  5
1A8F9
  8
0
 10
4467.7509619189186
 20
456.07383673504938
 30
0.0
 40
0.4751388178141857
 50
207.3691597507021
 51
210.58018258840241
  0
ARC
  5
1A8FA
  8
0
 10
4467.7878731167793
 20
456.08417226494379
 30
0.0
 40
0.5134697414342443
 50
182.54673053188279
 51
183.8712769230228
  0
ARC
  5
1A8FB
  8
0
 10
4467.7878731508472
 20
456.08417227020863
 30
0.0
 40
0.5134697759024614
 50
185.86913115195759
 51
189.7563825000295
  0
ARC
  5
1A8FC
  8
0
 10
4467.7878731167793
 20
456.08417226494379
 30
0.0
 40
0.5134697414342443
 50
192.87698884076519
 51
195.64281429436869
  0
ARC
  5
1A8FD
  8
0
 10
4467.7525291109969
 20
456.08781155755241
 30
0.0
 40
0.4776186081341302
 50
180.0166789922595
 51
201.24975297989781
  0
ARC
  5
1A8FE
  8
0
 10
4467.7936427196764
 20
456.10379956149842
 30
0.0
 40
0.5217314757438682
 50
201.24975297989781
 51
221.70374088783581
  0
ARC
  5
1A8FF
  8
0
 10
4467.8539498596156
 20
456.15753832679542
 30
0.0
 40
0.6025077471580187
 50
221.70374088783581
 51
240.4140780360519
  0
ARC
  5
1A900
  8
0
 10
4467.8984830323898
 20
456.24577880222392
 30
0.0
 40
0.7012470871143397
 50
240.80953934418449
 51
299.18997709312788
  0
ARC
  5
1A901
  8
0
 10
4467.8103105129921
 20
455.54186272949312
 30
0.0
 40
0.047908651739955
 50
354.46975780332968
 51
4.689259534523698
  0
ARC
  5
1A902
  8
0
 10
4467.7208681083057
 20
455.42035122369708
 30
0.0
 40
0.1801899799099047
 50
35.108446223818433
 51
40.445854516043653
  0
ARC
  5
1A903
  8
0
 10
4467.9156720100991
 20
455.55730460486268
 30
0.0
 40
0.0579376933379167
 50
215.10844622381839
 51
252.74200789473781
  0
ARC
  5
1A904
  8
0
 10
4473.0891056136934
 20
459.95239365534047
 30
0.0
 40
6.8646484120013049
 50
220.00672620728261
 51
220.87508533335091
  0
ARC
  5
1A905
  8
0
 10
4467.8793178240803
 20
455.53423691633151
 30
0.0
 40
0.0485808842014466
 50
163.94630503243309
 51
174.0588089370483
  0
ARC
  5
1A906
  8
0
 10
4467.7668799125968
 20
455.5500574323097
 30
0.0
 40
0.0349160928115677
 50
348.0194948251945
 51
1.927761542798466
  0
ARC
  5
1A907
  8
0
 10
4471.0006810835303
 20
458.09899512960521
 30
0.0
 40
4.0953408342476063
 50
218.62123360080051
 51
220.75619560042799
  0
ARC
  5
1A908
  8
0
 10
4467.8984833573013
 20
455.33160480808613
 30
0.0
 40
0.0283554079762813
 50
224.2873109149422
 51
315.71268908501912
  0
ARC
  5
1A909
  8
0
 10
4467.799698240502
 20
455.54083135320968
 30
0.0
 40
0.0362638952999521
 50
153.64566477340591
 51
167.18110507399061
  0
ARC
  5
1A90A
  8
0
 10
4467.7027908310311
 20
455.56610212994792
 30
0.0
 40
0.0289241906104917
 50
340.3214658970889
 51
357.1405464972774
  0
ARC
  5
1A90B
  8
0
 10
4467.7146187815424
 20
455.55746138717609
 30
0.0
 40
0.0311406773963607
 50
142.78362062670129
 51
158.7405620342964
  0
ARC
  5
1A90C
  8
0
 10
4467.6280778221253
 20
455.5933911536427
 30
0.0
 40
0.031437749158229
 50
332.34775618009343
 51
347.82617942922388
  0
ARC
  5
1A90D
  8
0
 10
4467.6458367328141
 20
455.57832710999179
 30
0.0
 40
0.0342909688683784
 50
136.7418505151997
 51
151.2952390371934
  0
ARC
  5
1A90E
  8
0
 10
4467.5509961238749
 20
455.63328174052458
 30
0.0
 40
0.0390422143395944
 50
323.86758650440919
 51
336.35803811282318
  0
ARC
  5
1A90F
  8
0
 10
4467.5852288174019
 20
455.60258366180972
 30
0.0
 40
0.0422853404999465
 50
132.84363862141669
 51
144.13765976629909
  0
ARC
  5
1A910
  8
0
 10
4467.4905232174306
 20
455.67437437005088
 30
0.0
 40
0.0397136401916363
 50
316.55412151491691
 51
327.93361563597711
  0
ARC
  5
1A911
  8
0
 10
4467.5208119533017
 20
455.63864455900972
 30
0.0
 40
0.0431036499000134
 50
126.2713723174834
 51
136.4909872930522
  0
ARC
  5
1A912
  8
0
 10
4467.4363143441969
 20
455.72075165741069
 30
0.0
 40
0.0357220239143463
 50
309.4580806520284
 51
320.88389521462329
  0
ARC
  5
1A913
  8
0
 10
4467.4520035191817
 20
455.69157573617281
 30
0.0
 40
0.0388882592555687
 50
118.1842109741728
 51
128.1228130498142
  0
ARC
  5
1A914
  8
0
 10
4467.3767155298583
 20
455.7893796155405
 30
0.0
 40
0.0426478432738539
 50
301.87137824137631
 51
309.98545460016629
  0
ARC
  5
1A915
  8
0
 10
4467.3988828238007
 20
455.7427969920094
 30
0.0
 40
0.0456201114003453
 50
113.2618507614548
 51
120.4678870770027
  0
ARC
  5
1A916
  8
0
 10
4467.3409975677432
 20
455.84418646380658
 30
0.0
 40
0.0465017001200018
 50
295.60328279636502
 51
302.48804091169228
  0
ARC
  5
1A917
  8
0
 10
4467.3627596298011
 20
455.7880967930102
 30
0.0
 40
0.0487060018994643
 50
108.9026837261947
 51
115.3499734797587
  0
ARC
  5
1A918
  8
0
 10
4467.3125377074011
 20
455.90212108600991
 30
0.0
 40
0.0495346669003093
 50
289.42150219804569
 51
295.38972084626698
  0
ARC
  5
1A919
  8
0
 10
4467.3316881521114
 20
455.83790534475918
 30
0.0
 40
0.0513216692522517
 50
104.5204781830315
 51
109.28896049161921
  0
ARC
  5
1A91A
  8
0
 10
4467.291503585001
 20
455.96329540200941
 30
0.0
 40
0.0511183720996909
 50
283.73826696336408
 51
288.09906260017908
  0
ARC
  5
1A91B
  8
0
 10
4467.305583332668
 20
455.89478643798299
 30
0.0
 40
0.0523659441416895
 50
100.15990536963039
 51
103.4292818274963
  0
ARC
  5
1A91C
  8
0
 10
4467.2776957292008
 20
456.03115809620903
 30
0.0
 40
0.0621659877993241
 50
278.90306640663681
 51
281.06867198732328
  0
ARC
  5
1A91D
  8
0
 10
4467.2907920776006
 20
455.93516257011993
 30
0.0
 40
0.0626419449895986
 50
96.639877720477614
 51
98.225812953174056
  0
ARC
  5
1A91E
  8
0
 10
4467.2731746559566
 20
456.10300035690381
 30
0.0
 40
0.0714414097760971
 50
273.14564799553239
 51
274.04460813735278
  0
ARC
  5
1A91F
  8
0
 10
4467.2788238390985
 20
455.98567171226142
 30
0.0
 40
0.0705942444482304
 50
92.327219277678665
 51
92.968943021447188
  0
ARC
  5
1A920
  8
0
 10
4454.8544533347167
 20
444.95279754977241
 30
0.0
 40
16.701557746849499
 50
38.701494491182707
 51
39.378211388622582
  0
ARC
  5
1A921
  8
0
 10
4472.5859966778899
 20
459.3004414327325
 30
0.0
 40
6.131768379419114
 50
217.6331536165228
 51
220.0405560772837
  0
ARC
  5
1A922
  8
0
 10
4469.2313523273897
 20
456.52668368228052
 30
0.0
 40
1.8185132262005439
 50
211.78720614463279
 51
221.91760737648741
  0
ARC
  5
1A923
  8
0
 10
4469.4342264256929
 20
456.65411271676771
 30
0.0
 40
2.0781367949116438
 50
211.16071502158431
 51
221.70151458032379
  0
ARC
  5
1A924
  8
0
 10
4469.4514131510641
 20
456.65868776665349
 30
0.0
 40
2.121670690305046
 50
210.09532411014479
 51
222.5835643806212
  0
ARC
  5
1A925
  8
0
 10
4471.057678003609
 20
457.74931326833507
 30
0.0
 40
4.0807118452787501
 50
211.61347585549319
 51
218.50514613074421
  0
ARC
  5
1A926
  8
0
 10
4469.7527116084257
 20
456.80038775935219
 30
0.0
 40
2.4947374625749421
 50
208.04743867585049
 51
219.5693226433724
  0
ARC
  5
1A927
  8
0
 10
4469.2827034392321
 20
456.45941771057471
 30
0.0
 40
1.941471319411602
 50
204.7349650766061
 51
219.8302675501437
  0
ARC
  5
1A928
  8
0
 10
4469.3610595555328
 20
456.47697358752248
 30
0.0
 40
2.0387415874362471
 50
203.3685119022152
 51
217.97027085551539
  0
ARC
  5
1A929
  8
0
 10
4469.1334169914253
 20
456.33210896704668
 30
0.0
 40
1.792166221235667
 50
200.8864531037774
 51
217.9259881112983
  0
ARC
  5
1A92A
  8
0
 10
4469.1813915106213
 20
456.33342530237451
 30
0.0
 40
1.856887405716213
 50
199.219221311447
 51
215.97773700713421
  0
ARC
  5
1A92B
  8
0
 10
4468.9247177016987
 20
456.20575552937981
 30
0.0
 40
1.591207477868624
 50
196.52503671927909
 51
216.9736156672665
  0
ARC
  5
1A92C
  8
0
 10
4468.7822251747466
 20
456.12954136248698
 30
0.0
 40
1.4487488271776381
 50
193.87529918186951
 51
216.64541885788449
  0
ARC
  5
1A92D
  8
0
 10
4468.7526453480577
 20
456.1023047601779
 30
0.0
 40
1.4235347311641411
 50
192.16811720507741
 51
215.4125171504337
  0
ARC
  5
1A92E
  8
0
 10
4468.7108629083796
 20
456.08227487979872
 30
0.0
 40
1.391626071762901
 50
190.35591930599381
 51
215.38888345271079
  0
ARC
  5
1A92F
  8
0
 10
4468.7856148516203
 20
456.08943719185208
 30
0.0
 40
1.475287238413044
 50
189.1276739280591
 51
211.8636839664596
  0
ARC
  5
1A930
  8
0
 10
4468.759169373805
 20
456.07133089450173
 30
0.0
 40
1.456231520185755
 50
187.2979910395797
 51
211.4387784070974
  0
ARC
  5
1A931
  8
0
 10
4468.7127620836363
 20
456.0361613837602
 30
0.0
 40
1.414435118847414
 50
184.9693309676733
 51
208.95036123663971
  0
ARC
  5
1A932
  8
0
 10
4468.6854500321906
 20
456.02210150250698
 30
0.0
 40
1.3941223753578831
 50
183.14068426194399
 51
208.6662363154467
  0
ARC
  5
1A933
  8
0
 10
4468.7900455553709
 20
456.0244827589807
 30
0.0
 40
1.5037255534693339
 50
182.08625744286661
 51
204.57804408749101
  0
ARC
  5
1A934
  8
0
 10
4468.7409643026222
 20
456.00156801208232
 30
0.0
 40
1.45914136901022
 50
180.1730868540823
 51
204.1612196961398
  0
ARC
  5
1A935
  8
0
 10
4469.7292161714258
 20
456.09051151939133
 30
0.0
 40
2.4528271811978168
 50
181.37469513500639
 51
189.63038919383899
  0
ARC
  5
1A936
  8
0
 10
4468.3422488163251
 20
455.8551668023336
 30
0.0
 40
1.0460345241352631
 50
189.63038919383899
 51
202.9749035239488
  0
ARC
  5
1A937
  8
0
 10
4467.4843812982326
 20
455.51749173271918
 30
0.0
 40
0.1320733958650678
 50
197.27747203120259
 51
211.64746335230149
  0
ARC
  5
1A938
  8
0
 10
4468.3686495727507
 20
455.85662242614382
 30
0.0
 40
1.0789002674730259
 50
189.33541055380351
 51
200.5293477400416
  0
ARC
  5
1A939
  8
0
 10
4469.6750382287919
 20
456.05010038419141
 30
0.0
 40
2.3994633178496092
 50
180.01421004800599
 51
188.83398581509351
  0
ARC
  5
1A93A
  8
0
 10
4465.0970678770946
 20
454.83354489549021
 30
0.0
 40
2.3421488591262141
 50
16.606943565958531
 51
17.494078960560369
  0
ARC
  5
1A93B
  8
0
 10
4468.7235292455171
 20
455.92455192404759
 30
0.0
 40
1.4453972081639781
 50
181.3495897764858
 51
195.52774924301619
  0
ARC
  5
1A93C
  8
0
 10
4467.6116074019938
 20
455.61529969666799
 30
0.0
 40
0.2973950345091889
 50
195.4600678530829
 51
201.22679199951941
  0
ARC
  5
1A93D
  8
0
 10
4468.57771089988
 20
455.88249894081707
 30
0.0
 40
1.299767921563022
 50
181.6294777543373
 51
195.4600678530829
  0
ARC
  5
1A93E
  8
0
 10
4475.6220464169228
 20
456.0828921254485
 30
0.0
 40
8.3469531969132742
 50
180.1791749213385
 51
181.6294777543373
  0
ARC
  5
1A93F
  8
0
 10
4468.5482469927292
 20
455.85441768117852
 30
0.0
 40
1.2699372463255421
 50
187.69673566196491
 51
193.3968932024446
  0
ARC
  5
1A940
  8
0
 10
4468.7102059265362
 20
455.87630599219762
 30
0.0
 40
1.4333685603368691
 50
178.98716437769571
 51
187.69673566196491
  0
ARC
  5
1A941
  8
0
 10
4468.6734293804511
 20
455.85844078183851
 30
0.0
 40
1.3975857036954891
 50
180.70329240256629
 51
191.89855983877479
  0
ARC
  5
1A942
  8
0
 10
4468.6687594143441
 20
455.82680242004278
 30
0.0
 40
1.3928955222930819
 50
179.3864942724222
 51
188.0562310592307
  0
ARC
  5
1A943
  8
0
 10
4468.4041196510489
 20
455.78849367684097
 30
0.0
 40
1.1281361097243641
 50
181.9528418697748
 51
187.69521181887771
  0
ARC
  5
1A944
  8
0
 10
4440.6363808700162
 20
454.8417047333495
 30
0.0
 40
26.65573918360376
 50
1.952841869774812
 51
2.0589706284329088
  0
ARC
  5
1A945
  8
0
 10
4468.8611158270787
 20
455.791106305364
 30
0.0
 40
1.5860671691186361
 50
181.95557798317961
 51
183.61807915279419
  0
ARC
  5
1A946
  8
0
 10
4466.2542293369979
 20
455.71226735584878
 30
0.0
 40
1.022041942629377
 50
1.3856586500503341
 51
2.9569348822650992
  0
ARC
  5
1A947
  8
0
 10
4467.3624484140109
 20
455.70461228792772
 30
0.0
 40
0.0860845953396556
 50
182.76432001577419
 51
191.4828233270897
  0
ARC
  5
1A948
  8
0
 10
4471.7320624947206
 20
455.91685336336531
 30
0.0
 40
4.4608501271062204
 50
182.33319682148181
 51
182.7804697035659
  0
ARC
  5
1A949
  8
0
 10
4467.2623327705633
 20
455.68979543913917
 30
0.0
 40
0.0159240435765518
 50
351.62132467154697
 51
4.3990301099663469
  0
ARC
  5
1A94A
  8
0
 10
4467.3350861023901
 20
455.64233228097908
 30
0.0
 40
0.0491876678361603
 50
185.71700129977469
 51
204.17885405543021
  0
ARC
  5
1A94B
  8
0
 10
4467.2531345089164
 20
455.62453269873021
 30
0.0
 40
0.0371532996338714
 50
356.37814878403162
 51
10.95811060674194
  0
ARC
  5
1A94C
  8
0
 10
4467.3462644774581
 20
455.58038074402128
 30
0.0
 40
0.041634549651962
 50
194.03021201521599
 51
216.65738639660901
  0
ARC
  5
1A94D
  8
0
 10
4467.3045165793674
 20
455.55785567913858
 30
0.0
 40
0.0086674297688701
 50
344.39237494015771
 51
15.55093750929457
  0
ARC
  5
1A94E
  8
0
 10
4467.3639416563647
 20
455.52077099659169
 30
0.0
 40
0.032344545040726
 50
203.9817374958877
 51
223.83175886152631
  0
ARC
  5
1A94F
  8
0
 10
4467.3374136200537
 20
455.50138474172132
 30
0.0
 40
0.0043924332706208
 50
316.67622059387998
 51
20.758979146526631
  0
ARC
  5
1A950
  8
0
 10
4467.3821151881893
 20
455.45348307145503
 30
0.0
 40
0.0114604661181529
 50
207.48447210369051
 51
254.36921878905639
  0
ARC
  5
1A951
  8
0
 10
4467.3712516988053
 20
455.44494737854609
 30
0.0
 40
0.0081679171238752
 50
342.17017552004199
 51
13.616950329327249
  0
ARC
  5
1A952
  8
0
 10
4467.4440700400601
 20
455.4223846766364
 30
0.0
 40
0.0388684749421377
 50
207.67280401199989
 51
233.92887874210629
  0
ARC
  5
1A953
  8
0
 10
4467.4024440782623
 20
455.38766091539918
 30
0.0
 40
0.0231123782098739
 50
12.42231409153321
 51
29.479142126715669
  0
ARC
  5
1A954
  8
0
 10
4467.4229371743049
 20
455.39217498243659
 30
0.0
 40
0.0021280081529255
 50
214.56085892659709
 51
12.42231409150458
  0
ARC
  5
1A955
  8
0
 10
4467.4956126155921
 20
455.37839871001648
 30
0.0
 40
0.041764873209058
 50
216.88341291598891
 51
237.87356092015469
  0
ARC
  5
1A956
  8
0
 10
4467.4589874899602
 20
455.33933637615382
 30
0.0
 40
0.020169834295845
 50
5.6028492656830506
 51
37.09527889310781
  0
ARC
  5
1A957
  8
0
 10
4467.4865406755944
 20
455.3760146312743
 30
0.0
 40
0.0355058103965706
 50
248.28259687846409
 51
257.83887190362231
  0
ARC
  5
1A958
  8
0
 10
4467.5401373036084
 20
455.3328850692053
 30
0.0
 40
0.0315283357084051
 50
222.0228163156288
 51
253.45028928354779
  0
ARC
  5
1A959
  8
0
 10
4467.5279122496922
 20
455.30739208123151
 30
0.0
 40
0.0057350685749583
 50
304.45054939972408
 51
34.408163220451669
  0
ARC
  5
1A95A
  8
0
 10
4467.5960297415486
 20
455.29769852759432
 30
0.0
 40
0.0290314132664068
 50
227.3312007765486
 51
256.35631371372438
  0
ARC
  5
1A95B
  8
0
 10
4467.5893749548541
 20
455.27405359752493
 30
0.0
 40
0.004571344111015
 50
267.57734325170588
 51
47.508660378966631
  0
ARC
  5
1A95C
  8
0
 10
4467.6568884855951
 20
455.28499873775883
 30
0.0
 40
0.0421873076603997
 50
208.5450317848975
 51
259.16541834860061
  0
ARC
  5
1A95D
  8
0
 10
4467.650158117689
 20
455.24707612172921
 30
0.0
 40
0.0037118985828653
 50
251.14230153481759
 51
26.429231595618901
  0
ARC
  5
1A95E
  8
0
 10
4467.7131405220607
 20
455.26415383842368
 30
0.0
 40
0.0406393710136873
 50
212.1001039931179
 51
272.53792919461779
  0
ARC
  5
1A95F
  8
0
 10
4467.7150028110036
 20
455.22866475443038
 30
0.0
 40
0.005110810167568
 50
269.29653708762248
 51
21.844839287335031
  0
ARC
  5
1A960
  8
0
 10
4467.7816325417962
 20
455.24025237345728
 30
0.0
 40
0.0328917457717906
 50
212.39050752442901
 51
278.97901967350037
  0
ARC
  5
1A961
  8
0
 10
4467.7857350628528
 20
455.21399130508718
 30
0.0
 40
0.0063123707474254
 50
279.40010441440029
 51
17.365135836277599
  0
ARC
  5
1A962
  8
0
 10
4467.8520615421858
 20
455.22565248402663
 30
0.0
 40
0.026676057591196
 50
212.7748678245342
 51
289.70663483707068
  0
ARC
  5
1A963
  8
0
 10
4467.8604291085676
 20
455.20552616358862
 30
0.0
 40
0.0050267077304818
 50
277.17358590632671
 51
39.500663462506708
  0
LINE
  5
1A964
  8
0
 10
4466.6819735147019
 20
464.11454877440963
 30
0.0
 11
4466.6819735147019
 21
464.12215507360969
 31
0.0
  0
ARC
  5
1A965
  8
0
 10
4466.7046113098322
 20
464.12215507367978
 30
0.0
 40
0.0226377951306777
 50
89.999514129736767
 51
180.00000017750691
  0
ARC
  5
1A966
  8
0
 10
4466.6091250894333
 20
464.09191097927987
 30
0.0
 40
0.0226377951304875
 50
89.999548803660659
 51
180.00000043080809
  0
ARC
  5
1A967
  8
0
 10
4466.6091250888448
 20
463.79270068062368
 30
0.0
 40
0.0226377945436367
 50
179.99999902322349
 51
227.7000005560642
  0
ARC
  5
1A968
  8
0
 10
4466.719753070377
 20
463.69203696247263
 30
0.0
 40
0.0226377943663333
 50
227.6999993526498
 51
270.00099245761709
  0
ARC
  5
1A969
  8
0
 10
4466.8701841447728
 20
463.64676137298039
 30
0.0
 40
0.0226377951292882
 50
359.99999956793152
 51
90.000000178946451
  0
ARC
  5
1A96A
  8
0
 10
4466.9154597345723
 20
463.54294927808439
 30
0.0
 40
0.0226377946707119
 50
179.99999968318949
 51
225.0000009021829
  0
ARC
  5
1A96B
  8
0
 10
4466.9927500029817
 20
463.46565901094129
 30
0.0
 40
0.0226377956373141
 50
225.0000004485743
 51
270.00128958189339
  0
LINE
  5
1A96C
  8
0
 10
4466.5938895700019
 20
463.77595706370971
 30
0.0
 11
4466.7045175513022
 21
463.67529334600971
 31
0.0
  0
LINE
  5
1A96D
  8
0
 10
4466.8928219399013
 20
463.64676137298039
 30
0.0
 11
4466.8928219399013
 21
463.54294927808439
 31
0.0
  0
LINE
  5
1A96E
  8
0
 10
4466.8994523967021
 20
463.52694193970962
 30
0.0
 11
4466.976742664302
 21
463.44965167200968
 31
0.0
  0
LINE
  5
1A96F
  8
0
 10
4469.2104794203024
 20
464.09191097927987
 30
0.0
 11
4469.2104794203024
 21
463.79270068023777
 31
0.0
  0
LINE
  5
1A970
  8
0
 10
4468.5220561920014
 20
463.44302121530961
 30
0.0
 11
4468.5220561920014
 21
455.73349525815451
 31
0.0
  0
LINE
  5
1A971
  8
0
 10
4469.1149931999007
 20
464.11454877440963
 30
0.0
 11
4469.1149931999007
 21
464.12215507360969
 31
0.0
  0
ARC
  5
1A972
  8
0
 10
4469.0923554047722
 20
464.1221550736804
 30
0.0
 40
0.0226377951292847
 50
359.99999982102747
 51
90.000000003543477
  0
ARC
  5
1A973
  8
0
 10
4469.187841625172
 20
464.09191097928033
 30
0.0
 40
0.0226377951292847
 50
359.99999956792487
 51
90.000000003022379
  0
ARC
  5
1A974
  8
0
 10
4469.1878416257578
 20
463.79270068062368
 30
0.0
 40
0.0226377945436436
 50
312.29999944398088
 51
0.0
  0
ARC
  5
1A975
  8
0
 10
4469.0772136442392
 20
463.69203696245069
 30
0.0
 40
0.0226377943411151
 50
269.9999999658678
 51
312.30000065926038
  0
ARC
  5
1A976
  8
0
 10
4468.9267825698298
 20
463.64676137298039
 30
0.0
 40
0.0226377951292882
 50
89.999999821053564
 51
180.0000004320685
  0
ARC
  5
1A977
  8
0
 10
4468.8815069800312
 20
463.54294927808439
 30
0.0
 40
0.0226377946707119
 50
314.99999909781701
 51
0.0000003168105227
  0
ARC
  5
1A978
  8
0
 10
4468.8042167116409
 20
463.46565901090929
 30
0.0
 40
0.0226377955996497
 50
269.99999994601382
 51
314.99999957037909
  0
LINE
  5
1A979
  8
0
 10
4469.2030771446007
 20
463.77595706370971
 30
0.0
 11
4469.0924491633014
 21
463.67529334600971
 31
0.0
  0
LINE
  5
1A97A
  8
0
 10
4468.9041447747013
 20
463.64676137298039
 30
0.0
 11
4468.9041447747013
 21
463.54294927808439
 31
0.0
  0
LINE
  5
1A97B
  8
0
 10
4468.8975143179014
 20
463.52694193970962
 30
0.0
 11
4468.8202240503006
 21
463.44965167200968
 31
0.0
  0
LINE
  5
1A97C
  8
0
 10
4466.8994523966339
 20
463.52694193964192
 30
0.0
 11
4468.8975143179014
 21
463.52694193970962
 31
0.0
  0
LINE
  5
1A97D
  8
0
 10
4466.5938895700019
 20
463.77595706370971
 30
0.0
 11
4469.2030771445006
 21
463.77595706370971
 31
0.0
  0
ARC
  5
1A97F
  8
0
 10
4466.4049696073107
 20
455.86742274684337
 30
0.0
 40
0.8713714235042335
 50
358.28116918815408
 51
3.2835269386363608
  0
ARC
  5
1A980
  8
0
 10
4470.3602768353167
 20
456.0288225762406
 30
0.0
 40
3.0848461462316799
 50
181.5921517640017
 51
182.56980038883731
  0
LINE
  5
1A981
  8
0
 10
4468.5220561920014
 20
463.44302121530961
 30
0.0
 11
4468.5220561920014
 21
455.73349525815451
 31
0.0
  0
ARC
  5
1A982
  8
0
 10
4468.0465344964077
 20
455.73452753934021
 30
0.0
 40
0.4755228160500952
 50
350.86092763264952
 51
359.87562026539212
  0
ARC
  5
1A983
  8
0
 10
4468.025554259114
 20
455.73838614786268
 30
0.0
 40
0.4968498218081566
 50
338.78935744368027
 51
350.80588559559038
  0
ARC
  5
1A984
  8
0
 10
4468.0224690638997
 20
455.73958347555259
 30
0.0
 40
0.5001592059057564
 50
323.08458927409367
 51
338.78935744368027
  0
ARC
  5
1A985
  8
0
 10
4467.9532606782641
 20
455.79157571584233
 30
0.0
 40
0.5867212858995411
 50
304.55322054203549
 51
323.08458927409367
  0
ARC
  5
1A986
  8
0
 10
4467.8984606022186
 20
456.24632280704969
 30
0.0
 40
0.7102333228988919
 50
287.44397403895488
 51
289.97143491546979
  0
ARC
  5
1A987
  8
0
 10
4467.8984606022186
 20
456.24632280704969
 30
0.0
 40
0.7102333228988919
 50
280.88899566074338
 51
283.72242140587491
  0
ARC
  5
1A988
  8
0
 10
4467.8984606022186
 20
456.24632280704969
 30
0.0
 40
0.7102333228988919
 50
275.45390935920773
 51
277.88802313101132
  0
ARC
  5
1A989
  8
0
 10
4467.9461356807242
 20
456.14340631939808
 30
0.0
 40
0.5968506380670237
 50
322.7477526022131
 51
325.13863766389159
  0
ARC
  5
1A98A
  8
0
 10
4467.9461356807242
 20
456.14340631939808
 30
0.0
 40
0.5968506380670237
 50
315.10844125521862
 51
319.16825560478168
  0
ARC
  5
1A98B
  8
0
 10
4467.9461356807242
 20
456.14340631939808
 30
0.0
 40
0.5968506380670237
 50
307.25127750343847
 51
311.03124840388438
  0
ARC
  5
1A98C
  8
0
 10
4467.9461356807242
 20
456.14340631939808
 30
0.0
 40
0.5968506380670237
 50
300.16042372651839
 51
303.73641231038698
  0
ARC
  5
1A98D
  8
0
 10
4467.9461347379556
 20
456.143408266677
 30
0.0
 40
0.5968528013057725
 50
293.1944369910874
 51
296.71352436319808
  0
ARC
  5
1A98E
  8
0
 10
4468.2356041744688
 20
456.00246999100227
 30
0.0
 40
0.2725985048130882
 50
334.78672605478852
 51
340.98196885680642
  0
ARC
  5
1A98F
  8
0
 10
4468.046004795684
 20
456.07383673504938
 30
0.0
 40
0.4751388178141857
 50
329.41981741159759
 51
332.63084024929788
  0
ARC
  5
1A990
  8
0
 10
4468.0090935978242
 20
456.08417226494379
 30
0.0
 40
0.5134697414342443
 50
356.12872307697711
 51
357.45326946811718
  0
ARC
  5
1A991
  8
0
 10
4468.0090935637572
 20
456.08417227020863
 30
0.0
 40
0.5134697759024614
 50
350.24361749997053
 51
354.1308688480425
  0
ARC
  5
1A992
  8
0
 10
4468.0090935978242
 20
456.08417226494379
 30
0.0
 40
0.5134697414342443
 50
344.3571857056312
 51
347.12301115923469
  0
ARC
  5
1A993
  8
0
 10
4468.0444376036057
 20
456.08781155755241
 30
0.0
 40
0.4776186081341302
 50
338.75024702010222
 51
359.98332100774053
  0
ARC
  5
1A994
  8
0
 10
4468.003323994928
 20
456.10379956149842
 30
0.0
 40
0.5217314757438682
 50
318.29625911216431
 51
338.75024702010222
  0
ARC
  5
1A995
  8
0
 10
4467.943016854987
 20
456.15753832679542
 30
0.0
 40
0.6025077471580187
 50
299.58592196394812
 51
318.29625911216431
  0
ARC
  5
1A996
  8
0
 10
4467.9866562016114
 20
455.54186272949312
 30
0.0
 40
0.047908651739955
 50
175.3107404654763
 51
185.5302421966702
  0
ARC
  5
1A997
  8
0
 10
4468.0760986062969
 20
455.42035122369708
 30
0.0
 40
0.1801899799099047
 50
139.55414548395629
 51
144.89155377618161
  0
ARC
  5
1A998
  8
0
 10
4467.8812947045026
 20
455.55730460486268
 30
0.0
 40
0.0579376933379167
 50
287.25799210526219
 51
324.89155377618152
  0
ARC
  5
1A999
  8
0
 10
4462.7078611009101
 20
459.95239365534047
 30
0.0
 40
6.8646484120013049
 50
319.12491466664909
 51
319.99327379271739
  0
ARC
  5
1A99A
  8
0
 10
4467.9176488905232
 20
455.53423691633151
 30
0.0
 40
0.0485808842014466
 50
5.9411910629517442
 51
16.053694967566919
  0
ARC
  5
1A99B
  8
0
 10
4468.0300868020067
 20
455.5500574323097
 30
0.0
 40
0.0349160928115677
 50
178.07223845720151
 51
191.98050517480539
  0
ARC
  5
1A99C
  8
0
 10
4464.7962856310714
 20
458.09899512960521
 30
0.0
 40
4.0953408342476063
 50
319.24380439957201
 51
321.37876639919949
  0
ARC
  5
1A99D
  8
0
 10
4467.9972684741024
 20
455.54083135320968
 30
0.0
 40
0.0362638952999521
 50
12.818894926009341
 51
26.354335226594038
  0
ARC
  5
1A99E
  8
0
 10
4468.0941758835706
 20
455.56610212994792
 30
0.0
 40
0.0289241906104917
 50
182.8594535027226
 51
199.678534102908
  0
ARC
  5
1A99F
  8
0
 10
4468.0823479330611
 20
455.55746138717609
 30
0.0
 40
0.0311406773963607
 50
21.25943796570353
 51
37.2163793732987
  0
ARC
  5
1A9A0
  8
0
 10
4468.1688888924791
 20
455.5933911536427
 30
0.0
 40
0.031437749158229
 50
192.173820570776
 51
207.6522438199066
  0
ARC
  5
1A9A1
  8
0
 10
4468.1511299817894
 20
455.57832710999179
 30
0.0
 40
0.0342909688683784
 50
28.70476096280656
 51
43.25814948479794
  0
ARC
  5
1A9A2
  8
0
 10
4468.2459705907277
 20
455.63328174052458
 30
0.0
 40
0.0390422143395944
 50
203.64196188717679
 51
216.13241349559081
  0
ARC
  5
1A9A3
  8
0
 10
4468.2117378972016
 20
455.60258366180972
 30
0.0
 40
0.0422853404999465
 50
35.862340233700898
 51
47.156361378583313
  0
ARC
  5
1A9A4
  8
0
 10
4468.306443497172
 20
455.67437437005088
 30
0.0
 40
0.0397136401916363
 50
212.06638436402289
 51
223.44587848508311
  0
ARC
  5
1A9A5
  8
0
 10
4468.2761547613009
 20
455.63864455900972
 30
0.0
 40
0.0431036499000134
 50
43.509012706947779
 51
53.728627682516567
  0
ARC
  5
1A9A6
  8
0
 10
4468.3606523704057
 20
455.72075165741069
 30
0.0
 40
0.0357220239143463
 50
219.11610478537659
 51
230.5419193479716
  0
ARC
  5
1A9A7
  8
0
 10
4468.3449631954218
 20
455.69157573617281
 30
0.0
 40
0.0388882592555687
 50
51.877186950185788
 51
61.815789025827172
  0
ARC
  5
1A9A8
  8
0
 10
4468.4202511847452
 20
455.7893796155405
 30
0.0
 40
0.0426478432738539
 50
230.01454539983371
 51
238.12862175862369
  0
ARC
  5
1A9A9
  8
0
 10
4468.3980838908019
 20
455.7427969920094
 30
0.0
 40
0.0456201114003453
 50
59.532112922997229
 51
66.738149238545233
  0
ARC
  5
1A9AA
  8
0
 10
4468.4559691468612
 20
455.84418646380658
 30
0.0
 40
0.0465017001200018
 50
237.51195908830761
 51
244.39671720363501
  0
ARC
  5
1A9AB
  8
0
 10
4468.4342070848006
 20
455.7880967930102
 30
0.0
 40
0.0487060018994643
 50
64.650026520241326
 51
71.097316273805234
  0
ARC
  5
1A9AC
  8
0
 10
4468.4844290072006
 20
455.90212108600991
 30
0.0
 40
0.0495346669003093
 50
244.61027915373299
 51
250.57849780195431
  0
ARC
  5
1A9AD
  8
0
 10
4468.4652785624912
 20
455.83790534475918
 30
0.0
 40
0.0513216692522517
 50
70.711039508380793
 51
75.479521816968415
  0
ARC
  5
1A9AE
  8
0
 10
4468.5054631296007
 20
455.96329540200941
 30
0.0
 40
0.0511183720996909
 50
251.90093739982089
 51
256.26173303663592
  0
ARC
  5
1A9AF
  8
0
 10
4468.4913833819364
 20
455.89478643798299
 30
0.0
 40
0.0523659441416895
 50
76.570718172503703
 51
79.84009463036962
  0
ARC
  5
1A9B0
  8
0
 10
4468.5192709854018
 20
456.03115809620903
 30
0.0
 40
0.0621659877993241
 50
258.93132801267672
 51
261.09693359336319
  0
ARC
  5
1A9B1
  8
0
 10
4468.5061746370029
 20
455.93516257011993
 30
0.0
 40
0.0626419449895986
 50
81.774187046825958
 51
83.360122279522358
  0
ARC
  5
1A9B2
  8
0
 10
4468.523792058646
 20
456.10300035690381
 30
0.0
 40
0.0714414097760971
 50
265.95539186264722
 51
266.8543520044675
  0
ARC
  5
1A9B3
  8
0
 10
4468.5181428755041
 20
455.98567171226142
 30
0.0
 40
0.0705942444482304
 50
87.031056978552783
 51
87.67278072232132
  0
ARC
  5
1A9B4
  8
0
 10
4480.942513379885
 20
444.95279754977241
 30
0.0
 40
16.701557746849499
 50
140.62178861137741
 51
141.2985055088173
  0
ARC
  5
1A9B5
  8
0
 10
4463.2109700367137
 20
459.3004414327325
 30
0.0
 40
6.131768379419114
 50
319.95944392271628
 51
322.3668463834772
  0
ARC
  5
1A9B6
  8
0
 10
4466.5656143872138
 20
456.52668368228052
 30
0.0
 40
1.8185132262005439
 50
318.08239262351259
 51
328.21279385536718
  0
ARC
  5
1A9B7
  8
0
 10
4466.3627402889097
 20
456.65411271676771
 30
0.0
 40
2.0781367949116438
 50
318.29848541967618
 51
328.83928497841572
  0
ARC
  5
1A9B8
  8
0
 10
4466.3455535635394
 20
456.65868776665349
 30
0.0
 40
2.121670690305046
 50
317.41643561937877
 51
329.90467588985518
  0
ARC
  5
1A9B9
  8
0
 10
4464.7392887109936
 20
457.74931326833507
 30
0.0
 40
4.0807118452787501
 50
321.49485386925579
 51
328.38652414450678
  0
ARC
  5
1A9BA
  8
0
 10
4466.0442551061769
 20
456.80038775935219
 30
0.0
 40
2.4947374625749421
 50
320.4306773566301
 51
331.95256132414943
  0
ARC
  5
1A9BB
  8
0
 10
4466.5142632753714
 20
456.45941771057471
 30
0.0
 40
1.941471319411602
 50
320.16973244985633
 51
335.2650349233939
  0
ARC
  5
1A9BC
  8
0
 10
4466.4359071590707
 20
456.47697358752248
 30
0.0
 40
2.0387415874362471
 50
322.02972914448458
 51
336.63148809778482
  0
ARC
  5
1A9BD
  8
0
 10
4466.6635497231773
 20
456.33210896704668
 30
0.0
 40
1.792166221235667
 50
322.07401188870182
 51
339.1135468962226
  0
ARC
  5
1A9BE
  8
0
 10
4466.6155752039822
 20
456.33342530237451
 30
0.0
 40
1.856887405716213
 50
324.02226299286582
 51
340.78077868855291
  0
ARC
  5
1A9BF
  8
0
 10
4466.8722490129039
 20
456.20575552937981
 30
0.0
 40
1.591207477868624
 50
323.02638433273353
 51
343.47496328072089
  0
ARC
  5
1A9C0
  8
0
 10
4467.014741539856
 20
456.12954136248698
 30
0.0
 40
1.4487488271776381
 50
323.35458114211548
 51
346.12470081813052
  0
ARC
  5
1A9C1
  8
0
 10
4467.0443213665449
 20
456.1023047601779
 30
0.0
 40
1.4235347311641411
 50
324.58748284956619
 51
347.83188279492248
  0
ARC
  5
1A9C2
  8
0
 10
4467.0861038062239
 20
456.08227487979872
 30
0.0
 40
1.391626071762901
 50
324.61111654728921
 51
349.64408069400622
  0
ARC
  5
1A9C3
  8
0
 10
4467.0113518629832
 20
456.08943719185208
 30
0.0
 40
1.475287238413044
 50
328.13631603354042
 51
350.87232607194102
  0
ARC
  5
1A9C4
  8
0
 10
4467.0377973407994
 20
456.07133089450173
 30
0.0
 40
1.456231520185755
 50
328.56122159290248
 51
352.70200896042019
  0
ARC
  5
1A9C5
  8
0
 10
4467.0842046309672
 20
456.0361613837602
 30
0.0
 40
1.414435118847414
 50
331.04963876336018
 51
355.03066903232673
  0
ARC
  5
1A9C6
  8
0
 10
4467.111516682412
 20
456.02210150250698
 30
0.0
 40
1.3941223753578831
 50
331.33376368455322
 51
356.85931573805601
  0
ARC
  5
1A9C7
  8
0
 10
4467.0069211592318
 20
456.0244827589807
 30
0.0
 40
1.5037255534693339
 50
335.42195591250902
 51
357.91374255713021
  0
ARC
  5
1A9C8
  8
0
 10
4467.0560024119823
 20
456.00156801208232
 30
0.0
 40
1.45914136901022
 50
335.83878030386018
 51
359.82691314591767
  0
ARC
  5
1A9C9
  8
0
 10
4466.0677505431768
 20
456.09051151939133
 30
0.0
 40
2.4528271811978168
 50
350.36961080616101
 51
358.62530486499361
  0
ARC
  5
1A9CA
  8
0
 10
4467.4547178982784
 20
455.8551668023336
 30
0.0
 40
1.0460345241352631
 50
337.0250964760512
 51
350.36961080616101
  0
ARC
  5
1A9CB
  8
0
 10
4468.3125854163691
 20
455.51749173271918
 30
0.0
 40
0.1320733958650678
 50
328.35253664769851
 51
342.72252796879741
  0
ARC
  5
1A9CC
  8
0
 10
4467.428317141851
 20
455.85662242614382
 30
0.0
 40
1.0789002674730259
 50
339.47065225995527
 51
350.66458944619637
  0
ARC
  5
1A9CD
  8
0
 10
4466.1219284858116
 20
456.05010038419141
 30
0.0
 40
2.3994633178496092
 50
351.16601418490649
 51
359.98578995199398
  0
ARC
  5
1A9CE
  8
0
 10
4470.699898837508
 20
454.83354489549021
 30
0.0
 40
2.3421488591262141
 50
162.50592103943961
 51
163.39305643404151
  0
ARC
  5
1A9CF
  8
0
 10
4467.0734374690855
 20
455.92455192404759
 30
0.0
 40
1.4453972081639781
 50
344.47225075698378
 51
358.6504102235142
  0
ARC
  5
1A9D0
  8
0
 10
4468.1853593126089
 20
455.61529969666799
 30
0.0
 40
0.2973950345091889
 50
338.77320800048062
 51
344.53993214691712
  0
ARC
  5
1A9D1
  8
0
 10
4467.2192558147244
 20
455.88249894081707
 30
0.0
 40
1.299767921563022
 50
344.53993214691712
 51
358.3705222456627
  0
ARC
  5
1A9D2
  8
0
 10
4460.1749202976807
 20
456.0828921254485
 30
0.0
 40
8.3469531969132742
 50
358.3705222456627
 51
359.82082507866141
  0
ARC
  5
1A9D3
  8
0
 10
4467.2487197218743
 20
455.85441768117852
 30
0.0
 40
1.2699372463255421
 50
346.60310679755543
 51
352.30326433803498
  0
ARC
  5
1A9D4
  8
0
 10
4467.0867607880664
 20
455.87630599219762
 30
0.0
 40
1.4333685603368691
 50
352.30326433803498
 51
1.012835622304292
  0
ARC
  5
1A9D5
  8
0
 10
4467.1235373341524
 20
455.85844078183851
 30
0.0
 40
1.3975857036954891
 50
348.10144016122518
 51
359.29670759743362
  0
ARC
  5
1A9D6
  8
0
 10
4467.1282073002594
 20
455.82680242004278
 30
0.0
 40
1.3928955222930819
 50
351.9437689407693
 51
0.6135057275777807
  0
ARC
  5
1A9D7
  8
0
 10
4467.3928470635537
 20
455.78849367684097
 30
0.0
 40
1.1281361097243641
 50
352.30478818112232
 51
358.04715813022523
  0
ARC
  5
1A9D8
  8
0
 10
4495.1605858445873
 20
454.8417047333495
 30
0.0
 40
26.65573918360376
 50
177.94102937156711
 51
178.0471581302252
  0
ARC
  5
1A9D9
  8
0
 10
4466.9358508875239
 20
455.791106305364
 30
0.0
 40
1.5860671691186361
 50
356.38192084720578
 51
358.04442201682042
  0
ARC
  5
1A9DA
  8
0
 10
4469.5427373776047
 20
455.71226735584878
 30
0.0
 40
1.022041942629377
 50
177.0430651177349
 51
178.6143413499496
  0
ARC
  5
1A9DB
  8
0
 10
4468.4345183005917
 20
455.70461228792772
 30
0.0
 40
0.0860845953396556
 50
348.5171766729103
 51
357.23567998422573
  0
ARC
  5
1A9DC
  8
0
 10
4464.064904219882
 20
455.91685336336531
 30
0.0
 40
4.4608501271062204
 50
357.21953029643407
 51
357.66680317851819
  0
ARC
  5
1A9DD
  8
0
 10
4468.5346339440403
 20
455.68979543913917
 30
0.0
 40
0.0159240435765518
 50
175.60096989003361
 51
188.37867532845291
  0
ARC
  5
1A9DE
  8
0
 10
4468.4618806122126
 20
455.64233228097908
 30
0.0
 40
0.0491876678361603
 50
335.82114594456982
 51
354.28299870022528
  0
ARC
  5
1A9DF
  8
0
 10
4468.5438322056871
 20
455.62453269873021
 30
0.0
 40
0.0371532996338714
 50
169.041889393258
 51
183.62185121596829
  0
ARC
  5
1A9E0
  8
0
 10
4468.4507022371436
 20
455.58038074402128
 30
0.0
 40
0.041634549651962
 50
323.34261360339099
 51
345.96978798478398
  0
ARC
  5
1A9E1
  8
0
 10
4468.4924501352361
 20
455.55785567913858
 30
0.0
 40
0.0086674297688701
 50
164.44906249070539
 51
195.60762505984229
  0
ARC
  5
1A9E2
  8
0
 10
4468.4330250582389
 20
455.52077099659169
 30
0.0
 40
0.032344545040726
 50
316.16824113847372
 51
336.01826250411227
  0
ARC
  5
1A9E3
  8
0
 10
4468.4595530945489
 20
455.50138474172132
 30
0.0
 40
0.0043924332706208
 50
159.2410208534734
 51
223.32377940612011
  0
ARC
  5
1A9E4
  8
0
 10
4468.4148515264133
 20
455.45348307145503
 30
0.0
 40
0.0114604661181529
 50
285.6307812109435
 51
332.51552789630938
  0
ARC
  5
1A9E5
  8
0
 10
4468.4257150157973
 20
455.44494737854609
 30
0.0
 40
0.0081679171238752
 50
166.3830496706727
 51
197.82982447995789
  0
ARC
  5
1A9E6
  8
0
 10
4468.3528966745434
 20
455.4223846766364
 30
0.0
 40
0.0388684749421377
 50
306.07112125789371
 51
332.32719598800008
  0
ARC
  5
1A9E7
  8
0
 10
4468.3945226363421
 20
455.38766091539918
 30
0.0
 40
0.0231123782098739
 50
150.52085787328431
 51
167.5776859084668
  0
ARC
  5
1A9E8
  8
0
 10
4468.3740295402977
 20
455.39217498243659
 30
0.0
 40
0.0021280081529255
 50
167.5776859084954
 51
325.43914107340288
  0
ARC
  5
1A9E9
  8
0
 10
4468.3013540990114
 20
455.37839871001648
 30
0.0
 40
0.041764873209058
 50
302.12643907984528
 51
323.11658708401109
  0
ARC
  5
1A9EA
  8
0
 10
4468.3379792246433
 20
455.33933637615382
 30
0.0
 40
0.020169834295845
 50
142.9047211068922
 51
174.39715073431691
  0
ARC
  5
1A9EB
  8
0
 10
4468.3104260390101
 20
455.3760146312743
 30
0.0
 40
0.0355058103965706
 50
282.16112809637769
 51
291.71740312153599
  0
ARC
  5
1A9EC
  8
0
 10
4468.2568294109951
 20
455.3328850692053
 30
0.0
 40
0.0315283357084051
 50
286.54971071645218
 51
317.97718368437131
  0
ARC
  5
1A9ED
  8
0
 10
4468.2690544649113
 20
455.30739208123151
 30
0.0
 40
0.0057350685749583
 50
145.59183677954829
 51
235.54945060027589
  0
ARC
  5
1A9EE
  8
0
 10
4468.2009369730549
 20
455.29769852759432
 30
0.0
 40
0.0290314132664068
 50
283.64368628627562
 51
312.6687992234514
  0
ARC
  5
1A9EF
  8
0
 10
4468.2075917597494
 20
455.27405359752493
 30
0.0
 40
0.004571344111015
 50
132.49133962103329
 51
272.42265674829412
  0
ARC
  5
1A9F0
  8
0
 10
4468.1400782290084
 20
455.28499873775883
 30
0.0
 40
0.0421873076603997
 50
280.83458165139928
 51
331.4549682151025
  0
ARC
  5
1A9F1
  8
0
 10
4468.1468085969136
 20
455.24707612172921
 30
0.0
 40
0.0037118985828653
 50
153.57076840438111
 51
288.85769846518241
  0
ARC
  5
1A9F2
  8
0
 10
4468.0838261925419
 20
455.26415383842368
 30
0.0
 40
0.0406393710136873
 50
267.46207080538221
 51
327.89989600688199
  0
ARC
  5
1A9F3
  8
0
 10
4468.081963903599
 20
455.22866475443038
 30
0.0
 40
0.005110810167568
 50
158.15516071266489
 51
270.70346291237752
  0
ARC
  5
1A9F4
  8
0
 10
4468.0153341728073
 20
455.24025237345728
 30
0.0
 40
0.0328917457717906
 50
261.02098032649963
 51
327.60949247557102
  0
ARC
  5
1A9F5
  8
0
 10
4468.0112316517498
 20
455.21399130508718
 30
0.0
 40
0.0063123707474254
 50
162.6348641637224
 51
260.59989558559971
  0
ARC
  5
1A9F6
  8
0
 10
4467.9449051724177
 20
455.22565248402663
 30
0.0
 40
0.026676057591196
 50
250.29336516292929
 51
327.22513217546577
  0
ARC
  5
1A9F7
  8
0
 10
4467.936537606035
 20
455.20552616358862
 30
0.0
 40
0.0050267077304818
 50
140.49933653749329
 51
262.82641409367329
  0
ARC
  5
1A9F8
  8
0
 10
4469.3919971072919
 20
455.86742274684337
 30
0.0
 40
0.8713714235042335
 50
176.71647306136359
 51
181.71883081184589
  0
ARC
  5
1A9F9
  8
0
 10
4465.436689879285
 20
456.0288225762406
 30
0.0
 40
3.0848461462316799
 50
357.43019961116272
 51
358.40784823599819
  0
ARC
  5
1A9FA
  8
0
 10
4467.8984833573013
 20
455.28703633198239
 30
0.0
 40
0.0220928200419709
 50
224.20710784404889
 51
315.79289215595583
  0
ARC
  5
1A9FB
  8
0
 10
4467.8984833573013
 20
455.23111326183943
 30
0.0
 40
0.0122763233183764
 50
221.19416155028139
 51
318.80583844971608
  0
ARC
  5
1A9FC
  8
0
 10
4467.8984833573013
 20
455.36212148126288
 30
0.0
 40
0.0094326585365437
 50
222.96346971413951
 51
317.03653028591509
  0
ARC
  5
1A9FD
  8
0
 10
4467.8984833573013
 20
455.40385479519267
 30
0.0
 40
0.0128483239413146
 50
219.60637711735561
 51
320.39362288266187
  0
ENDSEC
  0
EOF
