  0
SECTION
  2
HEADER
  9
$ACADVER
  1
AC1009
  9
$INSBASE
 10
2780.709387235685881
 20
144.0094067358828056
 30
0.0
  9
$EXTMIN
 10
2774.824559793185017
 20
144.0042777428103875
 30
0.0
  9
$EXTMAX
 10
2781.8503872356859574
 20
148.8047802505828088
 30
0.0
  9
$LIMMIN
 10
0.0
 20
0.0
  9
$LIMMAX
 10
11.6929133858000007
 20
8.2677165353999982
  9
$ORTHOMODE
 70
     0
  9
$REGENMODE
 70
     1
  9
$FILLMODE
 70
     1
  9
$QTEXTMODE
 70
     0
  9
$MIRRTEXT
 70
     0
  9
$DRAGMODE
 70
     2
  9
$LTSCALE
 40
0.6431102362
  9
$OSMODE
 70
  4095
  9
$ATTMODE
 70
     1
  9
$TEXTSIZE
 40
0.2
  9
$TRACEWID
 40
0.05
  9
$TEXTSTYLE
  7
STANDARD
  9
$CLAYER
  8
0
  9
$CELTYPE
  6
BYLAYER
  9
$CECOLOR
 62
   256
  9
$DIMSCALE
 40
1.0
  9
$DIMASZ
 40
0.1875
  9
$DIMEXO
 40
0.0625
  9
$DIMDLI
 40
0.4443307087
  9
$DIMRND
 40
0.0
  9
$DIMDLE
 40
0.0
  9
$DIMEXE
 40
0.125
  9
$DIMTP
 40
0.01
  9
$DIMTM
 40
0.01
  9
$DIMTXT
 40
2.0
  9
$DIMCEN
 40
0.1052362205
  9
$DIMTSZ
 40
0.0
  9
$DIMTOL
 70
     1
  9
$DIMLIM
 70
     0
  9
$DIMTIH
 70
     1
  9
$DIMTOH
 70
     1
  9
$DIMSE1
 70
     0
  9
$DIMSE2
 70
     0
  9
$DIMTAD
 70
     0
  9
$DIMZIN
 70
     0
  9
$DIMBLK
  1

  9
$DIMASO
 70
     1
  9
$DIMSHO
 70
     1
  9
$DIMPOST
  1
\X
  9
$DIMAPOST
  1

  9
$DIMALT
 70
     1
  9
$DIMALTD
 70
     2
  9
$DIMALTF
 40
25.3999999999999986
  9
$DIMLFAC
 40
1.0
  9
$DIMTOFL
 70
     0
  9
$DIMTVP
 40
0.0
  9
$DIMTIX
 70
     0
  9
$DIMSOXD
 70
     0
  9
$DIMSAH
 70
     0
  9
$DIMBLK1
  1

  9
$DIMBLK2
  1

  9
$DIMSTYLE
  2
STANDARD
  9
$DIMCLRD
 70
     0
  9
$DIMCLRE
 70
     0
  9
$DIMCLRT
 70
     0
  9
$DIMTFAC
 40
1.0
  9
$DIMGAP
 40
0.09
  9
$LUNITS
 70
     2
  9
$LUPREC
 70
     4
  9
$SKETCHINC
 40
0.1
  9
$FILLETRAD
 40
0.0
  9
$AUNITS
 70
     0
  9
$AUPREC
 70
     0
  9
$MENU
  1
.
  9
$ELEVATION
 40
0.0
  9
$PELEVATION
 40
0.0
  9
$THICKNESS
 40
0.0
  9
$LIMCHECK
 70
     0
  9
$BLIPMODE
 70
     0
  9
$CHAMFERA
 40
0.0
  9
$CHAMFERB
 40
0.0
  9
$SKPOLY
 70
     0
  9
$TDCREATE
 40
2458060.468368056230247
  9
$TDUPDATE
 40
2459751.647997684776783
  9
$TDINDWG
 40
1.0800417823999999
  9
$TDUSRTIMER
 40
1.0800417823999999
  9
$USRTIMER
 70
     1
  9
$ANGBASE
 50
0.0
  9
$ANGDIR
 70
     0
  9
$PDMODE
 70
     0
  9
$PDSIZE
 40
0.3125
  9
$PLINEWID
 40
0.0
  9
$COORDS
 70
     1
  9
$SPLFRAME
 70
     0
  9
$SPLINETYPE
 70
     6
  9
$SPLINESEGS
 70
     8
  9
$ATTDIA
 70
     1
  9
$ATTREQ
 70
     1
  9
$HANDLING
 70
     1
  9
$HANDSEED
  5
D7DB
  9
$SURFTAB1
 70
     6
  9
$SURFTAB2
 70
     6
  9
$SURFTYPE
 70
     6
  9
$SURFU
 70
     6
  9
$SURFV
 70
     6
  9
$UCSNAME
  2

  9
$UCSORG
 10
0.0
 20
0.0
 30
0.0
  9
$UCSXDIR
 10
1.0
 20
0.0
 30
0.0
  9
$UCSYDIR
 10
0.0
 20
1.0
 30
0.0
  9
$PUCSNAME
  2

  9
$PUCSORG
 10
0.0
 20
0.0
 30
0.0
  9
$PUCSXDIR
 10
1.0
 20
0.0
 30
0.0
  9
$PUCSYDIR
 10
0.0
 20
1.0
 30
0.0
  9
$USERI1
 70
     0
  9
$USERI2
 70
     0
  9
$USERI3
 70
     0
  9
$USERI4
 70
     0
  9
$USERI5
 70
     0
  9
$USERR1
 40
0.0
  9
$USERR2
 40
0.0
  9
$USERR3
 40
0.0
  9
$USERR4
 40
0.0
  9
$USERR5
 40
0.0
  9
$WORLDVIEW
 70
     1
  9
$SHADEDGE
 70
     3
  9
$SHADEDIF
 70
    70
  9
$TILEMODE
 70
     1
  9
$MAXACTVP
 70
    64
  9
$PLIMCHECK
 70
     0
  9
$PEXTMIN
 10
1.0000000000000000E+20
 20
1.0000000000000000E+20
 30
1.0000000000000000E+20
  9
$PEXTMAX
 10
-1.0000000000000000E+20
 20
-1.0000000000000000E+20
 30
-1.0000000000000000E+20
  9
$PLIMMIN
 10
0.0
 20
0.0
  9
$PLIMMAX
 10
12.0
 20
9.0
  9
$UNITMODE
 70
     0
  9
$VISRETAIN
 70
     1
  9
$PLINEGEN
 70
     0
  9
$PSLTSCALE
 70
     1
  0
ENDSEC
  0
SECTION
  2
TABLES
  0
TABLE
  2
VPORT
 70
     1
  0
VPORT
  2
*ACTIVE
 70
     0
 10
0.0
 20
0.0
 11
1.0
 21
1.0
 12
467.0916912656011846
 22
8.6821677699173705
 13
0.0
 23
0.0
 14
1.0
 24
1.0
 15
0.0
 25
0.0
 16
0.0
 26
0.0
 36
14.15189873613655
 17
2311.2252197265629547
 27
137.8012416672862912
 37
0.0
 40
5.0001168052266873
 41
2.481770833333333
 42
50.0
 43
0.0
 44
0.0
 50
0.0
 51
0.0
 71
     0
 72
   100
 73
     1
 74
     1
 75
     0
 76
     0
 77
     0
 78
     0
  0
ENDTAB
  0
TABLE
  2
LTYPE
 70
     2
  0
LTYPE
  2
CONTINUOUS
 70
     0
  3
Solid line
 72
    65
 73
     0
 40
0.0
  0
LTYPE
  2
PHANTOM2
 70
     0
  3
___ _ _ ___ _ _ ___ _ _ ___ _ _
 72
    65
 73
     6
 40
1.25
 49
0.625
 49
-0.125
 49
0.125
 49
-0.125
 49
0.125
 49
-0.125
  0
ENDTAB
  0
TABLE
  2
LAYER
 70
     2
  0
LAYER
  2
0
 70
     0
 62
   255
  6
CONTINUOUS
  0
LAYER
  2
DEFPOINTS
 70
     0
 62
     7
  6
CONTINUOUS
  0
ENDTAB
  0
TABLE
  2
STYLE
 70
     1
  0
STYLE
  2
STANDARD
 70
     0
 40
0.0
 41
0.8
 50
0.0
 71
     0
 42
0.2
  3
txt
  4

  0
ENDTAB
  0
TABLE
  2
VIEW
 70
     0
  0
ENDTAB
  0
TABLE
  2
UCS
 70
     0
  0
ENDTAB
  0
TABLE
  2
APPID
 70
    10
  0
APPID
  2
ACAD
 70
     0
  0
APPID
  2
ACAD_MLEADERVER
 70
     0
  0
APPID
  2
ACAD_EXEMPT_FROM_CAD_STANDARDS
 70
     0
  0
APPID
  2
ACAD_NAV_VCDISPLAY
 70
     0
  0
APPID
  2
ACAECLAYERSTANDARD
 70
     0
  0
APPID
  2
ACCMTRANSPARENCY
 70
     0
  0
APPID
  2
ACAD_DSTYLE_DIMJAG
 70
     0
  0
APPID
  2
ACAD_DSTYLE_DIMTALN
 70
     0
  0
APPID
  2
ACDBATTR
 70
     0
  0
APPID
  2
DCO15
 70
     0
  0
ENDTAB
  0
TABLE
  2
DIMSTYLE
 70
     1
  0
DIMSTYLE
  2
STANDARD
 70
     0
  3

  4

  5

  6

  7

 40
1.0
 41
0.1875
 42
0.0625
 43
0.38
 44
0.125
 45
0.0
 46
0.0
 47
0.01
 48
0.01
140
0.15625
141
0.09
142
0.0
143
25.3999999999999986
144
1.0
145
0.0
146
1.0
147
0.09
 71
     1
 72
     0
 73
     1
 74
     1
 75
     0
 76
     0
 77
     0
 78
     4
170
     0
171
     2
172
     0
173
     0
174
     0
175
     0
176
     0
177
     0
178
     0
  0
ENDTAB
  0
ENDSEC
  0
SECTION
  2
BLOCKS
  0
BLOCK
  8
0
  2
$MODEL_SPACE
 70
     0
 10
0.0
 20
0.0
 30
0.0
  3
$MODEL_SPACE
  1

  0
ENDBLK
  5
21
  8
0
  0
BLOCK
 67
     1
  8
0
  2
$PAPER_SPACE
 70
     0
 10
0.0
 20
0.0
 30
0.0
  3
$PAPER_SPACE
  1

  0
ENDBLK
  5
1D
 67
     1
  8
0
  0
ENDSEC
  0
SECTION
  2
ENTITIES
  0
ATTDEF
  5
3930
  8
DEFPOINTS
 10
2780.7039612997159566
 20
144.0076110761436894
 30
0.0
 40
0.001
  1
P24906-LV
  3

  2
MODELNUMBER
 70
     0
1001
ACDBATTR
1070
     0
1070
     1
  0
ATTDEF
  5
3931
  8
DEFPOINTS
 10
2780.7039612997159566
 20
144.0059444094771095
 30
0.0
 40
0.001
  1
PINNA PALETTA
  3

  2
TRADENAME
 70
     0
1001
ACDBATTR
1070
     0
1070
     1
  0
ATTDEF
  5
3932
  8
DEFPOINTS
 10
2780.7039612997159566
 20
144.0042777428103875
 30
0.0
 40
0.001
  1
BATHROOM SINK FAUCET
  3

  2
PRODUCT
 70
     0
1001
ACDBATTR
1070
     0
1070
     1
  0
LINE
  5
D6A7
  8
0
 10
2775.1097839326857866
 20
147.1130756504828128
 30
0.0
 11
2775.3450788010859469
 21
147.5206183173827128
 31
0.0
  0
LINE
  5
D6A8
  8
0
 10
2774.8564574862862173
 20
146.4910800953828129
 30
0.0
 11
2774.82524127648594
 21
146.6075805764828033
 31
0.0
  0
LINE
  5
D6A9
  8
0
 10
2781.8307021962859835
 20
144.0094067358828056
 30
0.0
 11
2779.5880722750857785
 21
144.0094067358828056
 31
0.0
  0
LINE
  5
D6AA
  8
0
 10
2775.9792188852861727
 20
146.6111071465828104
 30
0.0
 11
2776.0290256751859488
 21
146.6973750371828089
 31
0.0
  0
LINE
  5
D6AB
  8
0
 10
2781.8503872356859574
 20
144.2891880289828066
 30
0.0
 11
2779.5683872356858046
 21
144.2891880289828066
 31
0.0
  0
LINE
  5
D6AC
  8
0
 10
2781.7345039517858822
 20
144.3964067358828061
 30
0.0
 11
2779.6744388190791142
 21
144.3964067358828061
 31
0.0
  0
LINE
  5
D6AD
  8
0
 10
2781.5838872356857792
 20
144.5065127680828141
 30
0.0
 11
2779.8348872356859829
 21
144.5065127680828141
 31
0.0
  0
LINE
  5
D6AE
  8
0
 10
2781.4969932679359772
 20
144.5934067358828088
 30
0.0
 11
2779.9217812034357848
 21
144.5934067358828088
 31
0.0
  0
ARC
  5
D6AF
  8
0
 10
2781.2113407789861412
 20
144.6131067358828091
 30
0.0
 40
0.0197
 50
270.0
 51
0.0
  0
ARC
  5
D6B0
  8
0
 10
2780.2074336923860756
 20
144.6131067358828091
 30
0.0
 40
0.0197
 50
180.0
 51
270.0
  0
LINE
  5
D6B1
  8
0
 10
2780.3258439285859822
 20
144.6134067358827053
 30
0.0
 11
2781.0929305427857798
 21
144.6134067358827053
 31
0.0
  0
LINE
  5
D6B2
  8
0
 10
2774.8657760032870101
 20
146.478935967982693
 30
0.0
 11
2775.5520417757861651
 21
146.0827202394827111
 31
0.0
  0
LINE
  5
D6B3
  8
0
 10
2775.6837186377861144
 20
146.1119384407828079
 30
0.0
 11
2774.82524127648594
 21
146.6075805764828033
 31
0.0
  0
LINE
  5
D6B4
  8
0
 10
2780.2579793713862273
 20
148.7989223861827099
 30
0.0
 11
2780.1909951001857735
 21
148.7319381149827109
 31
0.0
  0
LINE
  5
D6B5
  8
0
 10
2780.1934993069858137
 20
148.1099597519827
 30
0.0
 11
2780.2213381566862154
 21
148.1377986015828014
 31
0.0
  0
LINE
  5
D6B6
  8
0
 10
2780.3386567872857995
 20
148.1956290432827075
 30
0.0
 11
2780.3664956369862011
 21
148.2234678929827112
 31
0.0
  0
LINE
  5
D6B7
  8
0
 10
2775.5672181566860672
 20
146.0807222309827864
 30
0.0
 11
2775.6837186377861144
 21
146.1119384407828079
 31
0.0
  0
LINE
  5
D6B8
  8
0
 10
2776.2305258209858039
 20
146.8137224523827058
 30
0.0
 11
2780.1907157469208869
 21
146.8137224523827058
 31
0.0
  0
LINE
  5
D6B9
  8
0
 10
2781.1607951001860783
 20
148.3571219732826876
 30
0.0
 11
2781.2277793713860774
 21
148.4241062444826866
 31
0.0
  0
LINE
  5
D6BA
  8
0
 10
2781.7477522295857852
 20
144.3912813636827934
 30
0.0
 11
2781.8439504740858865
 21
144.303747696182711
 31
0.0
  0
LINE
  5
D6BB
  8
0
 10
2781.5109126926859062
 20
144.5876411212827861
 30
0.0
 11
2781.5781216210862112
 21
144.5204321928827085
 31
0.0
  0
LINE
  5
D6BC
  8
0
 10
2779.5683872356858046
 20
144.2891880289828066
 30
0.0
 11
2779.5683872356858046
 21
144.0290917751827067
 31
0.0
  0
LINE
  5
D6BD
  8
0
 10
2775.8595834226857733
 20
147.8176594602826981
 30
0.0
 11
2780.190757623027821
 21
147.8176594602826981
 31
0.0
  0
LINE
  5
D6BE
  8
0
 10
2779.8348872356859829
 20
144.5065127680828141
 30
0.0
 11
2779.8348872356859829
 21
144.4160917751827071
 31
0.0
  0
LINE
  5
D6BF
  8
0
 10
2781.2252751645328317
 20
148.109959751930802
 30
0.0
 11
2780.1934993069858137
 21
148.1099597519827
 31
0.0
  0
LINE
  5
D6C0
  8
0
 10
2780.1877336923857911
 20
144.6131067358828091
 30
0.0
 11
2780.1877336923857911
 21
146.8107209563827098
 31
0.0
  0
LINE
  5
D6C1
  8
0
 10
2780.1877336923857911
 20
147.8206609563827101
 30
0.0
 11
2780.1877336923857911
 21
148.0960403274548014
 31
0.0
  0
LINE
  5
D6C2
  8
0
 10
2780.1877336924858355
 20
147.8674804159828113
 30
0.0
 11
2780.1877336924858355
 21
148.0960403274548014
 31
0.0
  0
LINE
  5
D6C3
  8
0
 10
2780.3058439286360226
 20
144.6334067358828008
 30
0.0
 11
2780.3058439286360226
 21
145.9442527806826888
 31
0.0
  0
LINE
  5
D6C4
  8
0
 10
2780.3328911727858213
 20
148.1817096184828131
 30
0.0
 11
2780.3328911727858213
 21
148.1632492554828104
 31
0.0
  0
LINE
  5
D6C5
  8
0
 10
2781.1835168900870485
 20
148.1435642161827104
 30
0.0
 11
2780.2352575814861666
 21
148.1435642161827104
 31
0.0
  0
LINE
  5
D6C6
  8
0
 10
2781.0858832987860296
 20
148.1817096184828131
 30
0.0
 11
2780.3328911727858213
 21
148.1817096184828131
 31
0.0
  0
LINE
  5
D6C7
  8
0
 10
2781.0383594097861533
 20
148.2292335074828031
 30
0.0
 11
2780.3804150617861524
 21
148.2292335074828031
 31
0.0
  0
LINE
  5
D6C8
  8
0
 10
2780.2721215069859682
 20
148.3512641088827877
 30
0.0
 11
2781.1466529643857939
 21
148.3512641088827877
 31
0.0
  0
LINE
  5
D6C9
  8
0
 10
2781.2277793713860774
 20
148.4241062444826866
 30
0.0
 11
2780.1909951001857735
 21
148.4241062444826866
 31
0.0
  0
LINE
  5
D6CA
  8
0
 10
2779.9078617785858114
 20
144.5876411212827861
 30
0.0
 11
2779.8406528501859611
 21
144.5204321928827085
 31
0.0
  0
LINE
  5
D6CB
  8
0
 10
2779.6611944557857896
 20
144.3910269480365969
 30
0.0
 11
2779.5748239971858311
 21
144.303747696182711
 31
0.0
  0
LINE
  5
D6CC
  8
0
 10
2780.1909951001857735
 20
148.7319381149827109
 30
0.0
 11
2781.2277793713860774
 21
148.7319381149827109
 31
0.0
  0
LINE
  5
D6CD
  8
0
 10
2781.1466529643857939
 20
148.8047802505828088
 30
0.0
 11
2780.2721215069859682
 21
148.8047802505828088
 31
0.0
  0
LINE
  5
D6CE
  8
0
 10
2780.9893232593858556
 20
148.2790548109828137
 30
0.0
 11
2780.9893232593858556
 21
148.351264408882713
 31
0.0
  0
LINE
  5
D6CF
  8
0
 10
2781.0858832987860296
 20
148.1817096184828131
 30
0.0
 11
2781.0858832987860296
 21
148.1632492554828104
 31
0.0
  0
LINE
  5
D6D0
  8
0
 10
2781.1129305428357839
 20
144.6334067358828008
 30
0.0
 11
2781.1129305428357839
 21
145.9442527806830867
 31
0.0
  0
LINE
  5
D6D1
  8
0
 10
2780.2579793713862273
 20
148.3571219732826876
 30
0.0
 11
2780.1909951001857735
 21
148.4241062444826866
 31
0.0
  0
LINE
  5
D6D2
  8
0
 10
2781.231040778985971
 20
148.0960403270827896
 30
0.0
 11
2781.231040778985971
 21
144.6131067358828091
 31
0.0
  0
LINE
  5
D6D3
  8
0
 10
2781.5838872356857792
 20
144.5065127680828141
 30
0.0
 11
2781.5838872356857792
 21
144.4160917751827071
 31
0.0
  0
LINE
  5
D6D4
  8
0
 10
2781.080117684186007
 20
148.1956290432827075
 30
0.0
 11
2781.0522788345861045
 21
148.2234678929827112
 31
0.0
  0
LINE
  5
D6D5
  8
0
 10
2781.2252751644859927
 20
148.1099597519827
 30
0.0
 11
2781.1974363148869998
 21
148.1377986015828014
 31
0.0
  0
LINE
  5
D6D6
  8
0
 10
2781.8503872356859574
 20
144.2891880289828066
 30
0.0
 11
2781.8503872356859574
 21
144.0290917751827067
 31
0.0
  0
LINE
  5
D6D7
  8
0
 10
2781.1607951001860783
 20
148.7989223861827099
 30
0.0
 11
2781.2277793713860774
 21
148.7319381149827109
 31
0.0
  0
ARC
  5
D6D8
  8
0
 10
2775.5620417757859286
 20
146.1000407474826943
 30
0.0
 40
0.02
 50
240.000000000000199
 51
284.9999999999948841
  0
ARC
  5
D6D9
  8
0
 10
2774.8757760027860968
 20
146.4962564762828094
 30
0.0
 40
0.02
 50
194.9999999999992042
 51
240.000000000000199
  0
ARC
  5
D6DA
  8
0
 10
2775.6785422568859758
 20
146.1312569573827886
 30
0.0
 40
0.02
 50
284.9999999999948841
 51
330.0000000000026716
  0
ARC
  5
D6DB
  8
0
 10
2775.1268316768860132
 20
147.1032331308828134
 30
0.0
 40
0.0196850394
 50
150.0000000000027001
 51
240.0000000023150051
  0
ARC
  5
D6DC
  8
0
 10
2775.9621711411859906
 20
146.6209496662827121
 30
0.0
 40
0.0196850394
 50
240.0000000023150051
 51
330.0000000000026716
  0
ARC
  5
D6DD
  8
0
 10
2781.0543872356861357
 20
144.6234067358828099
 30
0.0
 40
0.03
 50
199.4712206344742924
 51
270.0
  0
ARC
  5
D6DE
  8
0
 10
2780.3643872356860811
 20
144.6234067358828099
 30
0.0
 40
0.03
 50
270.0
 51
340.5287793655102746
  0
ARC
  5
D6DF
  8
0
 10
2781.0929305427857798
 20
144.6334067358828008
 30
0.0
 40
0.02
 50
270.0
 51
0.0
  0
ARC
  5
D6E0
  8
0
 10
2780.3258439285859822
 20
144.6334067358828008
 30
0.0
 40
0.02
 50
180.0
 51
270.0
  0
ARC
  5
D6E1
  8
0
 10
2781.496993267885955
 20
144.5737216964826928
 30
0.0
 40
0.0196850394
 50
44.9999999999953886
 51
90.0
  0
ARC
  5
D6E2
  8
0
 10
2779.9217812033862174
 20
144.5737216964826928
 30
0.0
 40
0.0196850394
 50
90.0
 51
135.0000000000046043
  0
ARC
  5
D6E3
  8
0
 10
2779.8545722750859568
 20
144.5065127680828141
 30
0.0
 40
0.0196850394
 50
135.0000000000046043
 51
180.0
  0
ARC
  5
D6E4
  8
0
 10
2779.815202196286009
 20
144.4160917751827071
 30
0.0
 40
0.0196850394
 50
270.0
 51
0.0
  0
ARC
  5
D6E5
  8
0
 10
2779.6737662961859314
 20
144.3790695277195084
 30
0.0
 40
0.0173502470857109
 50
87.7785688770009358
 51
136.4348707065952055
  0
ARC
  5
D6E6
  8
0
 10
2779.5880722750857785
 20
144.2891880289828066
 30
0.0
 40
0.0196850394
 50
132.2999999999900069
 51
180.0
  0
ARC
  5
D6E7
  8
0
 10
2779.5880722750857785
 20
144.0290917751827067
 30
0.0
 40
0.0196850394
 50
180.0
 51
270.0
  0
CIRCLE
  5
D6E8
  8
0
 10
2780.7093872357359032
 20
145.9614067358828038
 30
0.0
 40
0.3266711264
  0
ARC
  5
D6E9
  8
0
 10
2781.6035722750862078
 20
144.4160917751827071
 30
0.0
 40
0.0196850394
 50
180.0
 51
270.0
  0
ARC
  5
D6EA
  8
0
 10
2781.5642021962858053
 20
144.5065127680828141
 30
0.0
 40
0.0196850394
 50
0.0
 51
44.9999999999953886
  0
ARC
  5
D6EB
  8
0
 10
2781.7345039517858822
 20
144.37672169648269
 30
0.0
 40
0.0196850394
 50
47.7000000000099504
 51
90.0
  0
ARC
  5
D6EC
  8
0
 10
2781.8307021962859835
 20
144.0290917751827067
 30
0.0
 40
0.0196850394
 50
270.0
 51
0.0
  0
ARC
  5
D6ED
  8
0
 10
2781.8307021962859835
 20
144.2891880289828066
 30
0.0
 40
0.0196850394
 50
0.0
 51
47.7000000000099504
  0
ARC
  5
D6EE
  8
0
 10
2780.2051372357859691
 20
148.4382483800827117
 30
0.0
 40
0.02
 50
180.0
 51
224.9999999999953957
  0
ARC
  5
D6EF
  8
0
 10
2780.2721215069859682
 20
148.3712641088827127
 30
0.0
 40
0.02
 50
225.0000000001001865
 51
270.0
  0
ARC
  5
D6F0
  8
0
 10
2780.3804150617861524
 20
148.2095484680828008
 30
0.0
 40
0.0196850394
 50
90.0
 51
134.9999999983936902
  0
ARC
  5
D6F1
  8
0
 10
2780.3525762121857952
 20
148.1817096184828131
 30
0.0
 40
0.0196850394
 50
134.9999999983936902
 51
180.0
  0
ARC
  5
D6F2
  8
0
 10
2780.3132061333858474
 20
148.1632492554828104
 30
0.0
 40
0.0196850394
 50
270.0
 51
0.0
  0
ARC
  5
D6F3
  8
0
 10
2780.2352575814861666
 20
148.1238791767827081
 30
0.0
 40
0.0196850394
 50
90.0
 51
134.9999999983936902
  0
ARC
  5
D6F4
  8
0
 10
2780.2074187312300637
 20
148.0960403274548014
 30
0.0
 40
0.0196850387431346
 50
134.9999996180897028
 51
180.000001082993407
  0
ARC
  5
D6F5
  8
0
 10
2780.2721215069859682
 20
148.7847802505827133
 30
0.0
 40
0.02
 50
90.0
 51
135.0000000000046043
  0
ARC
  5
D6F6
  8
0
 10
2780.2051372357859691
 20
148.7177959793826858
 30
0.0
 40
0.02
 50
135.0000000000046043
 51
180.0
  0
ARC
  5
D6F7
  8
0
 10
2781.2136372357858818
 20
148.4382483800827117
 30
0.0
 40
0.02
 50
315.0000000000046043
 51
0.0
  0
ARC
  5
D6F8
  8
0
 10
2781.1466529644858383
 20
148.3712641088827127
 30
0.0
 40
0.02
 50
270.0
 51
314.9999999998997851
  0
ARC
  5
D6F9
  8
0
 10
2781.0383594097861533
 20
148.2095484680828008
 30
0.0
 40
0.0196850394
 50
45.0000000016063098
 51
90.0
  0
ARC
  5
D6FA
  8
0
 10
2781.0661982593860557
 20
148.1817096184828131
 30
0.0
 40
0.0196850394
 50
0.0
 51
45.0000000016063098
  0
ARC
  5
D6FB
  8
0
 10
2781.1055683380859591
 20
148.1632492554828104
 30
0.0
 40
0.0196850394
 50
180.0
 51
270.0
  0
ARC
  5
D6FC
  8
0
 10
2781.1835168900870485
 20
148.1238791767827081
 30
0.0
 40
0.0196850394
 50
45.0000000016063098
 51
90.0
  0
ARC
  5
D6FD
  8
0
 10
2781.2113557396860415
 20
148.0960403270827896
 30
0.0
 40
0.0196850394
 50
0.0
 51
45.0000000016063098
  0
ARC
  5
D6FE
  8
0
 10
2781.1466529644858383
 20
148.7847802505827133
 30
0.0
 40
0.02
 50
44.9999999999953886
 51
90.0
  0
ARC
  5
D6FF
  8
0
 10
2781.2136372357858818
 20
148.7177959793826858
 30
0.0
 40
0.02
 50
0.0
 51
44.9999999999953886
  0
ARC
  5
D700
  8
0
 10
2776.5145544684128254
 20
150.4630899237706103
 30
0.0
 40
5.179965703248806
 50
315.162764155585819
 51
320.6161001570181952
  0
ARC
  5
D701
  8
0
 10
2777.0813175366738506
 20
144.6880020245565959
 30
0.0
 40
4.4117313285849944
 50
38.6910216772285622
 51
45.2409958889437505
  0
ARC
  5
D702
  8
0
 10
2780.2186692572349784
 20
147.406562832479608
 30
0.0
 40
0.3777983780993445
 50
322.4538749248209228
 51
338.339227202109214
  0
ARC
  5
D703
  8
0
 10
2780.4374386795898317
 20
147.3159565311516985
 30
0.0
 40
0.1410758970686389
 50
339.7438139144719003
 51
23.2910889897071307
  0
ARC
  5
D704
  8
0
 10
2780.2375069002810051
 20
147.2331511826897952
 30
0.0
 40
0.357468824847408
 50
22.8108482633139893
 51
36.5166090762456008
  0
ARC
  5
D705
  8
0
 10
2776.2388514498770746
 20
146.5666423580238984
 30
0.0
 40
0.2472203250641253
 50
91.9299125650207714
 51
148.074886418754005
  0
ARC
  5
D706
  8
0
 10
2775.8808071835378541
 20
147.1867908057656109
 30
0.0
 40
0.6312255597462878
 50
91.9268249572212
 51
148.0717987976246093
  0
LINE
  5
D707
  8
0
 10
2781.2336372357858636
 20
148.7177959793826858
 30
0.0
 11
2781.2336372357858636
 21
148.4382483800827117
 31
0.0
  0
LINE
  5
D708
  8
0
 10
2775.969073598185787
 20
146.5942342052827883
 30
0.0
 11
2775.1002441803861984
 21
147.0958531034827104
 31
0.0
  0
CIRCLE
  5
D709
  8
0
 10
2780.7093872357359032
 20
145.9614067358828038
 30
0.0
 40
0.4039077356082747
  0
LINE
  5
D70A
  8
0
 10
2780.1851372355858985
 20
148.7177959793826858
 30
0.0
 11
2780.1851372355858985
 21
148.4382483800827117
 31
0.0
  0
LINE
  5
D70B
  8
0
 10
2775.6958627649619302
 20
146.1212569573827125
 30
0.0
 11
2775.969073598185787
 21
146.5942342052827883
 31
0.0
  0
ARC
  5
D70C
  8
0
 10
2774.8445597931849989
 20
146.6127569568583056
 30
0.0
 40
0.02
 50
150.0000000455058
 51
195.000000045505999
  0
LINE
  5
D70D
  8
0
 10
2774.8272392851022232
 20
146.6227569568445119
 30
0.0
 11
2775.100244180207028
 21
147.0958531031726864
 31
0.0
  0
LINE
  5
D70F
  8
0
 10
2780.9893232593858556
 20
148.2790548108827124
 30
0.0
 11
2780.4294949207860554
 21
148.2790548108827124
 31
0.0
  0
ARC
  5
D710
  8
0
 10
2780.6018872356858083
 20
148.2440548108828011
 30
0.0
 40
0.0350000000000039
 50
90.0
 51
205.1554463356926021
  0
ARC
  5
D711
  8
0
 10
2780.8168872356859538
 20
148.2440548108828011
 30
0.0
 40
0.0350000000000002
 50
334.8445536643013725
 51
90.0
  0
LINE
  5
D712
  8
0
 10
2780.4294949208860999
 20
148.2790548108827124
 30
0.0
 11
2780.4294949208860999
 21
148.3512644087828107
 31
0.0
  0
ENDSEC
  0
EOF
