  0
SECTION
  2
HEADER
  9
$ACADVER
  1
AC1009
  9
$INSBASE
 10
2754.3945127643701198
 20
141.9915729404389992
 30
0.0
  9
$EXTMIN
 10
2747.5697097697698155
 20
136.1068931141205098
 30
0.0
  9
$EXTMAX
 10
2761.2193157590700139
 20
143.1327205782390024
 30
0.0
  9
$LIMMIN
 10
0.0
 20
0.0
  9
$LIMMAX
 10
11.6929133858000007
 20
8.2677165353999982
  9
$ORTHOMODE
 70
     0
  9
$REGENMODE
 70
     1
  9
$FILLMODE
 70
     1
  9
$QTEXTMODE
 70
     0
  9
$MIRRTEXT
 70
     0
  9
$DRAGMODE
 70
     2
  9
$LTSCALE
 40
0.6431102362
  9
$OSMODE
 70
  4095
  9
$ATTMODE
 70
     1
  9
$TEXTSIZE
 40
0.2
  9
$TRACEWID
 40
0.05
  9
$TEXTSTYLE
  7
STANDARD
  9
$CLAYER
  8
0
  9
$CELTYPE
  6
BYLAYER
  9
$CECOLOR
 62
   256
  9
$DIMSCALE
 40
1.0
  9
$DIMASZ
 40
0.1875
  9
$DIMEXO
 40
0.0625
  9
$DIMDLI
 40
0.4443307087
  9
$DIMRND
 40
0.0
  9
$DIMDLE
 40
0.0
  9
$DIMEXE
 40
0.125
  9
$DIMTP
 40
0.01
  9
$DIMTM
 40
0.01
  9
$DIMTXT
 40
2.0
  9
$DIMCEN
 40
0.1052362205
  9
$DIMTSZ
 40
0.0
  9
$DIMTOL
 70
     1
  9
$DIMLIM
 70
     0
  9
$DIMTIH
 70
     1
  9
$DIMTOH
 70
     1
  9
$DIMSE1
 70
     0
  9
$DIMSE2
 70
     0
  9
$DIMTAD
 70
     0
  9
$DIMZIN
 70
     0
  9
$DIMBLK
  1

  9
$DIMASO
 70
     1
  9
$DIMSHO
 70
     1
  9
$DIMPOST
  1
\X
  9
$DIMAPOST
  1

  9
$DIMALT
 70
     1
  9
$DIMALTD
 70
     2
  9
$DIMALTF
 40
25.3999999999999986
  9
$DIMLFAC
 40
1.0
  9
$DIMTOFL
 70
     0
  9
$DIMTVP
 40
0.0
  9
$DIMTIX
 70
     0
  9
$DIMSOXD
 70
     0
  9
$DIMSAH
 70
     0
  9
$DIMBLK1
  1

  9
$DIMBLK2
  1

  9
$DIMSTYLE
  2
STANDARD
  9
$DIMCLRD
 70
     0
  9
$DIMCLRE
 70
     0
  9
$DIMCLRT
 70
     0
  9
$DIMTFAC
 40
1.0
  9
$DIMGAP
 40
0.09
  9
$LUNITS
 70
     2
  9
$LUPREC
 70
     4
  9
$SKETCHINC
 40
0.1
  9
$FILLETRAD
 40
0.0
  9
$AUNITS
 70
     0
  9
$AUPREC
 70
     0
  9
$MENU
  1
.
  9
$ELEVATION
 40
0.0
  9
$PELEVATION
 40
0.0
  9
$THICKNESS
 40
0.0
  9
$LIMCHECK
 70
     0
  9
$BLIPMODE
 70
     0
  9
$CHAMFERA
 40
0.0
  9
$CHAMFERB
 40
0.0
  9
$SKPOLY
 70
     0
  9
$TDCREATE
 40
2458060.468368056230247
  9
$TDUPDATE
 40
2459751.641064815223217
  9
$TDINDWG
 40
1.0791505787
  9
$TDUSRTIMER
 40
1.0791505787
  9
$USRTIMER
 70
     1
  9
$ANGBASE
 50
0.0
  9
$ANGDIR
 70
     0
  9
$PDMODE
 70
     0
  9
$PDSIZE
 40
0.3125
  9
$PLINEWID
 40
0.0
  9
$COORDS
 70
     1
  9
$SPLFRAME
 70
     0
  9
$SPLINETYPE
 70
     6
  9
$SPLINESEGS
 70
     8
  9
$ATTDIA
 70
     1
  9
$ATTREQ
 70
     1
  9
$HANDLING
 70
     1
  9
$HANDSEED
  5
B76E
  9
$SURFTAB1
 70
     6
  9
$SURFTAB2
 70
     6
  9
$SURFTYPE
 70
     6
  9
$SURFU
 70
     6
  9
$SURFV
 70
     6
  9
$UCSNAME
  2

  9
$UCSORG
 10
0.0
 20
0.0
 30
0.0
  9
$UCSXDIR
 10
1.0
 20
0.0
 30
0.0
  9
$UCSYDIR
 10
0.0
 20
1.0
 30
0.0
  9
$PUCSNAME
  2

  9
$PUCSORG
 10
0.0
 20
0.0
 30
0.0
  9
$PUCSXDIR
 10
1.0
 20
0.0
 30
0.0
  9
$PUCSYDIR
 10
0.0
 20
1.0
 30
0.0
  9
$USERI1
 70
     0
  9
$USERI2
 70
     0
  9
$USERI3
 70
     0
  9
$USERI4
 70
     0
  9
$USERI5
 70
     0
  9
$USERR1
 40
0.0
  9
$USERR2
 40
0.0
  9
$USERR3
 40
0.0
  9
$USERR4
 40
0.0
  9
$USERR5
 40
0.0
  9
$WORLDVIEW
 70
     1
  9
$SHADEDGE
 70
     3
  9
$SHADEDIF
 70
    70
  9
$TILEMODE
 70
     1
  9
$MAXACTVP
 70
    64
  9
$PLIMCHECK
 70
     0
  9
$PEXTMIN
 10
1.0000000000000000E+20
 20
1.0000000000000000E+20
 30
1.0000000000000000E+20
  9
$PEXTMAX
 10
-1.0000000000000000E+20
 20
-1.0000000000000000E+20
 30
-1.0000000000000000E+20
  9
$PLIMMIN
 10
0.0
 20
0.0
  9
$PLIMMAX
 10
12.0
 20
9.0
  9
$UNITMODE
 70
     0
  9
$VISRETAIN
 70
     1
  9
$PLINEGEN
 70
     0
  9
$PSLTSCALE
 70
     1
  0
ENDSEC
  0
SECTION
  2
TABLES
  0
TABLE
  2
VPORT
 70
     1
  0
VPORT
  2
*ACTIVE
 70
     0
 10
0.0
 20
0.0
 11
1.0
 21
1.0
 12
443.1455255679566108
 22
1.9334151719164541
 13
0.0
 23
0.0
 14
1.0
 24
1.0
 15
0.0
 25
0.0
 16
0.0
 26
0.0
 36
14.15189873613655
 17
2311.2252197265629547
 27
137.8012416672862912
 37
0.0
 40
7.3341432684293624
 41
2.481770833333333
 42
50.0
 43
0.0
 44
0.0
 50
0.0
 51
0.0
 71
     0
 72
   100
 73
     1
 74
     1
 75
     0
 76
     0
 77
     0
 78
     0
  0
ENDTAB
  0
TABLE
  2
LTYPE
 70
     2
  0
LTYPE
  2
CONTINUOUS
 70
     0
  3
Solid line
 72
    65
 73
     0
 40
0.0
  0
LTYPE
  2
PHANTOM2
 70
     0
  3
___ _ _ ___ _ _ ___ _ _ ___ _ _
 72
    65
 73
     6
 40
1.25
 49
0.625
 49
-0.125
 49
0.125
 49
-0.125
 49
0.125
 49
-0.125
  0
ENDTAB
  0
TABLE
  2
LAYER
 70
     2
  0
LAYER
  2
0
 70
     0
 62
   255
  6
CONTINUOUS
  0
LAYER
  2
DEFPOINTS
 70
     0
 62
     7
  6
CONTINUOUS
  0
ENDTAB
  0
TABLE
  2
STYLE
 70
     1
  0
STYLE
  2
STANDARD
 70
     0
 40
0.0
 41
0.8
 50
0.0
 71
     0
 42
0.2
  3
txt
  4

  0
ENDTAB
  0
TABLE
  2
VIEW
 70
     0
  0
ENDTAB
  0
TABLE
  2
UCS
 70
     0
  0
ENDTAB
  0
TABLE
  2
APPID
 70
    10
  0
APPID
  2
ACAD
 70
     0
  0
APPID
  2
ACAD_MLEADERVER
 70
     0
  0
APPID
  2
ACAD_EXEMPT_FROM_CAD_STANDARDS
 70
     0
  0
APPID
  2
ACAD_NAV_VCDISPLAY
 70
     0
  0
APPID
  2
ACAECLAYERSTANDARD
 70
     0
  0
APPID
  2
ACCMTRANSPARENCY
 70
     0
  0
APPID
  2
ACAD_DSTYLE_DIMJAG
 70
     0
  0
APPID
  2
ACAD_DSTYLE_DIMTALN
 70
     0
  0
APPID
  2
ACDBATTR
 70
     0
  0
APPID
  2
DCO15
 70
     0
  0
ENDTAB
  0
TABLE
  2
DIMSTYLE
 70
     1
  0
DIMSTYLE
  2
STANDARD
 70
     0
  3

  4

  5

  6

  7

 40
1.0
 41
0.1875
 42
0.0625
 43
0.38
 44
0.125
 45
0.0
 46
0.0
 47
0.01
 48
0.01
140
0.15625
141
0.09
142
0.0
143
25.3999999999999986
144
1.0
145
0.0
146
1.0
147
0.09
 71
     1
 72
     0
 73
     1
 74
     1
 75
     0
 76
     0
 77
     0
 78
     4
170
     0
171
     2
172
     0
173
     0
174
     0
175
     0
176
     0
177
     0
178
     0
  0
ENDTAB
  0
ENDSEC
  0
SECTION
  2
BLOCKS
  0
BLOCK
  8
0
  2
$MODEL_SPACE
 70
     0
 10
0.0
 20
0.0
 30
0.0
  3
$MODEL_SPACE
  1

  0
ENDBLK
  5
21
  8
0
  0
BLOCK
 67
     1
  8
0
  2
$PAPER_SPACE
 70
     0
 10
0.0
 20
0.0
 30
0.0
  3
$PAPER_SPACE
  1

  0
ENDBLK
  5
1D
 67
     1
  8
0
  0
ENDSEC
  0
SECTION
  2
ENTITIES
  0
ATTDEF
  5
3930
  8
DEFPOINTS
 10
2754.3887405696959831
 20
141.9901275266147138
 30
0.0
 40
0.001
  1
P24905-LV
  3

  2
MODELNUMBER
 70
     0
1001
ACDBATTR
1070
     0
1070
     1
  0
ATTDEF
  5
3931
  8
DEFPOINTS
 10
2754.3887405696959831
 20
141.9884608599479918
 30
0.0
 40
0.001
  1
PINNA PALETTA
  3

  2
TRADENAME
 70
     0
1001
ACDBATTR
1070
     0
1070
     1
  0
ATTDEF
  5
3932
  8
DEFPOINTS
 10
2754.3887405696959831
 20
141.9867941932814119
 30
0.0
 40
0.001
  1
BATHROOM SINK FAUCET
  3

  2
PRODUCT
 70
     0
1001
ACDBATTR
1070
     0
1070
     1
  0
LINE
  5
B662
  8
0
 10
2753.8925442604199816
 20
141.8405065461784886
 30
0.0
 11
2753.8925442604199816
 21
136.5439867295390002
 31
0.0
  0
LINE
  5
B663
  8
0
 10
2754.8964812683198033
 20
136.5439867295388865
 30
0.0
 11
2754.8964812683198033
 21
141.8405065458464946
 31
0.0
  0
ARC
  5
B664
  8
0
 10
2754.394512764420142
 20
141.9917205782390113
 30
0.0
 40
1.048192779899999
 50
298.6128978295056982
 51
241.3871021642850963
  0
ARC
  5
B665
  8
0
 10
2754.394512764420142
 20
141.9917205782390113
 30
0.0
 40
0.8744783465000001
 50
305.031066529855309
 51
234.9689334621525916
  0
ARC
  5
B666
  8
0
 10
2754.394512764420142
 20
141.9917205782390113
 30
0.0
 40
0.8015038034999999
 50
308.7764455860788075
 51
231.2235544047584881
  0
CIRCLE
  5
B667
  8
0
 10
2754.394512764420142
 20
141.9917205782390113
 30
0.0
 40
0.52425
  0
CIRCLE
  5
B668
  8
0
 10
2754.394512764420142
 20
141.9917205782390113
 30
0.0
 40
0.4514078644
  0
ARC
  5
B66A
  8
0
 10
2754.394512764420142
 20
141.9917205782390113
 30
0.0
 40
1.1410000000000129
 50
296.0998831937874911
 51
243.9001168006140858
  0
ARC
  5
B66B
  8
0
 10
2754.4004566114190311
 20
136.6681241114067973
 30
0.0
 40
0.5612624712491607
 50
226.4408562797239028
 51
269.3932184434802934
  0
ARC
  5
B66C
  8
0
 10
2754.3006201694288393
 20
136.5516655297095951
 30
0.0
 40
0.4081481489432698
 50
181.0780124850790003
 51
225.3312052573153892
  0
ARC
  5
B66D
  8
0
 10
2754.3968217062761141
 20
136.9554839927066041
 30
0.0
 40
0.5729557911635231
 50
238.3420523256104104
 51
269.7691043768439272
  0
ARC
  5
B66E
  8
0
 10
2754.3343552552178153
 20
136.8476646001668087
 30
0.0
 40
0.448407986190852
 50
202.5731762383522039
 51
237.9053783400327973
  0
ARC
  5
B66F
  8
0
 10
2754.2703112411668371
 20
136.8210408215491896
 30
0.0
 40
0.3790504968791825
 50
184.7164190553233993
 51
202.5731762383522039
  0
ARC
  5
B670
  8
0
 10
2754.4039391696319399
 20
137.0002076762978049
 30
0.0
 40
0.6083110792602144
 50
243.7552169652005034
 51
269.1121074929640145
  0
ARC
  5
B671
  8
0
 10
2754.351946831945952
 20
136.8772210815459971
 30
0.0
 40
0.4750746912334798
 50
216.3415197164216863
 51
242.820142927075608
  0
ARC
  5
B672
  8
0
 10
2754.2885943737510388
 20
136.8306133558718045
 30
0.0
 40
0.3964247449405553
 50
188.8467956889276991
 51
216.3415197164216863
  0
ARC
  5
B673
  8
0
 10
2754.3707333748839119
 20
136.8383268241371127
 30
0.0
 40
0.4787990430143212
 50
182.8923216502726916
 51
188.2471769829118102
  0
ARC
  5
B674
  8
0
 10
2754.3885689173212086
 20
136.6681241114067973
 30
0.0
 40
0.5612624712491645
 50
270.6067815565197066
 51
313.5591437202759835
  0
ARC
  5
B675
  8
0
 10
2754.4884053593109456
 20
136.5516655297095951
 30
0.0
 40
0.4081481489432698
 50
314.6687947426846108
 51
358.9219875149192944
  0
ARC
  5
B676
  8
0
 10
2754.3901292355390069
 20
136.9627455143821066
 30
0.0
 40
0.5802292190707679
 50
270.4328635690640112
 51
301.4559797284729825
  0
ARC
  5
B677
  8
0
 10
2754.4546702735219696
 20
136.8476646001668087
 30
0.0
 40
0.448407986190852
 50
302.0946216599671743
 51
337.4268237616478245
  0
ARC
  5
B678
  8
0
 10
2754.5187142875729478
 20
136.8210408215491896
 30
0.0
 40
0.3790504968791825
 50
337.4268237616478245
 51
355.2835809446766007
  0
ARC
  5
B679
  8
0
 10
2754.3864377971399335
 20
136.9946071060149109
 30
0.0
 40
0.6026915660155382
 50
270.7676818552466216
 51
296.3649936865950281
  0
ARC
  5
B67A
  8
0
 10
2754.4370786967938329
 20
136.8772210815459971
 30
0.0
 40
0.4750746912334798
 50
297.179857072924392
 51
323.6584802835782853
  0
ARC
  5
B67B
  8
0
 10
2754.5004311549892009
 20
136.8306133558718045
 30
0.0
 40
0.3964247449405553
 50
323.6584802835782853
 51
351.1532043110722725
  0
ARC
  5
B67C
  8
0
 10
2754.418292153855873
 20
136.8383268241371127
 30
0.0
 40
0.4787990430143212
 50
351.7528230170881898
 51
357.1076783497272231
  0
LINE
  5
B67D
  8
0
 10
2761.2193157590700139
 20
142.3080809031013985
 30
0.0
 11
2761.2193157590700139
 21
141.67298301557679
 31
0.0
  0
LINE
  5
B67E
  8
0
 10
2761.213054393038874
 20
142.3226153427769134
 30
0.0
 11
2761.1449691548200462
 21
142.3907226728817932
 31
0.0
  0
ARC
  5
B67F
  8
0
 10
2761.1993157590700321
 20
142.3080809031013985
 30
0.0
 40
0.02
 50
0.0
 51
46.612285711686873
  0
LINE
  5
B680
  8
0
 10
2761.2149223607871136
 20
141.6623764138581123
 30
0.0
 11
2761.1449691548200462
 21
141.5924252301105071
 31
0.0
  0
ARC
  5
B681
  8
0
 10
2761.1966005928697996
 20
141.6761787420533096
 30
0.0
 40
0.0229388631631166
 50
323.00820705357512
 51
351.9917929414407922
  0
LINE
  5
B682
  8
0
 10
2758.3945152895698811
 20
141.5881772711389885
 30
0.0
 11
2761.1345100146199911
 21
141.5881772711389885
 31
0.0
  0
ARC
  5
B683
  8
0
 10
2761.1345100146199911
 20
141.6031772711390033
 30
0.0
 40
0.015000000000005
 50
270.0
 51
314.2088646761413884
  0
LINE
  5
B684
  8
0
 10
2758.3945153478698558
 20
142.3952638853390056
 30
0.0
 11
2761.1342147865939296
 21
142.3952638853390056
 31
0.0
  0
ARC
  5
B685
  8
0
 10
2761.13421301902099
 20
142.3802550010302923
 30
0.0
 40
0.0150088844127671
 50
44.2213108318185135
 51
89.9932523634930845
  0
ARC
  5
B686
  8
0
 10
2758.3945125059099155
 20
141.9917203952884961
 30
0.0
 40
1.141000161432929
 50
20.6927909935168515
 51
179.9671623629103863
  0
ARC
  5
B687
  8
0
 10
2758.3945125060081409
 20
141.9917207611370884
 30
0.0
 40
1.141000161322054
 50
179.9671807341472913
 51
339.3072090071844968
  0
ARC
  5
B688
  8
0
 10
2758.39451260936994
 20
141.9917205782390113
 30
0.0
 40
1.038364993899999
 50
22.861755073251409
 51
180.0
  0
ARC
  5
B689
  8
0
 10
2758.39451260936994
 20
141.9917205782390113
 30
0.0
 40
1.0383649938999999
 50
180.0
 51
337.1382449267485981
  0
ARC
  5
B68A
  8
0
 10
2758.39451260936994
 20
141.9917205782390113
 30
0.0
 40
0.8745000000000001
 50
27.4811030886367114
 51
179.9572115968996115
  0
ARC
  5
B68B
  8
0
 10
2758.39451260936994
 20
141.9917205782390113
 30
0.0
 40
0.8745000000000009
 50
179.9572115968996115
 51
332.5188969113632993
  0
ARC
  5
B68C
  8
0
 10
2758.39451260936994
 20
141.9917205782390113
 30
0.0
 40
0.8015254570999999
 50
30.2297809882080486
 51
180.0
  0
ARC
  5
B68D
  8
0
 10
2758.39451260936994
 20
141.9917205782390113
 30
0.0
 40
0.8015254570999999
 50
180.0
 51
329.7702190117918803
  0
ARC
  5
B68E
  8
0
 10
2758.3945126093781255
 20
141.9917205782392102
 30
0.0
 40
0.4035433071090973
 50
89.9996111842173292
 51
270.0003805382585256
  0
LINE
  5
B68F
  8
0
 10
2761.1449691548200462
 20
142.3907226728817932
 30
0.0
 11
2761.1449691548200462
 21
141.5924252301105071
 31
0.0
  0
LINE
  5
B690
  8
0
 10
2747.5697097697698155
 20
142.3080809031013985
 30
0.0
 11
2747.5697097697698155
 21
141.67298301557679
 31
0.0
  0
LINE
  5
B691
  8
0
 10
2747.5759711358018649
 20
142.3226153427769134
 30
0.0
 11
2747.6440563740197831
 21
142.3907226728817932
 31
0.0
  0
ARC
  5
B692
  8
0
 10
2747.5897097697697973
 20
142.3080809031013985
 30
0.0
 40
0.02
 50
133.3877142883131057
 51
180.0
  0
LINE
  5
B693
  8
0
 10
2747.5741031680531705
 20
141.6623764138581123
 30
0.0
 11
2747.6440563740197831
 21
141.5924252301105071
 31
0.0
  0
ARC
  5
B694
  8
0
 10
2747.5924249359700298
 20
141.6761787420533096
 30
0.0
 40
0.0229388631631166
 50
188.0082070585592078
 51
216.9917929464249085
  0
LINE
  5
B695
  8
0
 10
2750.3945102392699482
 20
141.5881772711389885
 30
0.0
 11
2747.6545155142198382
 21
141.5881772711389885
 31
0.0
  0
ARC
  5
B696
  8
0
 10
2747.6545155142198382
 20
141.6031772711390033
 30
0.0
 40
0.015000000000005
 50
225.7911353238586116
 51
270.0
  0
LINE
  5
B697
  8
0
 10
2750.3945101809699736
 20
142.3952638853390056
 30
0.0
 11
2747.6548107422458997
 21
142.3952638853390056
 31
0.0
  0
ARC
  5
B698
  8
0
 10
2747.6548125098188393
 20
142.3802550010302923
 30
0.0
 40
0.0150088844127671
 50
90.0067476365069155
 51
135.7786891681815007
  0
ARC
  5
B699
  8
0
 10
2750.3945130229308234
 20
141.9917203952884961
 30
0.0
 40
1.141000161432929
 50
0.0328376370895838
 51
159.3072090064831059
  0
ARC
  5
B69A
  8
0
 10
2750.3945130228321432
 20
141.9917207611370884
 30
0.0
 40
1.141000161322054
 50
200.6927909928155032
 51
0.0328192658526125
  0
ARC
  5
B69B
  8
0
 10
2750.3945129194698893
 20
141.9917205782390113
 30
0.0
 40
1.038364993899999
 50
0.0
 51
157.1382449267485981
  0
ARC
  5
B69C
  8
0
 10
2750.3945129194698893
 20
141.9917205782390113
 30
0.0
 40
1.0383649938999999
 50
202.8617550732514019
 51
0.0
  0
ARC
  5
B69D
  8
0
 10
2750.3945129194698893
 20
141.9917205782390113
 30
0.0
 40
0.8745000000000001
 50
0.0427884031004362
 51
152.5188969113632993
  0
ARC
  5
B69E
  8
0
 10
2750.3945129194698893
 20
141.9917205782390113
 30
0.0
 40
0.8745000000000009
 50
207.4811030886367007
 51
0.0427884031004362
  0
ARC
  5
B69F
  8
0
 10
2750.3945129194698893
 20
141.9917205782390113
 30
0.0
 40
0.8015254570999999
 50
0.0
 51
149.7702190117919088
  0
ARC
  5
B6A0
  8
0
 10
2750.3945129194698893
 20
141.9917205782390113
 30
0.0
 40
0.8015254570999999
 50
210.2297809882066133
 51
0.0
  0
ARC
  5
B6A1
  8
0
 10
2750.3945129194621586
 20
141.9917205782392102
 30
0.0
 40
0.4035433071090973
 50
269.9996194617414744
 51
90.000388815782685
  0
LINE
  5
B6A2
  8
0
 10
2747.6440563740197831
 20
142.3907226728817932
 30
0.0
 11
2747.6440563740197831
 21
141.5924252301105071
 31
0.0
  0
ENDSEC
  0
EOF
