  0
SECTION
  2
HEADER
  9
$ACADVER
  1
AC1009
  9
$INSBASE
 10
2756.3921099936878818
 20
144.9512346048747133
 30
0.0
  9
$EXTMIN
 10
2749.5673071540381898
 20
144.9457478510452972
 30
0.0
  9
$EXTMAX
 10
2763.2169131433379334
 20
152.5649616980747112
 30
0.0
  9
$LIMMIN
 10
0.0
 20
0.0
  9
$LIMMAX
 10
11.6929133858000007
 20
8.2677165353999982
  9
$ORTHOMODE
 70
     0
  9
$REGENMODE
 70
     1
  9
$FILLMODE
 70
     1
  9
$QTEXTMODE
 70
     0
  9
$MIRRTEXT
 70
     0
  9
$DRAGMODE
 70
     2
  9
$LTSCALE
 40
0.6431102362
  9
$OSMODE
 70
  4095
  9
$ATTMODE
 70
     1
  9
$TEXTSIZE
 40
0.2
  9
$TRACEWID
 40
0.05
  9
$TEXTSTYLE
  7
STANDARD
  9
$CLAYER
  8
0
  9
$CELTYPE
  6
BYLAYER
  9
$CECOLOR
 62
   256
  9
$DIMSCALE
 40
1.0
  9
$DIMASZ
 40
0.1875
  9
$DIMEXO
 40
0.0625
  9
$DIMDLI
 40
0.4443307087
  9
$DIMRND
 40
0.0
  9
$DIMDLE
 40
0.0
  9
$DIMEXE
 40
0.125
  9
$DIMTP
 40
0.01
  9
$DIMTM
 40
0.01
  9
$DIMTXT
 40
2.0
  9
$DIMCEN
 40
0.1052362205
  9
$DIMTSZ
 40
0.0
  9
$DIMTOL
 70
     1
  9
$DIMLIM
 70
     0
  9
$DIMTIH
 70
     1
  9
$DIMTOH
 70
     1
  9
$DIMSE1
 70
     0
  9
$DIMSE2
 70
     0
  9
$DIMTAD
 70
     0
  9
$DIMZIN
 70
     0
  9
$DIMBLK
  1

  9
$DIMASO
 70
     1
  9
$DIMSHO
 70
     1
  9
$DIMPOST
  1
\X
  9
$DIMAPOST
  1

  9
$DIMALT
 70
     1
  9
$DIMALTD
 70
     2
  9
$DIMALTF
 40
25.3999999999999986
  9
$DIMLFAC
 40
1.0
  9
$DIMTOFL
 70
     0
  9
$DIMTVP
 40
0.0
  9
$DIMTIX
 70
     0
  9
$DIMSOXD
 70
     0
  9
$DIMSAH
 70
     0
  9
$DIMBLK1
  1

  9
$DIMBLK2
  1

  9
$DIMSTYLE
  2
STANDARD
  9
$DIMCLRD
 70
     0
  9
$DIMCLRE
 70
     0
  9
$DIMCLRT
 70
     0
  9
$DIMTFAC
 40
1.0
  9
$DIMGAP
 40
0.09
  9
$LUNITS
 70
     2
  9
$LUPREC
 70
     4
  9
$SKETCHINC
 40
0.1
  9
$FILLETRAD
 40
0.0
  9
$AUNITS
 70
     0
  9
$AUPREC
 70
     0
  9
$MENU
  1
.
  9
$ELEVATION
 40
0.0
  9
$PELEVATION
 40
0.0
  9
$THICKNESS
 40
0.0
  9
$LIMCHECK
 70
     0
  9
$BLIPMODE
 70
     0
  9
$CHAMFERA
 40
0.0
  9
$CHAMFERB
 40
0.0
  9
$SKPOLY
 70
     0
  9
$TDCREATE
 40
2458060.468368056230247
  9
$TDUPDATE
 40
2459751.641157406847924
  9
$TDINDWG
 40
1.0788728008999999
  9
$TDUSRTIMER
 40
1.0788728008999999
  9
$USRTIMER
 70
     1
  9
$ANGBASE
 50
0.0
  9
$ANGDIR
 70
     0
  9
$PDMODE
 70
     0
  9
$PDSIZE
 40
0.3125
  9
$PLINEWID
 40
0.0
  9
$COORDS
 70
     1
  9
$SPLFRAME
 70
     0
  9
$SPLINETYPE
 70
     6
  9
$SPLINESEGS
 70
     8
  9
$ATTDIA
 70
     1
  9
$ATTREQ
 70
     1
  9
$HANDLING
 70
     1
  9
$HANDSEED
  5
D598
  9
$SURFTAB1
 70
     6
  9
$SURFTAB2
 70
     6
  9
$SURFTYPE
 70
     6
  9
$SURFU
 70
     6
  9
$SURFV
 70
     6
  9
$UCSNAME
  2

  9
$UCSORG
 10
0.0
 20
0.0
 30
0.0
  9
$UCSXDIR
 10
1.0
 20
0.0
 30
0.0
  9
$UCSYDIR
 10
0.0
 20
1.0
 30
0.0
  9
$PUCSNAME
  2

  9
$PUCSORG
 10
0.0
 20
0.0
 30
0.0
  9
$PUCSXDIR
 10
1.0
 20
0.0
 30
0.0
  9
$PUCSYDIR
 10
0.0
 20
1.0
 30
0.0
  9
$USERI1
 70
     0
  9
$USERI2
 70
     0
  9
$USERI3
 70
     0
  9
$USERI4
 70
     0
  9
$USERI5
 70
     0
  9
$USERR1
 40
0.0
  9
$USERR2
 40
0.0
  9
$USERR3
 40
0.0
  9
$USERR4
 40
0.0
  9
$USERR5
 40
0.0
  9
$WORLDVIEW
 70
     1
  9
$SHADEDGE
 70
     3
  9
$SHADEDIF
 70
    70
  9
$TILEMODE
 70
     1
  9
$MAXACTVP
 70
    64
  9
$PLIMCHECK
 70
     0
  9
$PEXTMIN
 10
1.0000000000000000E+20
 20
1.0000000000000000E+20
 30
1.0000000000000000E+20
  9
$PEXTMAX
 10
-1.0000000000000000E+20
 20
-1.0000000000000000E+20
 30
-1.0000000000000000E+20
  9
$PLIMMIN
 10
0.0
 20
0.0
  9
$PLIMMAX
 10
12.0
 20
9.0
  9
$UNITMODE
 70
     0
  9
$VISRETAIN
 70
     1
  9
$PLINEGEN
 70
     0
  9
$PSLTSCALE
 70
     1
  0
ENDSEC
  0
SECTION
  2
TABLES
  0
TABLE
  2
VPORT
 70
     1
  0
VPORT
  2
*ACTIVE
 70
     0
 10
0.0
 20
0.0
 11
1.0
 21
1.0
 12
445.2331777159988064
 22
11.26607684693208
 13
0.0
 23
0.0
 14
1.0
 24
1.0
 15
0.0
 25
0.0
 16
0.0
 26
0.0
 36
14.15189873613655
 17
2311.2252197265629547
 27
137.8012416672862912
 37
0.0
 40
7.9486741915567221
 41
2.481770833333333
 42
50.0
 43
0.0
 44
0.0
 50
0.0
 51
0.0
 71
     0
 72
   100
 73
     1
 74
     1
 75
     0
 76
     0
 77
     0
 78
     0
  0
ENDTAB
  0
TABLE
  2
LTYPE
 70
     2
  0
LTYPE
  2
CONTINUOUS
 70
     0
  3
Solid line
 72
    65
 73
     0
 40
0.0
  0
LTYPE
  2
PHANTOM2
 70
     0
  3
___ _ _ ___ _ _ ___ _ _ ___ _ _
 72
    65
 73
     6
 40
1.25
 49
0.625
 49
-0.125
 49
0.125
 49
-0.125
 49
0.125
 49
-0.125
  0
ENDTAB
  0
TABLE
  2
LAYER
 70
     2
  0
LAYER
  2
0
 70
     0
 62
   255
  6
CONTINUOUS
  0
LAYER
  2
DEFPOINTS
 70
     0
 62
     7
  6
CONTINUOUS
  0
ENDTAB
  0
TABLE
  2
STYLE
 70
     1
  0
STYLE
  2
STANDARD
 70
     0
 40
0.0
 41
0.8
 50
0.0
 71
     0
 42
0.2
  3
txt
  4

  0
ENDTAB
  0
TABLE
  2
VIEW
 70
     0
  0
ENDTAB
  0
TABLE
  2
UCS
 70
     0
  0
ENDTAB
  0
TABLE
  2
APPID
 70
    10
  0
APPID
  2
ACAD
 70
     0
  0
APPID
  2
ACAD_MLEADERVER
 70
     0
  0
APPID
  2
ACAD_EXEMPT_FROM_CAD_STANDARDS
 70
     0
  0
APPID
  2
ACAD_NAV_VCDISPLAY
 70
     0
  0
APPID
  2
ACAECLAYERSTANDARD
 70
     0
  0
APPID
  2
ACCMTRANSPARENCY
 70
     0
  0
APPID
  2
ACAD_DSTYLE_DIMJAG
 70
     0
  0
APPID
  2
ACAD_DSTYLE_DIMTALN
 70
     0
  0
APPID
  2
ACDBATTR
 70
     0
  0
APPID
  2
DCO15
 70
     0
  0
ENDTAB
  0
TABLE
  2
DIMSTYLE
 70
     1
  0
DIMSTYLE
  2
STANDARD
 70
     0
  3

  4

  5

  6

  7

 40
1.0
 41
0.1875
 42
0.0625
 43
0.38
 44
0.125
 45
0.0
 46
0.0
 47
0.01
 48
0.01
140
0.15625
141
0.09
142
0.0
143
25.3999999999999986
144
1.0
145
0.0
146
1.0
147
0.09
 71
     1
 72
     0
 73
     1
 74
     1
 75
     0
 76
     0
 77
     0
 78
     4
170
     0
171
     2
172
     0
173
     0
174
     0
175
     0
176
     0
177
     0
178
     0
  0
ENDTAB
  0
ENDSEC
  0
SECTION
  2
BLOCKS
  0
BLOCK
  8
0
  2
$MODEL_SPACE
 70
     0
 10
0.0
 20
0.0
 30
0.0
  3
$MODEL_SPACE
  1

  0
ENDBLK
  5
21
  8
0
  0
BLOCK
 67
     1
  8
0
  2
$PAPER_SPACE
 70
     0
 10
0.0
 20
0.0
 30
0.0
  3
$PAPER_SPACE
  1

  0
ENDBLK
  5
1D
 67
     1
  8
0
  0
ENDSEC
  0
SECTION
  2
ENTITIES
  0
ATTDEF
  5
3930
  8
DEFPOINTS
 10
2756.3868008459808152
 20
144.9490811843785991
 30
0.0
 40
0.001
  1
P24905-LV
  3

  2
MODELNUMBER
 70
     0
1001
ACDBATTR
1070
     0
1070
     1
  0
ATTDEF
  5
3931
  8
DEFPOINTS
 10
2756.3868008459808152
 20
144.9474145177119055
 30
0.0
 40
0.001
  1
PINNA PALETTA
  3

  2
TRADENAME
 70
     0
1001
ACDBATTR
1070
     0
1070
     1
  0
ATTDEF
  5
3932
  8
DEFPOINTS
 10
2756.3868008459808152
 20
144.9457478510452972
 30
0.0
 40
0.001
  1
BATHROOM SINK FAUCET
  3

  2
PRODUCT
 70
     0
1001
ACDBATTR
1070
     0
1070
     1
  0
LINE
  5
CFA4
  8
0
 10
2755.9407022843379309
 20
152.5591038336746976
 30
0.0
 11
2755.8737180130378874
 21
152.4921195624746986
 31
0.0
  0
LINE
  5
CFA5
  8
0
 10
2755.9040610695378746
 20
151.9478010047745897
 30
0.0
 11
2755.873630145099014
 21
151.9173700803353029
 31
0.0
  0
LINE
  5
CFA6
  8
0
 10
2756.0492185499379048
 20
152.0334702961746132
 30
0.0
 11
2756.0213797002379579
 21
152.0056314464746094
 31
0.0
  0
LINE
  5
CFA7
  8
0
 10
2756.910502284337781
 20
152.1842876919745891
 30
0.0
 11
2756.8435180130381923
 21
152.11730342077459
 31
0.0
  0
LINE
  5
CFA8
  8
0
 10
2755.8678601486881234
 20
152.4779774268747019
 30
0.0
 11
2755.8678601486881234
 21
152.1984442957104875
 31
0.0
  0
LINE
  5
CFA9
  8
0
 10
2755.8678601486881234
 20
145.5552346048746131
 30
0.0
 11
2755.8678601486881234
 21
151.903440076745909
 31
0.0
  0
LINE
  5
CFAA
  8
0
 10
2756.0156140857379796
 20
151.9732516586747124
 30
0.0
 11
2756.0156140857379796
 21
151.9917120216746014
 31
0.0
  0
LINE
  5
CFAB
  8
0
 10
2756.1121741250381092
 20
152.1014455563746139
 30
0.0
 11
2756.1121741250381092
 21
152.0492359106746107
 31
0.0
  0
LINE
  5
CFAC
  8
0
 10
2756.672046172338014
 20
152.1014455563746139
 30
0.0
 11
2756.672046172338014
 21
152.0492359106746107
 31
0.0
  0
LINE
  5
CFAD
  8
0
 10
2756.7686062116381436
 20
151.9732516586747124
 30
0.0
 11
2756.7686062116381436
 21
151.9917120216746014
 31
0.0
  0
LINE
  5
CFAE
  8
0
 10
2756.9163601486879998
 20
145.5552346048746131
 30
0.0
 11
2756.9163601486879998
 21
151.903440076745909
 31
0.0
  0
LINE
  5
CFAF
  8
0
 10
2755.8737180130378874
 20
152.1842876919745891
 30
0.0
 11
2755.9407022843379309
 21
152.11730342077459
 31
0.0
  0
LINE
  5
CFB0
  8
0
 10
2756.9079980774849901
 20
151.9199621551223061
 30
0.0
 11
2755.8762222199379721
 21
151.919962155174602
 31
0.0
  0
LINE
  5
CFB1
  8
0
 10
2756.8662398029377982
 20
151.9535666193746124
 30
0.0
 11
2755.9179804944378702
 21
151.9535666193746124
 31
0.0
  0
LINE
  5
CFB2
  8
0
 10
2756.0213797002379579
 20
152.0056314464746094
 30
0.0
 11
2756.7628405971381653
 21
152.0056314464746094
 31
0.0
  0
LINE
  5
CFB3
  8
0
 10
2756.7210823226378125
 20
152.0392359106747051
 30
0.0
 11
2756.063137974737856
 21
152.0392359106747051
 31
0.0
  0
LINE
  5
CFB4
  8
0
 10
2755.9548444199381265
 20
152.1114455563746048
 30
0.0
 11
2756.8293758774379967
 21
152.1114455563746048
 31
0.0
  0
LINE
  5
CFB5
  8
0
 10
2756.7350017474382184
 20
152.0334702961746132
 30
0.0
 11
2756.7628405971381653
 21
152.0056314464746094
 31
0.0
  0
LINE
  5
CFB6
  8
0
 10
2756.8801592278377939
 20
151.9478010047745897
 30
0.0
 11
2756.9105901522771092
 21
151.9173700803353029
 31
0.0
  0
LINE
  5
CFB7
  8
0
 10
2756.910502284337781
 20
152.1842876919745891
 30
0.0
 11
2755.8737180130378874
 21
152.1842876919745891
 31
0.0
  0
LINE
  5
CFB8
  8
0
 10
2755.8737180130378874
 20
152.4921195624746986
 30
0.0
 11
2756.910502284337781
 21
152.4921195624746986
 31
0.0
  0
LINE
  5
CFB9
  8
0
 10
2756.8293758774379967
 20
152.5649616980747112
 30
0.0
 11
2755.9548444199381265
 21
152.5649616980747112
 31
0.0
  0
LINE
  5
CFBA
  8
0
 10
2756.8435180130381923
 20
152.5591038336746976
 30
0.0
 11
2756.910502284337781
 21
152.4921195624746986
 31
0.0
  0
ARC
  5
CFBB
  8
0
 10
2755.9179804944378702
 20
151.9338815799746101
 30
0.0
 40
0.0196850394
 50
90.0
 51
134.9999999983936902
  0
ARC
  5
CFBC
  8
0
 10
2755.9959290463380057
 20
151.9732516586747124
 30
0.0
 40
0.0196850394
 50
270.0
 51
0.0
  0
ARC
  5
CFBD
  8
0
 10
2756.0352991250379091
 20
151.9917120216746014
 30
0.0
 40
0.0196850394
 50
135.0000000000046043
 51
180.0
  0
ARC
  5
CFBE
  8
0
 10
2756.063137974737856
 20
152.0195508712745891
 30
0.0
 40
0.0196850394
 50
90.0
 51
134.9999999983936902
  0
ARC
  5
CFBF
  8
0
 10
2756.1021741250378909
 20
152.1014455563746139
 30
0.0
 40
0.01
 50
0.0
 51
90.0
  0
ARC
  5
CFC0
  8
0
 10
2755.8878601781088946
 20
152.1984298471917896
 30
0.0
 40
0.0200000346396539
 50
179.9586081109789859
 51
224.9999802423378981
  0
ARC
  5
CFC1
  8
0
 10
2755.9548444199381265
 20
152.1314455563747003
 30
0.0
 40
0.02
 50
225.0000000001001865
 51
270.0
  0
ARC
  5
CFC2
  8
0
 10
2755.8878601490159781
 20
152.4779774266887102
 30
0.0
 40
0.0200000003282967
 50
135.0000001870816106
 51
179.9999994672496086
  0
ARC
  5
CFC3
  8
0
 10
2755.9548444199381265
 20
152.5449616980745873
 30
0.0
 40
0.02
 50
90.0
 51
135.0000000000046043
  0
ARC
  5
CFC4
  8
0
 10
2756.8662398029377982
 20
151.9338815799746101
 30
0.0
 40
0.0196850394
 50
45.0000000016063098
 51
90.0
  0
ARC
  5
CFC5
  8
0
 10
2756.7882912510381175
 20
151.9732516586747124
 30
0.0
 40
0.0196850394
 50
180.0
 51
270.0
  0
ARC
  5
CFC6
  8
0
 10
2756.7489211723382141
 20
151.9917120216746014
 30
0.0
 40
0.0196850394
 50
0.0
 51
44.9999999999953886
  0
ARC
  5
CFC7
  8
0
 10
2756.7210823226378125
 20
152.0195508712745891
 30
0.0
 40
0.0196850394
 50
45.0000000016063098
 51
90.0
  0
ARC
  5
CFC8
  8
0
 10
2756.6820461723377775
 20
152.1014455563746139
 30
0.0
 40
0.01
 50
90.0
 51
180.0
  0
ARC
  5
CFC9
  8
0
 10
2756.6620461723377957
 20
152.0492359106746107
 30
0.0
 40
0.01
 50
270.0
 51
0.0
  0
ARC
  5
CFCA
  8
0
 10
2756.1221741250378727
 20
152.0492359106746107
 30
0.0
 40
0.01
 50
180.0
 51
270.0
  0
ARC
  5
CFCB
  8
0
 10
2756.8293758774379967
 20
152.1314455563747003
 30
0.0
 40
0.02
 50
270.0
 51
314.9999999998997851
  0
ARC
  5
CFCC
  8
0
 10
2756.8293758774379967
 20
152.5449616980745873
 30
0.0
 40
0.02
 50
44.9999999999953886
 51
90.0
  0
LINE
  5
CFCD
  8
0
 10
2756.9163601486879998
 20
152.4779774268747019
 30
0.0
 11
2756.9163601486879998
 21
152.1984442957104875
 31
0.0
  0
ARC
  5
CFCE
  8
0
 10
2756.8963601483587809
 20
152.4779774266885966
 30
0.0
 40
0.0200000003283978
 50
0.0000005329131833
 51
44.9999998128712093
  0
ARC
  5
CFCF
  8
0
 10
2756.8963601192667738
 20
152.1984298471919033
 30
0.0
 40
0.0200000346397608
 50
315.0000197577151084
 51
0.0413918888549295
  0
LINE
  5
CFD1
  8
0
 10
2757.5134251092881641
 20
144.9512346048747133
 30
0.0
 11
2755.2707951880879591
 21
144.9512346048747133
 31
0.0
  0
LINE
  5
CFD2
  8
0
 10
2757.533110148688138
 20
145.2310158979746859
 30
0.0
 11
2755.2511101486879852
 21
145.2310158979746859
 31
0.0
  0
LINE
  5
CFD3
  8
0
 10
2757.4264452314341725
 20
145.3382346048747138
 30
0.0
 11
2755.35716173208084
 21
145.3382346048747138
 31
0.0
  0
LINE
  5
CFD4
  8
0
 10
2757.2665884951879889
 20
145.4483406370746081
 30
0.0
 11
2755.5176318021881343
 21
145.4483406370746081
 31
0.0
  0
LINE
  5
CFD5
  8
0
 10
2757.1797161809381578
 20
145.5352346048746881
 30
0.0
 11
2755.6045041164370559
 21
145.5352346048746881
 31
0.0
  0
LINE
  5
CFD6
  8
0
 10
2757.440302928588153
 20
145.3325375730200051
 30
0.0
 11
2757.5266733870880671
 21
145.245575565174704
 31
0.0
  0
ARC
  5
CFD7
  8
0
 10
2757.426444245924813
 20
145.3185296723893885
 30
0.0
 40
0.0197049325098789
 50
45.3068003704213282
 51
89.997134451172343
  0
LINE
  5
CFD8
  8
0
 10
2757.1936356056880868
 20
145.5294689902746086
 30
0.0
 11
2757.2608445340879371
 21
145.4622600618747015
 31
0.0
  0
LINE
  5
CFD9
  8
0
 10
2755.2511101486879852
 20
145.2310158979746859
 30
0.0
 11
2755.2511101486879852
 21
144.970919644174586
 31
0.0
  0
LINE
  5
CFDA
  8
0
 10
2755.5176318021881343
 20
145.4483406370746081
 30
0.0
 11
2755.5176318021881343
 21
145.3579196441747001
 31
0.0
  0
LINE
  5
CFDB
  8
0
 10
2755.5906063452362105
 20
145.5294906102892867
 30
0.0
 11
2755.5233757631881417
 21
145.4622600618747015
 31
0.0
  0
LINE
  5
CFDC
  8
0
 10
2755.3439173687879702
 20
145.3328548170285046
 30
0.0
 11
2755.2575469101880117
 21
145.245575565174704
 31
0.0
  0
LINE
  5
CFDD
  8
0
 10
2757.2665884951879889
 20
145.4483406370746081
 30
0.0
 11
2757.2665884951879889
 21
145.3579196441747001
 31
0.0
  0
LINE
  5
CFDE
  8
0
 10
2757.533110148688138
 20
145.2310158979746859
 30
0.0
 11
2757.533110148688138
 21
144.970919644174586
 31
0.0
  0
ARC
  5
CFDF
  8
0
 10
2757.1797161808881356
 20
145.5155495654746005
 30
0.0
 40
0.0196850394
 50
44.9999999999953886
 51
90.0
  0
ARC
  5
CFE0
  8
0
 10
2755.6045041163879432
 20
145.5155495654746005
 30
0.0
 40
0.0196850393999999
 50
90.0
 51
134.9109374403174968
  0
ARC
  5
CFE1
  8
0
 10
2755.5371754098077872
 20
145.448420670362907
 30
0.0
 40
0.0195437714915726
 50
134.9176086111365862
 51
180.2346313994137859
  0
ARC
  5
CFE2
  8
0
 10
2755.4979097776040362
 20
145.3579566581319966
 30
0.0
 40
0.0197220593166907
 50
270.0445410294690873
 51
359.8924683903064761
  0
ARC
  5
CFE3
  8
0
 10
2755.356489209188112
 20
145.3208973967115014
 30
0.0
 40
0.0173502470857109
 50
87.7785688770009358
 51
136.4348707065952055
  0
ARC
  5
CFE4
  8
0
 10
2755.2707951880879591
 20
145.2310158979746859
 30
0.0
 40
0.0196850394
 50
132.3000000000093053
 51
180.0
  0
ARC
  5
CFE5
  8
0
 10
2755.2707951880879591
 20
144.970919644174586
 30
0.0
 40
0.0196850394
 50
180.0
 51
270.0
  0
ARC
  5
CFE6
  8
0
 10
2757.2863105197711775
 20
145.3579566581319966
 30
0.0
 40
0.0197220593166626
 50
180.1075316096136021
 51
269.9554589705829812
  0
ARC
  5
CFE7
  8
0
 10
2757.2470448875678812
 20
145.448420670362907
 30
0.0
 40
0.0195437714916793
 50
359.7653686007636793
 51
45.0823913887942211
  0
ARC
  5
CFE8
  8
0
 10
2757.5134954113291315
 20
144.9708493421335902
 30
0.0
 40
0.0196148633449181
 50
269.7946445614235245
 51
0.2053554385324374
  0
ARC
  5
CFE9
  8
0
 10
2757.5134251092881641
 20
145.2310158979746006
 30
0.0
 40
0.0196850394001071
 50
0.0000000001872711
 51
47.6999999999407081
  0
ARC
  5
CFEA
  8
0
 10
2755.89296770000783
 20
145.5604634099040879
 30
0.0
 40
0.0256462382296803
 50
191.7640572255297968
 51
259.6483370512295892
  0
ARC
  5
CFEB
  8
0
 10
2756.891252005512797
 20
145.5604641385677951
 30
0.0
 40
0.0256469662215865
 50
280.3515072776779107
 51
348.2346186947253841
  0
LINE
  5
CFEC
  8
0
 10
2755.8901416446879011
 20
151.1256984508376036
 30
0.0
 11
2755.8901416446879011
 21
150.6723857797379083
 31
0.0
  0
LINE
  5
CFED
  8
0
 10
2755.8901416446879011
 20
150.1896693660376059
 30
0.0
 11
2755.8901416446879011
 21
150.6723857797379083
 31
0.0
  0
LINE
  5
CFEE
  8
0
 10
2756.0722414887382001
 20
150.1157645262746883
 30
0.0
 11
2756.0722414887382001
 21
150.0782594890746111
 31
0.0
  0
LINE
  5
CFEF
  8
0
 10
2756.0722414887382001
 20
150.1346609641747136
 30
0.0
 11
2756.0722414887382001
 21
150.1708776261745868
 31
0.0
  0
LINE
  5
CFF0
  8
0
 10
2756.0921844002377838
 20
150.0321410310745875
 30
0.0
 11
2756.0921844002377838
 21
150.0014550915747122
 31
0.0
  0
LINE
  5
CFF1
  8
0
 10
2756.0948660542380821
 20
150.191698947474606
 30
0.0
 11
2756.0948660542380821
 21
150.1473748125746113
 31
0.0
  0
LINE
  5
CFF2
  8
0
 10
2756.1260469847379682
 20
150.0133105100746036
 30
0.0
 11
2756.1260469847379682
 21
150.0508155472747092
 31
0.0
  0
LINE
  5
CFF3
  8
0
 10
2756.2058107156381084
 20
150.0109336817745884
 30
0.0
 11
2756.2058107156381084
 21
149.9734286445747102
 31
0.0
  0
LINE
  5
CFF4
  8
0
 10
2756.2058107156381084
 20
150.2391845538595021
 30
0.0
 11
2756.2058107156381084
 21
150.2558354762751094
 31
0.0
  0
LINE
  5
CFF5
  8
0
 10
2756.3285303041379848
 20
149.9568565577746142
 30
0.0
 11
2756.3285303041379848
 21
149.9261706182747105
 31
0.0
  0
LINE
  5
CFF6
  8
0
 10
2756.3357086736377823
 20
149.9465258966745864
 30
0.0
 11
2756.3357086736377823
 21
149.9840309337417921
 31
0.0
  0
LINE
  5
CFF7
  8
0
 10
2756.0722414887382001
 20
150.1346609641747136
 30
0.0
 11
2756.0720771878382038
 21
150.1336934241745098
 31
0.0
  0
LINE
  5
CFF8
  8
0
 10
2756.3343413651377887
 20
149.9733346402746861
 30
0.0
 11
2756.3285303041379848
 21
149.9568565577746142
 31
0.0
  0
LINE
  5
CFF9
  8
0
 10
2756.3292139583381868
 20
149.9246996673747105
 30
0.0
 11
2756.3350250194380351
 21
149.9411777498746119
 31
0.0
  0
LINE
  5
CFFA
  8
0
 10
2756.1195969686377794
 20
150.0417382746747137
 30
0.0
 11
2756.0921844002377838
 21
150.0321410310745875
 31
0.0
  0
LINE
  5
CFFB
  8
0
 10
2756.0683642928379413
 20
150.0745081131746019
 30
0.0
 11
2756.0354081279378988
 21
150.0716025825747124
 31
0.0
  0
LINE
  5
CFFC
  8
0
 10
2756.0354081279378988
 20
150.1344987729746094
 30
0.0
 11
2756.0683642928379413
 21
150.1315932423746062
 31
0.0
  0
LINE
  5
CFFD
  8
0
 10
2756.0644870970381817
 20
150.166030557874592
 30
0.0
 11
2756.0498587957881682
 21
150.1673202399427112
 31
0.0
  0
LINE
  5
CFFE
  8
0
 10
2756.1228219766380789
 20
150.1973294817746023
 30
0.0
 11
2756.0951303288511554
 21
150.2070244320196082
 31
0.0
  0
LINE
  5
CFFF
  8
0
 10
2756.0507716546571828
 20
149.9799296317582957
 30
0.0
 11
2755.9846461239330893
 21
150.0266874429376003
 31
0.0
  0
LINE
  5
D000
  8
0
 10
2756.186501205363129
 20
150.2498706790225071
 30
0.0
 11
2756.2035525406381566
 21
150.2376947637746127
 31
0.0
  0
LINE
  5
D001
  8
0
 10
2756.3292139583381868
 20
149.9246996673747105
 30
0.0
 11
2756.3288681038820869
 21
149.9241863331727984
 31
0.0
  0
LINE
  5
D002
  8
0
 10
2756.2035525406381566
 20
149.9684065917747091
 30
0.0
 11
2756.1843580536378795
 21
149.9547003075747114
 31
0.0
  0
LINE
  5
D003
  8
0
 10
2756.0954094082380834
 20
149.9991746302746947
 30
0.0
 11
2756.1228219766380789
 21
150.0087718737746059
 31
0.0
  0
ARC
  5
D004
  8
0
 10
2756.3895273003809052
 20
149.4811657813586123
 30
0.0
 40
0.8199258762304386
 50
89.8195231114584374
 51
94.0180213180045143
  0
ARC
  5
D005
  8
0
 10
2756.392793387526126
 20
149.4853814738713993
 30
0.0
 40
0.79666467574829
 50
90.0491100607211479
 51
91.8779215083094698
  0
ARC
  5
D006
  8
0
 10
2756.3918887723380067
 20
149.5325522175747039
 30
0.0
 40
0.7494898971
 50
91.9269739379932105
 51
94.802119719105022
  0
ARC
  5
D007
  8
0
 10
2756.3920670269708353
 20
149.538113726175709
 30
0.0
 40
0.7425923870110369
 50
89.9966728821912483
 51
91.9503531726327452
  0
ARC
  5
D008
  8
0
 10
2756.3918703541380637
 20
149.541200850574711
 30
0.0
 40
0.7395003631999999
 50
91.9432643657894317
 51
94.8569636398033538
  0
ARC
  5
D009
  8
0
 10
2756.38827227933416
 20
149.5732495537725981
 30
0.0
 40
0.7086326918797364
 50
94.7862050201677846
 51
99.4126613702155026
  0
ARC
  5
D00A
  8
0
 10
2756.3881524270618684
 20
149.5829882462726061
 30
0.0
 40
0.6975482472640704
 50
94.8432875468299841
 51
99.5349083204056058
  0
ARC
  5
D00B
  8
0
 10
2756.3782855124381967
 20
149.6349844847746056
 30
0.0
 40
0.6460957278000001
 50
99.4343055325955731
 51
103.4573677788101946
  0
ARC
  5
D00C
  8
0
 10
2756.3776966905379595
 20
149.6466773294746986
 30
0.0
 40
0.6330071058
 50
99.5565149322011536
 51
103.6621780194973041
  0
ARC
  5
D00D
  8
0
 10
2755.9489701438378688
 20
150.1586759274148051
 30
0.0
 40
0.0579202533132785
 50
184.4144165082323923
 51
199.5894024747435935
  0
ARC
  5
D00E
  8
0
 10
2756.5110240649951265
 20
150.1908430092271942
 30
0.0
 40
0.6208835295642094
 50
180.1083050818147058
 51
183.3817746396088069
  0
ARC
  5
D00F
  8
0
 10
2756.0219896552330283
 20
150.1702635455376083
 30
0.0
 40
0.1283243098
 50
186.8616090715013911
 51
193.6654073115988979
  0
ARC
  5
D010
  8
0
 10
2756.0178890587649221
 20
150.1697770548711048
 30
0.0
 40
0.1241949618384193
 50
180.0046373327957951
 51
186.8647916834588045
  0
ARC
  5
D011
  8
0
 10
2756.2843896824228977
 20
149.8566495756566894
 30
0.0
 40
0.5612758667652075
 50
110.7336687533297948
 51
115.3298375205095994
  0
ARC
  5
D012
  8
0
 10
2756.1701524778682142
 20
150.1916402378078885
 30
0.0
 40
0.0752864465211591
 50
168.5450412609355908
 51
179.9553197605141861
  0
ARC
  5
D013
  8
0
 10
2756.1885578377377897
 20
150.1303260393746086
 30
0.0
 40
0.0680976588
 50
177.1705095368000116
 51
179.9977132710002081
  0
ARC
  5
D014
  8
0
 10
2756.3920397796377983
 20
150.6488255735746122
 30
0.0
 40
0.7321194651000001
 50
265.0237913626955901
 51
270.0055070924486245
  0
ARC
  5
D015
  8
0
 10
2756.3921101487380838
 20
150.6456165847745865
 30
0.0
 40
0.7241969098000001
 50
264.9901420803059864
 51
269.9999999960396053
  0
ARC
  5
D016
  8
0
 10
2756.3871098231611541
 20
151.1306937341493892
 30
0.0
 40
0.4969932829227166
 50
89.4235465323554735
 51
180.5758900174824078
  0
ARC
  5
D017
  8
0
 10
2756.4097232280319076
 20
149.8948260981231897
 30
0.0
 40
1.011182817783197
 50
90.9980539731734837
 51
109.6340545427778039
  0
ARC
  5
D018
  8
0
 10
2756.2053412591508277
 20
150.495906051532387
 30
0.0
 40
0.3764953754550622
 50
111.0755159455315066
 51
136.5139939266555018
  0
ARC
  5
D019
  8
0
 10
2756.0965012354467945
 20
150.6193891241505867
 30
0.0
 40
0.213056157390152
 50
140.4678766097646019
 51
165.5967393426896876
  0
ARC
  5
D01A
  8
0
 10
2756.3878960884071603
 20
150.4621274514763911
 30
0.0
 40
0.5209370714310702
 50
264.2321107206627744
 51
270.4634926468971798
  0
ARC
  5
D01B
  8
0
 10
2756.3151328736907999
 20
149.9464383342730969
 30
0.0
 40
0.020575986261111
 50
345.1869352755747968
 51
0.2438265235007946
  0
ARC
  5
D01C
  8
0
 10
2756.3815451782620585
 20
150.5868265776134933
 30
0.0
 40
0.632196806994661
 50
253.8606584768859875
 51
265.1896309816410167
  0
ARC
  5
D01D
  8
0
 10
2756.3804354528820113
 20
150.5270437124393084
 30
0.0
 40
0.544851688636795
 50
251.3068599651705881
 51
265.291300960379715
  0
ARC
  5
D01E
  8
0
 10
2756.3379643506141292
 20
149.9260365457676869
 30
0.0
 40
0.0094349991173533
 50
179.1857924676425
 51
187.7467127153236959
  0
ARC
  5
D01F
  8
0
 10
2756.3301007461132031
 20
149.9249251382894101
 30
0.0
 40
0.0014939205156285
 50
186.162661253618694
 51
204.6586339837994899
  0
ARC
  5
D020
  8
0
 10
2756.3289223104738994
 20
149.9243704472914942
 30
0.0
 40
0.0001919280159274
 50
200.9387115083638093
 51
253.594598834444696
  0
ARC
  5
D021
  8
0
 10
2756.198965498942016
 20
149.9734878858639888
 30
0.0
 40
0.0068454730397226
 50
312.0735453508495993
 51
359.5041514003993939
  0
ARC
  5
D022
  8
0
 10
2756.32679147862018
 20
150.3152485174882997
 30
0.0
 40
0.3653894062916989
 50
236.4966274327071005
 51
250.5643406222702083
  0
ARC
  5
D023
  8
0
 10
2756.1209078278639026
 20
150.013547117310992
 30
0.0
 40
0.0051446006998551
 50
291.8433026147172882
 51
357.3639587292555007
  0
ARC
  5
D024
  8
0
 10
2756.1831970890648336
 20
149.9562558549127971
 30
0.0
 40
0.0019410219630247
 50
283.6279469252216927
 51
306.7353899095929819
  0
ARC
  5
D025
  8
0
 10
2756.1833987925151632
 20
149.9554297823785873
 30
0.0
 40
0.0010906828062274
 50
251.7437937330684008
 51
283.5549967694460065
  0
ARC
  5
D026
  8
0
 10
2756.297351409833027
 20
150.2952840364229132
 30
0.0
 40
0.3595402659778672
 50
235.3989708768797868
 51
251.4646249041882129
  0
ARC
  5
D027
  8
0
 10
2756.0944400247371959
 20
150.0012243561891978
 30
0.0
 40
0.0022673951348156
 50
174.1593383492115095
 51
295.3110230313160969
  0
ARC
  5
D028
  8
0
 10
2756.1159967194021192
 20
150.050999217255594
 30
0.0
 40
0.0099361386867513
 50
291.2439031571070132
 51
325.2048048946153926
  0
ARC
  5
D029
  8
0
 10
2756.1161744705441379
 20
150.0511489123190927
 30
0.0
 40
0.0098781409562582
 50
323.9033358003403009
 51
358.0660290599162181
  0
ARC
  5
D02A
  8
0
 10
2756.2035927752940552
 20
150.1924824028280057
 30
0.0
 40
0.1952464635488249
 50
217.7949805671705974
 51
235.2076583330430992
  0
ARC
  5
D02B
  8
0
 10
2756.2040307482448043
 20
150.1701808680427916
 30
0.0
 40
0.1425817210329927
 50
202.4359371090912134
 51
236.8426074415939979
  0
ARC
  5
D02C
  8
0
 10
2756.3609030038901437
 20
150.4443456505769063
 30
0.0
 40
0.5258771663232417
 50
241.7536271194096003
 51
266.4710998745653114
  0
ARC
  5
D02D
  8
0
 10
2756.2166139423320601
 20
150.1710500554738985
 30
0.0
 40
0.2168501199751359
 50
218.3023041186330033
 51
241.1634272978373019
  0
ARC
  5
D02E
  8
0
 10
2756.1426188654108955
 20
150.1100232707701139
 30
0.0
 40
0.1209743274274002
 50
197.8002942707973091
 51
217.3417945625976131
  0
ARC
  5
D02F
  8
0
 10
2756.1174257976258559
 20
150.1012114453428126
 30
0.0
 40
0.0942960431602931
 50
176.6153279991958982
 51
197.3819722391395999
  0
ARC
  5
D030
  8
0
 10
2756.1244226229518972
 20
150.0978030935075935
 30
0.0
 40
0.1015259086135328
 50
147.6632622405494999
 51
174.9280729286334122
  0
ARC
  5
D031
  8
0
 10
2756.1922811914519116
 20
150.0505527955035063
 30
0.0
 40
0.1841705048796593
 50
121.9946166317299969
 51
146.5352833950034039
  0
ARC
  5
D032
  8
0
 10
2756.3869091792362269
 20
150.571237391513705
 30
0.0
 40
0.668211774697025
 50
250.1837915105500088
 51
270.4459613241301099
  0
ARC
  5
D033
  8
0
 10
2756.2674336302111442
 20
150.2395953609403136
 30
0.0
 40
0.3157052617201621
 50
227.3314920436968976
 51
250.1788539628942942
  0
ARC
  5
D034
  8
0
 10
2756.1467893945009564
 20
150.1067719155734039
 30
0.0
 40
0.1362809006133727
 50
199.0739120262809934
 51
226.7791840105450945
  0
ARC
  5
D035
  8
0
 10
2756.109312271466024
 20
150.0924864823911946
 30
0.0
 40
0.0962012257311466
 50
166.6068409866813056
 51
198.326987330612809
  0
ARC
  5
D036
  8
0
 10
2756.1365045160841873
 20
150.0836807484913038
 30
0.0
 40
0.124714243183087
 50
140.1638267474122017
 51
165.5649823579196891
  0
ARC
  5
D037
  8
0
 10
2756.2108960451109851
 20
150.0202724268357031
 30
0.0
 40
0.2224593922053958
 50
121.9827572219941061
 51
139.8972241389903957
  0
ARC
  5
D038
  8
0
 10
2756.2996074118950673
 20
149.8791881655077134
 30
0.0
 40
0.3891156904867407
 50
109.6366028688409955
 51
122.0590884246208958
  0
ARC
  5
D039
  8
0
 10
2756.3538121215001411
 20
149.7347197318607925
 30
0.0
 40
0.5434037063395567
 50
103.3950673218460992
 51
109.9005407536048011
  0
ARC
  5
D03A
  8
0
 10
2756.375355766957
 20
149.6097846353594889
 30
0.0
 40
0.6906491675208926
 50
93.592905095621731
 51
108.6440768138819948
  0
ARC
  5
D03B
  8
0
 10
2756.2692820878178281
 20
149.9106499204148122
 30
0.0
 40
0.3716870999869871
 50
107.9774980873159933
 51
129.8168131645132917
  0
ARC
  5
D03C
  8
0
 10
2756.1290489320649613
 20
150.0782710677148941
 30
0.0
 40
0.1531422789760661
 50
129.6751022536523124
 51
163.1138973417851901
  0
ARC
  5
D03D
  8
0
 10
2756.0866505224012144
 20
150.0956783907423926
 30
0.0
 40
0.1076032216408513
 50
165.4261591237219875
 51
209.9881899782313042
  0
ARC
  5
D03E
  8
0
 10
2756.1482520302538433
 20
150.1302162628720112
 30
0.0
 40
0.1782229609082247
 50
209.7067223553611086
 51
227.0946546811208009
  0
ARC
  5
D03F
  8
0
 10
2756.2299799117681687
 20
150.2207253450145004
 30
0.0
 40
0.3001635803015375
 50
227.429390355988005
 51
245.5198535744877972
  0
ARC
  5
D040
  8
0
 10
2756.3315539273189643
 20
150.4251913420590085
 30
0.0
 40
0.5283954686149882
 50
244.6830620419738125
 51
255.5071167790883919
  0
ARC
  5
D041
  8
0
 10
2756.403450565771891
 20
150.7831794783853923
 30
0.0
 40
0.8932083230981094
 50
256.788940171860304
 51
269.2725276296421839
  0
ARC
  5
D042
  8
0
 10
2756.3881854736291643
 20
150.5030807301480138
 30
0.0
 40
0.5141854628224448
 50
252.4307641155720034
 51
270.4373315011919203
  0
ARC
  5
D043
  8
0
 10
2756.3169007801297994
 20
150.2835701147926954
 30
0.0
 40
0.2834016158336368
 50
231.1374740196650066
 51
252.7741391414334089
  0
ARC
  5
D044
  8
0
 10
2756.219737556778
 20
150.1622096508922084
 30
0.0
 40
0.1279393411554173
 50
201.7330563464354896
 51
230.9173196512444974
  0
ARC
  5
D045
  8
0
 10
2756.1802260335798564
 20
150.1460322217789098
 30
0.0
 40
0.0852470346795651
 50
159.9219624793032892
 51
201.4661672089654871
  0
ARC
  5
D046
  8
0
 10
2756.1953394581000794
 20
150.137788170188486
 30
0.0
 40
0.1023040348852989
 50
142.3388470703924042
 51
158.4911039417698078
  0
ARC
  5
D047
  8
0
 10
2756.389772212778098
 20
150.4916901240700042
 30
0.0
 40
0.4971953329186188
 50
253.8901030366284886
 51
270.2694021127712176
  0
ARC
  5
D048
  8
0
 10
2756.3325227312179777
 20
150.2959860449028895
 30
0.0
 40
0.2932915185189223
 50
238.6011435941146885
 51
254.0263195123878006
  0
ARC
  5
D049
  8
0
 10
2756.2663182039709682
 20
150.1872988411888912
 30
0.0
 40
0.1660283106883226
 50
222.3414837286711077
 51
238.5612460008283051
  0
ARC
  5
D04A
  8
0
 10
2756.2165462204447977
 20
150.1413379087921101
 30
0.0
 40
0.0982837999895464
 50
201.602155937281907
 51
222.0803636725960075
  0
ARC
  5
D04B
  8
0
 10
2756.1911725054042108
 20
150.1305183238843028
 30
0.0
 40
0.0707125805078704
 50
180.1535990188403957
 51
201.0203200275120139
  0
ARC
  5
D04C
  8
0
 10
2756.1827424259840882
 20
150.2048710476063889
 30
0.0
 40
0.1179897131882281
 50
200.5232071448290014
 51
224.3032580625346952
  0
ARC
  5
D04D
  8
0
 10
2756.0355863191780372
 20
150.1385596884225038
 30
0.0
 40
0.0040648230457281
 50
177.109278568416812
 51
267.487497309555124
  0
ARC
  5
D04E
  8
0
 10
2756.068865411571096
 20
150.1350394084155084
 30
0.0
 40
0.003482410137501
 50
261.7264156077025063
 51
337.2625225398243174
  0
ARC
  5
D04F
  8
0
 10
2756.1488932413049042
 20
150.1062038885989978
 30
0.0
 40
0.0815866449635643
 50
160.3096487277857989
 51
200.0299887365468976
  0
ARC
  5
D050
  8
0
 10
2756.0681595852151986
 20
150.0785989925103934
 30
0.0
 40
0.0040959979187139
 50
272.8646916242831253
 51
355.2454916104283029
  0
ARC
  5
D051
  8
0
 10
2756.0348864881661939
 20
150.0750124696307068
 30
0.0
 40
0.0034495561724334
 50
202.3134633882862943
 51
278.6975984643569859
  0
ARC
  5
D052
  8
0
 10
2756.1244107759689541
 20
150.1067915816979905
 30
0.0
 40
0.0984430888965275
 50
180.1928554472308974
 51
199.6407369982543116
  0
ARC
  5
D053
  8
0
 10
2756.1264537134320562
 20
150.1058007557778069
 30
0.0
 40
0.1004876326736181
 50
160.850167431294409
 51
179.6239819408658889
  0
ARC
  5
D054
  8
0
 10
2756.3554692296861504
 20
149.7371169883780908
 30
0.0
 40
0.5398764122585439
 50
103.6370272366356033
 51
108.9487205156762002
  0
ARC
  5
D055
  8
0
 10
2756.2994839812668033
 20
149.8893780598401975
 30
0.0
 40
0.3777031016742773
 50
108.4164297722124957
 51
122.8322630124204977
  0
ARC
  5
D056
  8
0
 10
2756.0654534528061959
 20
150.1731108851159888
 30
0.0
 40
0.007145969305461
 50
262.2280288257368852
 51
341.78883161760848
  0
ARC
  5
D057
  8
0
 10
2756.1715213580960153
 20
150.1340737756694068
 30
0.0
 40
0.1058820847539642
 50
136.8640813334552888
 51
159.6598493812163895
  0
ARC
  5
D058
  8
0
 10
2756.123767506267086
 20
150.1996407048229969
 30
0.0
 40
0.0024971540315617
 50
247.7503543305491007
 51
302.5174315984702957
  0
ARC
  5
D059
  8
0
 10
2756.3070870293440748
 20
149.9331178497743906
 30
0.0
 40
0.3209861919103254
 50
108.5757575004353015
 51
124.536521406747994
  0
ARC
  5
D05A
  8
0
 10
2756.2047836070100857
 20
150.2393739615467894
 30
0.0
 40
0.002082121410891
 50
233.7538253078529067
 51
250.6687006545666918
  0
ARC
  5
D05B
  8
0
 10
2756.2045057500631628
 20
150.2385102029400059
 30
0.0
 40
0.0011753220813523
 50
249.511393804878395
 51
286.2288958918928188
  0
ARC
  5
D05C
  8
0
 10
2756.2044644070729191
 20
150.2384373526334116
 30
0.0
 40
0.0011185423758278
 50
289.3066331867365193
 51
325.7577396410470101
  0
ARC
  5
D05D
  8
0
 10
2756.2028511683561192
 20
150.2393381812171071
 30
0.0
 40
0.0029635319263525
 50
328.9121504463806218
 51
357.0284962084343192
  0
ARC
  5
D05E
  8
0
 10
2756.3878674494371808
 20
149.4713186501836901
 30
0.0
 40
0.9462789314074548
 50
89.7431193995884655
 51
101.874846263227596
  0
ARC
  5
D05F
  8
0
 10
2756.3309606605748741
 20
149.7360868834109908
 30
0.0
 40
0.6754679989929512
 50
101.7725166840521069
 51
114.9235108014477049
  0
ARC
  5
D060
  8
0
 10
2756.1826805672340015
 20
150.041472206461691
 30
0.0
 40
0.3360861308415914
 50
113.9382391445041947
 51
138.1147447201036016
  0
ARC
  5
D061
  8
0
 10
2756.0450834173398107
 20
150.164544575167298
 30
0.0
 40
0.1514793714132738
 50
138.0239048032790095
 51
178.0242697380469963
  0
ARC
  5
D062
  8
0
 10
2756.0473703862271577
 20
150.1782161573335941
 30
0.0
 40
0.1548750546799458
 50
194.3058947044476099
 51
214.5810830213783902
  0
ARC
  5
D063
  8
0
 10
2756.1247761273639298
 20
150.2341754801529987
 30
0.0
 40
0.2503751254598988
 50
215.0706494065759102
 51
235.9663148059856894
  0
ARC
  5
D064
  8
0
 10
2756.0556444796497999
 20
150.1900334833320017
 30
0.0
 40
0.1690482769457827
 50
197.4797821343146893
 51
211.3104684522631089
  0
ARC
  5
D065
  8
0
 10
2756.1068344575792253
 20
150.2225217047511876
 30
0.0
 40
0.2296693717458037
 50
211.5985086205861023
 51
228.2374018168389966
  0
ARC
  5
D066
  8
0
 10
2756.3825450080980772
 20
149.5475767292427065
 30
0.0
 40
0.8852567446472565
 50
89.3809208769755941
 51
109.5931268837819061
  0
ARC
  5
D067
  8
0
 10
2756.1660078462791716
 20
150.073870661490389
 30
0.0
 40
0.3146059614417858
 50
112.767077133900699
 51
142.6561964405277081
  0
ARC
  5
D068
  8
0
 10
2756.0147222311447877
 20
150.1888559412768984
 30
0.0
 40
0.1245832419788001
 50
142.4929948376249058
 51
179.6259036437297141
  0
ARC
  5
D069
  8
0
 10
2756.389886392608787
 20
149.7640136838869864
 30
0.0
 40
0.5021450795918728
 50
89.7462817446023138
 51
104.1899139184575063
  0
ARC
  5
D06A
  8
0
 10
2756.3326361995591469
 20
149.9699683758134938
 30
0.0
 40
0.2884838628091697
 50
103.1935672283503038
 51
126.0141951417352999
  0
ARC
  5
D06B
  8
0
 10
2756.2446938481198231
 20
150.0968988042947956
 30
0.0
 40
0.1341502793360812
 50
127.5088887404988043
 51
145.5260696483697984
  0
ARC
  5
D06C
  8
0
 10
2756.1988527297748988
 20
150.1284824401944036
 30
0.0
 40
0.0784823308822585
 50
145.5914345203977973
 51
176.1971963498656066
  0
LINE
  5
D06D
  8
0
 10
2756.8940786525881776
 20
151.1256984508376036
 30
0.0
 11
2756.8940786525881776
 21
150.6720988931375871
 31
0.0
  0
LINE
  5
D06E
  8
0
 10
2756.8940786525881776
 20
150.1896693660376059
 30
0.0
 11
2756.8940786525881776
 21
150.6720988931375871
 31
0.0
  0
LINE
  5
D06F
  8
0
 10
2756.7119788086379231
 20
150.1157645262746883
 30
0.0
 11
2756.7119788086379231
 21
150.0782594890746111
 31
0.0
  0
LINE
  5
D070
  8
0
 10
2756.7119788086379231
 20
150.1346609641747136
 30
0.0
 11
2756.7119788086379231
 21
150.1708776261745868
 31
0.0
  0
LINE
  5
D071
  8
0
 10
2756.6920358971378846
 20
150.0321410310745875
 30
0.0
 11
2756.6920358971378846
 21
150.0014550915747122
 31
0.0
  0
LINE
  5
D072
  8
0
 10
2756.6893542431380411
 20
150.191698947474606
 30
0.0
 11
2756.6893542431380411
 21
150.1473748125746113
 31
0.0
  0
LINE
  5
D073
  8
0
 10
2756.658173312638155
 20
150.0133105100746036
 30
0.0
 11
2756.658173312638155
 21
150.0508155472747092
 31
0.0
  0
LINE
  5
D074
  8
0
 10
2756.5784095817380148
 20
150.0109336817745884
 30
0.0
 11
2756.5784095817380148
 21
149.9734286445747102
 31
0.0
  0
LINE
  5
D075
  8
0
 10
2756.5784095817380148
 20
150.2391845538595021
 30
0.0
 11
2756.5784095817380148
 21
150.2558354762751094
 31
0.0
  0
LINE
  5
D076
  8
0
 10
2756.4556899932381384
 20
149.9568565577746142
 30
0.0
 11
2756.4556899932381384
 21
149.9261706182747105
 31
0.0
  0
LINE
  5
D077
  8
0
 10
2756.4485116237378861
 20
149.9465258966745864
 30
0.0
 11
2756.4485116237378861
 21
149.9840309337417921
 31
0.0
  0
LINE
  5
D078
  8
0
 10
2756.7119788086379231
 20
150.1346609641747136
 30
0.0
 11
2756.7121431095379194
 21
150.1336934241745098
 31
0.0
  0
LINE
  5
D079
  8
0
 10
2756.4498789322378798
 20
149.9733346402746861
 30
0.0
 11
2756.4556899932381384
 21
149.9568565577746142
 31
0.0
  0
LINE
  5
D07A
  8
0
 10
2756.4550063390379364
 20
149.9246996673747105
 30
0.0
 11
2756.4491952779380881
 21
149.9411777498746119
 31
0.0
  0
LINE
  5
D07B
  8
0
 10
2756.6646233287378891
 20
150.0417382746747137
 30
0.0
 11
2756.6920358971378846
 21
150.0321410310745875
 31
0.0
  0
LINE
  5
D07C
  8
0
 10
2756.7158560045381819
 20
150.0745081131746019
 30
0.0
 11
2756.7488121694382244
 21
150.0716025825747124
 31
0.0
  0
LINE
  5
D07D
  8
0
 10
2756.7488121694382244
 20
150.1344987729746094
 30
0.0
 11
2756.7158560045381819
 21
150.1315932423746062
 31
0.0
  0
LINE
  5
D07E
  8
0
 10
2756.7197332003379415
 20
150.166030557874592
 30
0.0
 11
2756.734361501587955
 21
150.1673202399427112
 31
0.0
  0
LINE
  5
D07F
  8
0
 10
2756.6613983207371348
 20
150.1973294817746023
 30
0.0
 11
2756.6890899685240583
 21
150.2070244320196082
 31
0.0
  0
LINE
  5
D080
  8
0
 10
2756.7279008113100645
 20
149.9799296317582957
 30
0.0
 11
2756.7940263420327938
 21
150.0266874429376003
 31
0.0
  0
LINE
  5
D081
  8
0
 10
2756.5977190920129942
 20
150.2498706790225071
 30
0.0
 11
2756.5806677567379666
 21
150.2376947637746127
 31
0.0
  0
LINE
  5
D082
  8
0
 10
2756.4550063390379364
 20
149.9246996673747105
 30
0.0
 11
2756.4553521934940363
 21
149.9241863331727984
 31
0.0
  0
LINE
  5
D083
  8
0
 10
2756.5806677567379666
 20
149.9684065917747091
 30
0.0
 11
2756.599862243737789
 21
149.9547003075747114
 31
0.0
  0
LINE
  5
D084
  8
0
 10
2756.6888108891380398
 20
149.9991746302746947
 30
0.0
 11
2756.6613983207371348
 21
150.0087718737746059
 31
0.0
  0
ARC
  5
D085
  8
0
 10
2756.3890802384730705
 20
149.479933832592593
 30
0.0
 40
0.8211593466815337
 50
85.983482694965943
 51
89.7886006153380265
  0
ARC
  5
D086
  8
0
 10
2756.3921105528379485
 20
149.5241576435446973
 30
0.0
 40
0.7578882134299115
 50
89.3701952241496684
 51
90.0000009236794938
  0
ARC
  5
D087
  8
0
 10
2756.3921461184381769
 20
149.5278475387837887
 30
0.0
 40
0.7541981501908807
 50
88.0709670173816477
 51
89.3698157069514281
  0
ARC
  5
D088
  8
0
 10
2756.3923315250381165
 20
149.5325522175747039
 30
0.0
 40
0.7494898971
 50
85.197880280894978
 51
88.0730260620067753
  0
ARC
  5
D089
  8
0
 10
2756.3921532704039237
 20
149.538113726175709
 30
0.0
 40
0.7425923870110369
 50
88.049646827367269
 51
90.0033271178087659
  0
ARC
  5
D08A
  8
0
 10
2756.3923499432380595
 20
149.541200850574711
 30
0.0
 40
0.7395003631999999
 50
85.1430363601966462
 51
88.0567356342105541
  0
ARC
  5
D08B
  8
0
 10
2756.3959480180419632
 20
149.5732495537725981
 30
0.0
 40
0.7086326918797364
 50
80.5873386297845116
 51
85.2137949798322154
  0
ARC
  5
D08C
  8
0
 10
2756.3960678703128906
 20
149.5829882462726061
 30
0.0
 40
0.6975482472640704
 50
80.4650916795943942
 51
85.1567124531700301
  0
ARC
  5
D08D
  8
0
 10
2756.4059347849379265
 20
149.6349844847746056
 30
0.0
 40
0.6460957278000001
 50
76.5426322211897912
 51
80.5656944674044269
  0
ARC
  5
D08E
  8
0
 10
2756.4065236068381637
 20
149.6466773294746986
 30
0.0
 40
0.6330071058
 50
76.3378219805026959
 51
80.4434850677988607
  0
ARC
  5
D08F
  8
0
 10
2756.7412620483328283
 20
150.1835764419375892
 30
0.0
 40
0.1497182656
 50
342.7811843948031196
 51
348.6914479057999188
  0
ARC
  5
D090
  8
0
 10
2756.7189133638739804
 20
150.2011058497768943
 30
0.0
 40
0.1755382338144237
 50
344.507625825384082
 51
356.2644793463642827
  0
ARC
  5
D091
  8
0
 10
2756.7566828107328547
 20
150.1702635455376083
 30
0.0
 40
0.1283243098
 50
346.3345926884010169
 51
353.1383909284984952
  0
ARC
  5
D092
  8
0
 10
2756.7607834072018704
 20
150.1697770548711048
 30
0.0
 40
0.1241949618384193
 50
353.1352083165411955
 51
359.9953626672041764
  0
ARC
  5
D093
  8
0
 10
2756.4942827835438948
 20
149.8566495756566894
 30
0.0
 40
0.5612758667652075
 50
64.6701624794904149
 51
69.2663312466701768
  0
ARC
  5
D094
  8
0
 10
2756.614067819507909
 20
150.1916402378078885
 30
0.0
 40
0.0752864465211591
 50
0.0446802394858186
 51
11.4549587390643595
  0
ARC
  5
D095
  8
0
 10
2756.3921805177378701
 20
150.6488255735746122
 30
0.0
 40
0.7321194651000001
 50
269.9944929075513187
 51
274.9762086373042962
  0
ARC
  5
D096
  8
0
 10
2756.3921101486380394
 20
150.6456165847745865
 30
0.0
 40
0.7241969098000001
 50
270.0000000039603947
 51
275.0098579196940136
  0
ARC
  5
D097
  8
0
 10
2756.387658664124956
 20
151.12124182846091
 30
0.0
 40
0.5064395977786209
 50
0.5042041536517136
 51
89.4963946691910053
  0
ARC
  5
D098
  8
0
 10
2756.3963242089689629
 20
150.4621274514763911
 30
0.0
 40
0.5209370714310702
 50
269.5365073531028202
 51
275.7678892793371119
  0
ARC
  5
D099
  8
0
 10
2756.4690874236848686
 20
149.9464383342730969
 30
0.0
 40
0.020575986261111
 50
179.7561734764992138
 51
194.8130647244250895
  0
ARC
  5
D09A
  8
0
 10
2756.4861009451628888
 20
149.9834004429496872
 30
0.0
 40
0.0375946087067605
 50
179.0390602200999126
 51
195.5301792139107988
  0
ARC
  5
D09B
  8
0
 10
2756.4026751191140647
 20
150.5868265776134933
 30
0.0
 40
0.632196806994661
 50
274.8103690183589833
 51
286.1393415231141262
  0
ARC
  5
D09C
  8
0
 10
2756.4037848444932024
 20
150.5270437124393084
 30
0.0
 40
0.544851688636795
 50
274.708699039620285
 51
288.6931400348294119
  0
ARC
  5
D09D
  8
0
 10
2756.446255946761994
 20
149.9260365457676869
 30
0.0
 40
0.0094349991173533
 50
352.2532872846746841
 51
0.8142075323574861
  0
ARC
  5
D09E
  8
0
 10
2756.4541195512620106
 20
149.9249251382894101
 30
0.0
 40
0.0014939205156285
 50
335.3413660162004817
 51
353.837338746381306
  0
ARC
  5
D09F
  8
0
 10
2756.4552979869031333
 20
149.9243704472914942
 30
0.0
 40
0.0001919280159274
 50
286.4054011655551903
 51
339.0612884916361054
  0
ARC
  5
D0A0
  8
0
 10
2756.5852547984331977
 20
149.9734878858639888
 30
0.0
 40
0.0068454730397226
 50
180.4958485996004924
 51
227.9264546491504007
  0
ARC
  5
D0A1
  8
0
 10
2756.4574288187559432
 20
150.3152485174882997
 30
0.0
 40
0.3653894062916989
 50
289.4356593777297917
 51
303.5033725672928995
  0
ARC
  5
D0A2
  8
0
 10
2756.6633124695122206
 20
150.013547117310992
 30
0.0
 40
0.0051446006998551
 50
182.636041270744613
 51
248.1566973852827118
  0
ARC
  5
D0A3
  8
0
 10
2756.6010232083108349
 20
149.9562558549127971
 30
0.0
 40
0.0019410219630247
 50
233.2646100904069897
 51
256.3720530747783073
  0
ARC
  5
D0A4
  8
0
 10
2756.60082150486096
 20
149.9554297823785873
 30
0.0
 40
0.0010906828062274
 50
256.4450032305539935
 51
288.2562062669315992
  0
ARC
  5
D0A5
  8
0
 10
2756.4868688875430962
 20
150.2952840364229132
 30
0.0
 40
0.3595402659778672
 50
288.5353750958119008
 51
304.6010291231202132
  0
ARC
  5
D0A6
  8
0
 10
2756.6897802726389273
 20
150.0012243561891978
 30
0.0
 40
0.0022673951348156
 50
244.6889769686837894
 51
5.8406616507884941
  0
ARC
  5
D0A7
  8
0
 10
2756.6682235779730945
 20
150.050999217255594
 30
0.0
 40
0.0099361386867513
 50
214.7951951053846074
 51
248.7560968428929868
  0
ARC
  5
D0A8
  8
0
 10
2756.6680458268319853
 20
150.0511489123190927
 30
0.0
 40
0.0098781409562582
 50
181.9339709400838103
 51
216.0966641996596991
  0
ARC
  5
D0A9
  8
0
 10
2756.580627522082068
 20
150.1924824028280057
 30
0.0
 40
0.1952464635488249
 50
304.7923416669568724
 51
322.2050194328293742
  0
ARC
  5
D0AA
  8
0
 10
2756.5801895491308642
 20
150.1701808680427916
 30
0.0
 40
0.1425817210329927
 50
303.1573925584060021
 51
337.564062890908815
  0
ARC
  5
D0AB
  8
0
 10
2756.4233172934859795
 20
150.4443456505769063
 30
0.0
 40
0.5258771663232417
 50
273.5289001254348022
 51
298.2463728805905134
  0
ARC
  5
D0AC
  8
0
 10
2756.5676063550440631
 20
150.1710500554738985
 30
0.0
 40
0.2168501199751359
 50
298.8365727021626981
 51
321.6976958813669967
  0
ARC
  5
D0AD
  8
0
 10
2756.6416014319638634
 20
150.1100232707701139
 30
0.0
 40
0.1209743274274002
 50
322.6582054374023869
 51
342.1997057292026057
  0
ARC
  5
D0AE
  8
0
 10
2756.666794499748903
 20
150.1012114453428126
 30
0.0
 40
0.0942960431602931
 50
342.6180277608602864
 51
3.3846720008040521
  0
ARC
  5
D0AF
  8
0
 10
2756.6597976744228617
 20
150.0978030935075935
 30
0.0
 40
0.1015259086135328
 50
5.0719270713665781
 51
32.3367377594505001
  0
ARC
  5
D0B0
  8
0
 10
2756.5919391059228474
 20
150.0505527955035063
 30
0.0
 40
0.1841705048796593
 50
33.4647166049966032
 51
58.0053833682700102
  0
ARC
  5
D0B1
  8
0
 10
2756.3973111181389868
 20
150.571237391513705
 30
0.0
 40
0.668211774697025
 50
269.5540386758700038
 51
289.8162084894498776
  0
ARC
  5
D0B2
  8
0
 10
2756.516786667164979
 20
150.2395953609403136
 30
0.0
 40
0.3157052617201621
 50
289.821146037105791
 51
312.668507956303074
  0
ARC
  5
D0B3
  8
0
 10
2756.6374309028751668
 20
150.1067719155734039
 30
0.0
 40
0.1362809006133727
 50
313.2208159894548771
 51
340.9260879737190066
  0
ARC
  5
D0B4
  8
0
 10
2756.6749080259100992
 20
150.0924864823911946
 30
0.0
 40
0.0962012257311466
 50
341.6730126693872194
 51
13.3931590133187193
  0
ARC
  5
D0B5
  8
0
 10
2756.6477157812919359
 20
150.0836807484913038
 30
0.0
 40
0.124714243183087
 50
14.4350176420802807
 51
39.836173252587777
  0
ARC
  5
D0B6
  8
0
 10
2756.5733242522651381
 20
150.0202724268357031
 30
0.0
 40
0.2224593922053958
 50
40.1027758610095617
 51
58.0172427780058726
  0
ARC
  5
D0B7
  8
0
 10
2756.4846128854810559
 20
149.8791881655077134
 30
0.0
 40
0.3891156904867407
 50
57.9409115753791184
 51
70.3633971311589477
  0
ARC
  5
D0B8
  8
0
 10
2756.4304081758759821
 20
149.7347197318607925
 30
0.0
 40
0.5434037063395567
 50
70.0994592463952131
 51
76.6049326781539293
  0
ARC
  5
D0B9
  8
0
 10
2756.403316699008883
 20
149.6097846353594889
 30
0.0
 40
0.6906491675208926
 50
71.355923186117991
 51
86.4070949043782974
  0
ARC
  5
D0BA
  8
0
 10
2756.5121642938529476
 20
149.9106552323520134
 30
0.0
 40
0.3716870999869871
 50
50.1831868354866728
 51
72.0225019126839641
  0
ARC
  5
D0BB
  8
0
 10
2756.6496235339009218
 20
150.0782710677148941
 30
0.0
 40
0.1531422789760661
 50
16.8861026582147886
 51
50.3248977463476876
  0
ARC
  5
D0BC
  8
0
 10
2756.6920219435651234
 20
150.0956783907423926
 30
0.0
 40
0.1076032216408513
 50
330.0118100217687243
 51
14.5738408762780001
  0
ARC
  5
D0BD
  8
0
 10
2756.6304204357120398
 20
150.1302162628720112
 30
0.0
 40
0.1782229609082247
 50
312.9053453188791991
 51
330.2932776446389767
  0
ARC
  5
D0BE
  8
0
 10
2756.5486925541981691
 20
150.2207253450145004
 30
0.0
 40
0.3001635803015375
 50
294.4801464255120891
 51
312.570609644011995
  0
ARC
  5
D0BF
  8
0
 10
2756.4471185386469188
 20
150.4251913420590085
 30
0.0
 40
0.5283954686149882
 50
284.4928832209116081
 51
295.3169379580260738
  0
ARC
  5
D0C0
  8
0
 10
2756.3853766355878179
 20
150.6991753657761137
 30
0.0
 40
0.8091602311200944
 50
270.4767874628244044
 51
283.8704621476815078
  0
ARC
  5
D0C1
  8
0
 10
2756.3960348237469589
 20
150.5030807301480138
 30
0.0
 40
0.5141854628224448
 50
269.5626684988080797
 51
287.5692358844278829
  0
ARC
  5
D0C2
  8
0
 10
2756.4673195172449596
 20
150.2835701147926954
 30
0.0
 40
0.2834016158336368
 50
287.2258608585667048
 51
308.8625259803350218
  0
ARC
  5
D0C3
  8
0
 10
2756.5644827405972137
 20
150.1622096508922084
 30
0.0
 40
0.1279393411554173
 50
309.0826803487555026
 51
338.2669436535646241
  0
ARC
  5
D0C4
  8
0
 10
2756.603994263795812
 20
150.1460322217789098
 30
0.0
 40
0.0852470346795651
 50
338.5338327910345129
 51
20.0780375206967214
  0
ARC
  5
D0C5
  8
0
 10
2756.5888808392760438
 20
150.137788170188486
 30
0.0
 40
0.1023040348852989
 50
21.5088960582301603
 51
37.6611529296075318
  0
ARC
  5
D0C6
  8
0
 10
2756.601477871392035
 20
150.2048710476063889
 30
0.0
 40
0.1179897131882281
 50
315.6967419374652764
 51
339.476792855171027
  0
ARC
  5
D0C7
  8
0
 10
2756.748633978198086
 20
150.1385596884225038
 30
0.0
 40
0.0040648230457281
 50
272.512502690444876
 51
2.890721431583203
  0
ARC
  5
D0C8
  8
0
 10
2756.7153548858041177
 20
150.1350394084155084
 30
0.0
 40
0.003482410137501
 50
202.7374774601755973
 51
278.2735843922974937
  0
ARC
  5
D0C9
  8
0
 10
2756.635327056071219
 20
150.1062038885989978
 30
0.0
 40
0.0815866449635643
 50
339.9700112634529887
 51
19.6903512722142011
  0
ARC
  5
D0CA
  8
0
 10
2756.7160607121600151
 20
150.0785989925103934
 30
0.0
 40
0.0040959979187139
 50
184.7545083895716971
 51
267.1353083757168747
  0
ARC
  5
D0CB
  8
0
 10
2756.7493338092099293
 20
150.0750124696307068
 30
0.0
 40
0.0034495561724334
 50
261.3024015356430141
 51
337.6865366117136773
  0
ARC
  5
D0CC
  8
0
 10
2756.6598095214058048
 20
150.1067915816979905
 30
0.0
 40
0.0984430888965275
 50
340.3592630017457168
 51
359.8071445527689889
  0
ARC
  5
D0CD
  8
0
 10
2756.657766583944067
 20
150.1058007557778069
 30
0.0
 40
0.1004876326736181
 50
0.3760180591340336
 51
19.1498325687055804
  0
ARC
  5
D0CE
  8
0
 10
2756.4287510676899728
 20
149.7371169883780908
 30
0.0
 40
0.5398764122585439
 50
71.051279484323743
 51
76.3629727633643824
  0
ARC
  5
D0CF
  8
0
 10
2756.4847363161088651
 20
149.8893780598401975
 30
0.0
 40
0.3777031016742773
 50
57.1677369875795023
 51
71.5835702277874333
  0
ARC
  5
D0D0
  8
0
 10
2756.7187668445699273
 20
150.1731108851159888
 30
0.0
 40
0.007145969305461
 50
198.2111683823914916
 51
277.7719711742630011
  0
ARC
  5
D0D1
  8
0
 10
2756.6126989392791984
 20
150.1340737756694068
 30
0.0
 40
0.1058820847539642
 50
20.3401506187836212
 51
43.1359186665446686
  0
ARC
  5
D0D2
  8
0
 10
2756.6604527911099467
 20
150.1996407048229969
 30
0.0
 40
0.0024971540315617
 50
237.4825684015297043
 51
292.2496456694508993
  0
ARC
  5
D0D3
  8
0
 10
2756.4771332680320484
 20
149.9331178497743906
 30
0.0
 40
0.3209861919103254
 50
55.4634785932520202
 51
71.4242424995646701
  0
ARC
  5
D0D4
  8
0
 10
2756.5794366903660375
 20
150.2393739615467894
 30
0.0
 40
0.002082121410891
 50
289.3312993454334219
 51
306.2461746921471217
  0
ARC
  5
D0D5
  8
0
 10
2756.5797145473120509
 20
150.2385102029400059
 30
0.0
 40
0.0011753220813523
 50
253.7711041081072949
 51
290.4886061951215765
  0
ARC
  5
D0D6
  8
0
 10
2756.5797558903032041
 20
150.2384373526334116
 30
0.0
 40
0.0011185423758278
 50
214.2422603589531036
 51
250.6933668132635091
  0
ARC
  5
D0D7
  8
0
 10
2756.5813691290190945
 20
150.2393381812171071
 30
0.0
 40
0.0029635319263525
 50
182.9715037915655955
 51
211.0878495536194066
  0
ARC
  5
D0D8
  8
0
 10
2756.3909324934647884
 20
149.4721341993860904
 30
0.0
 40
0.9454546049005383
 50
78.1225436118360932
 51
89.928641935590619
  0
ARC
  5
D0D9
  8
0
 10
2756.4477118053919185
 20
149.7360868834109908
 30
0.0
 40
0.6754679989929512
 50
65.0764891985522951
 51
78.2274833159478646
  0
ARC
  5
D0DA
  8
0
 10
2756.595991898732791
 20
150.041472206461691
 30
0.0
 40
0.3360861308415914
 50
41.8852552798963629
 51
66.0617608554957343
  0
ARC
  5
D0DB
  8
0
 10
2756.7335890486269818
 20
150.164544575167298
 30
0.0
 40
0.1514793714132738
 50
1.9757302619529991
 51
41.9760951967209834
  0
ARC
  5
D0DC
  8
0
 10
2756.7313020797400895
 20
150.1782161573335941
 30
0.0
 40
0.1548750546799458
 50
325.4189169786216098
 51
345.6941052955523901
  0
ARC
  5
D0DD
  8
0
 10
2756.6538963386019532
 20
150.2341754801529987
 30
0.0
 40
0.2503751254598988
 50
304.0336851940134011
 51
324.9293505934240898
  0
ARC
  5
D0DE
  8
0
 10
2756.7230279863160831
 20
150.1900334833320017
 30
0.0
 40
0.1690482769457827
 50
328.6895315477368058
 51
342.5202178656853107
  0
ARC
  5
D0DF
  8
0
 10
2756.6718380083871125
 20
150.2225217047511876
 30
0.0
 40
0.2296693717458037
 50
311.7625981831610034
 51
328.4014913794139261
  0
ARC
  5
D0E0
  8
0
 10
2756.3964894286918934
 20
149.5489678480946054
 30
0.0
 40
0.8838248009288431
 50
70.3987383605401931
 51
90.2839071374513509
  0
ARC
  5
D0E1
  8
0
 10
2756.6126646196871661
 20
150.073870661490389
 30
0.0
 40
0.3146059614417858
 50
37.3438035594722777
 51
67.232922866099301
  0
ARC
  5
D0E2
  8
0
 10
2756.6845550884868317
 20
150.1463247965911023
 30
0.0
 40
0.2139599860433764
 50
11.6880230481095708
 51
33.5939085838537181
  0
LINE
  5
D0E3
  8
0
 10
2763.2169131433379334
 20
147.2156690622747135
 30
0.0
 11
2763.2169131433379334
 21
146.5901656591746871
 31
0.0
  0
LINE
  5
D0E4
  8
0
 10
2763.142566517855812
 20
146.5037674519568895
 30
0.0
 11
2763.1425663841378082
 21
147.2981696317746128
 31
0.0
  0
LINE
  5
D0E5
  8
0
 10
2763.2111475287379108
 20
146.5762462343747075
 30
0.0
 11
2763.142566517855812
 21
146.5037674519568895
 31
0.0
  0
LINE
  5
D0E6
  8
0
 10
2761.2877792850381411
 20
147.3068250963829087
 30
0.0
 11
2761.2877792850381411
 21
146.4990096251663942
 31
0.0
  0
LINE
  5
D0E7
  8
0
 10
2763.2111475287379108
 20
147.2295884870746079
 30
0.0
 11
2763.1383043178261687
 21
147.3024316980929882
 31
0.0
  0
LINE
  5
D0E8
  8
0
 10
2760.795653300738195
 20
146.3812638174746041
 30
0.0
 11
2760.795653300738195
 21
145.5749173607746059
 31
0.0
  0
LINE
  5
D0E9
  8
0
 10
2759.988566686537979
 20
147.1883504315746052
 30
0.0
 11
2759.988566686537979
 21
145.5749173607746059
 31
0.0
  0
LINE
  5
D0EA
  8
0
 10
2761.2877792850381411
 20
146.4990096251663942
 30
0.0
 11
2760.9137635315378247
 21
146.4990096251663942
 31
0.0
  0
LINE
  5
D0EB
  8
0
 10
2761.2877792850381411
 20
147.3068250963829087
 30
0.0
 11
2760.1066769165381629
 21
147.3068250963829087
 31
0.0
  0
ARC
  5
D0EC
  8
0
 10
2763.19722810393705
 20
146.5901656591746871
 30
0.0
 40
0.0196850394
 50
314.9999999980965981
 51
0.0
  0
ARC
  5
D0ED
  8
0
 10
2763.1303228474971547
 20
146.5168607184562859
 30
0.0
 40
0.0179259891587767
 50
275.2393368610922835
 51
313.079482080231287
  0
ARC
  5
D0EE
  8
0
 10
2760.913147977897097
 20
146.3815162892005901
 30
0.0
 40
0.1174949484133101
 50
89.6998272052228032
 51
180.1231165737067101
  0
ARC
  5
D0EF
  8
0
 10
2760.1073039963171141
 20
147.1880891550250112
 30
0.0
 40
0.1187375972436685
 50
90.3025932192023788
 51
179.8739232053829085
  0
ARC
  5
D0F0
  8
0
 10
2763.19722810393705
 20
147.2156690622747135
 30
0.0
 40
0.0196850394
 50
0.0
 51
45.000000001903409
  0
LINE
  5
D0F1
  8
0
 10
2760.8301949720089397
 20
146.4647260345242898
 30
0.0
 11
2760.0232146038729297
 21
147.2719198837442889
 31
0.0
  0
LINE
  5
D0F2
  8
0
 10
2761.2877792850381411
 20
146.4990096251663942
 30
0.0
 11
2763.1319597823380718
 21
146.4990096251663942
 31
0.0
  0
LINE
  5
D0F3
  8
0
 10
2761.2877792850381411
 20
147.3068250963829087
 30
0.0
 11
2763.1276977161001014
 21
147.3068250963829087
 31
0.0
  0
LINE
  5
D0F4
  8
0
 10
2759.2707949555378946
 20
144.9509173607746106
 30
0.0
 11
2761.5134248767380996
 21
144.9509173607746106
 31
0.0
  0
LINE
  5
D0F5
  8
0
 10
2759.2511097289539066
 20
145.2306986538746116
 30
0.0
 11
2761.5331099161380735
 21
145.2306986538746116
 31
0.0
  0
LINE
  5
D0F6
  8
0
 10
2759.3669932000379958
 20
145.3379173607746111
 30
0.0
 11
2761.4270583327452186
 21
145.3379173607746111
 31
0.0
  0
LINE
  5
D0F7
  8
0
 10
2759.5176099936379615
 20
145.4480233929745907
 30
0.0
 11
2761.2666099161378952
 21
145.4480233929745907
 31
0.0
  0
LINE
  5
D0F8
  8
0
 10
2759.6045038838879009
 20
145.5349173607746138
 30
0.0
 11
2761.1797159483880932
 21
145.5349173607746138
 31
0.0
  0
LINE
  5
D0F9
  8
0
 10
2760.7756532232378959
 20
145.5549173607747093
 30
0.0
 11
2760.0085666090380982
 21
145.5549173607747093
 31
0.0
  0
LINE
  5
D0FA
  8
0
 10
2759.3537449222380928
 20
145.3327919885747121
 30
0.0
 11
2759.2575466777379916
 21
145.2452583210746866
 31
0.0
  0
LINE
  5
D0FB
  8
0
 10
2759.5905844591379719
 20
145.5291517461747048
 30
0.0
 11
2759.5233755307381216
 21
145.4619428177747125
 31
0.0
  0
LINE
  5
D0FC
  8
0
 10
2761.5331099161380735
 20
145.2306986538746116
 30
0.0
 11
2761.5331099161380735
 21
144.9706024000747107
 31
0.0
  0
LINE
  5
D0FD
  8
0
 10
2761.2666099161378952
 20
145.4480233929745907
 30
0.0
 11
2761.2666099161378952
 21
145.3576024000747111
 31
0.0
  0
LINE
  5
D0FE
  8
0
 10
2761.1936353732380667
 20
145.5291517461747048
 30
0.0
 11
2761.2608443016379169
 21
145.4619428177747125
 31
0.0
  0
LINE
  5
D0FF
  8
0
 10
2761.4403026960380885
 20
145.3325375729284872
 30
0.0
 11
2761.526673154638047
 21
145.2452583210746866
 31
0.0
  0
LINE
  5
D100
  8
0
 10
2759.5176099936379615
 20
145.4480233929745907
 30
0.0
 11
2759.5176099936379615
 21
145.3576024000747111
 31
0.0
  0
LINE
  5
D101
  8
0
 10
2759.2511097289539066
 20
145.2306986538746116
 30
0.0
 11
2759.2511097289539066
 21
144.9706024000747107
 31
0.0
  0
ARC
  5
D102
  8
0
 10
2760.0471099161381971
 20
145.5649173607747002
 30
0.0
 40
0.03
 50
270.0
 51
340.5287793655240876
  0
ARC
  5
D103
  8
0
 10
2760.737109916137797
 20
145.5649173607747002
 30
0.0
 40
0.03
 50
199.471220634489697
 51
270.0
  0
ARC
  5
D104
  8
0
 10
2760.0085665542369497
 20
145.5749172284754991
 30
0.0
 40
0.0199998677009458
 50
179.9996209884077132
 51
270.0001569917458824
  0
ARC
  5
D105
  8
0
 10
2760.7756532232378959
 20
145.5749173607746059
 30
0.0
 40
0.02
 50
270.0
 51
0.0
  0
ARC
  5
D106
  8
0
 10
2759.6045038839379231
 20
145.5152323213746115
 30
0.0
 40
0.0196850394
 50
90.0
 51
135.0000000000046043
  0
ARC
  5
D107
  8
0
 10
2761.1797159484381154
 20
145.5152323213746115
 30
0.0
 40
0.0196850394
 50
44.9999999999953886
 51
90.0
  0
ARC
  5
D108
  8
0
 10
2761.2469248767379213
 20
145.4480233929745907
 30
0.0
 40
0.0196850394
 50
0.0
 51
44.9999999999953886
  0
ARC
  5
D109
  8
0
 10
2761.2862949555378691
 20
145.3576024000747111
 30
0.0
 40
0.0196850394
 50
180.0
 51
270.0
  0
ARC
  5
D10A
  8
0
 10
2761.4277308556379467
 20
145.3205801526113987
 30
0.0
 40
0.0173502470857109
 50
43.5651292934047731
 51
92.22143112299905
  0
ARC
  5
D10B
  8
0
 10
2761.5134248767380996
 20
145.2306986538746116
 30
0.0
 40
0.0196850394
 50
0.0
 51
47.6999999999906734
  0
ARC
  5
D10C
  8
0
 10
2761.5134248767380996
 20
144.9706024000747107
 30
0.0
 40
0.0196850394
 50
270.0
 51
0.0
  0
ARC
  5
D10D
  8
0
 10
2759.4979248219369765
 20
145.3576025323760916
 30
0.0
 40
0.0196851717014817
 50
270.0001595042396048
 51
359.9996149227322917
  0
ARC
  5
D10E
  8
0
 10
2759.5372945239869296
 20
145.4480236813278964
 30
0.0
 40
0.0196845303509187
 50
134.9997052734603926
 51
180.0008393101616946
  0
ARC
  5
D10F
  8
0
 10
2759.3669932000379958
 20
145.3182323213746088
 30
0.0
 40
0.0196850394
 50
90.0
 51
132.3000000000093053
  0
ARC
  5
D110
  8
0
 10
2759.2707950878980228
 20
144.970602719621013
 30
0.0
 40
0.0196853589467648
 50
180.000930064601107
 51
269.9996147546264069
  0
ARC
  5
D111
  8
0
 10
2759.2707958644159589
 20
145.2306979989737954
 30
0.0
 40
0.0196861354726858
 50
132.3006737082534983
 51
179.9980939349536868
  0
ARC
  5
D112
  8
0
 10
2756.386293643521185
 20
150.487814292080003
 30
0.0
 40
0.4788410462915994
 50
250.481887564261001
 51
270.6959916936395985
  0
ARC
  5
D113
  8
0
 10
2756.3081860658080586
 20
150.2674666927136116
 30
0.0
 40
0.2450593997866734
 50
228.0602912527891988
 51
250.481887564261001
  0
ARC
  5
D114
  8
0
 10
2756.2026960185971802
 20
150.1500599103167986
 30
0.0
 40
0.0872224503316398
 50
201.5626470957909078
 51
228.0602912527891988
  0
LINE
  5
D115
  8
0
 10
2756.3667173848380116
 20
150.2271500984747092
 30
0.0
 11
2756.3893806664618751
 21
150.2206075506009029
 31
0.0
  0
ARC
  5
D116
  8
0
 10
2756.3905994549199931
 20
150.2252809059133085
 30
0.0
 40
0.0048296682267564
 50
255.3831174274806983
 51
288.2257864277057138
  0
LINE
  5
D117
  8
0
 10
2756.3667173848380116
 20
150.2271500984747092
 30
0.0
 11
2756.3440527285379176
 21
150.2206077900746095
 31
0.0
  0
LINE
  5
D118
  8
0
 10
2756.3617951880378314
 20
150.2432363824287052
 30
0.0
 11
2756.3617951880378314
 21
150.2336932239747114
 31
0.0
  0
LINE
  5
D119
  8
0
 10
2756.3716377077380457
 20
150.2432319075963107
 30
0.0
 11
2756.3716377077380457
 21
150.2336932239747114
 31
0.0
  0
ARC
  5
D11A
  8
0
 10
2756.3685427463237829
 20
150.2345645221543009
 30
0.0
 40
0.0068035801853653
 50
187.3577706682706889
 51
254.4290191891844017
  0
ARC
  5
D11B
  8
0
 10
2756.3649816272018143
 20
150.234485300067206
 30
0.0
 40
0.0067030435348368
 50
284.9995169055949873
 51
353.2136943892962222
  0
LINE
  5
D11C
  8
0
 10
2756.3921099936878818
 20
150.2491416883835882
 30
0.0
 11
2756.3694464293380406
 21
150.2425993800746085
 31
0.0
  0
LINE
  5
D11D
  8
0
 10
2756.3639866316379994
 20
150.2425992369747121
 30
0.0
 11
2756.3413220195379836
 21
150.2491887994746094
 31
0.0
  0
ARC
  5
D11E
  8
0
 10
2756.3652241222389421
 20
150.2474353607258877
 30
0.0
 40
0.0049919410979655
 50
255.6468576656467917
 51
287.3943670823217076
  0
ARC
  5
D11F
  8
0
 10
2756.3682086174098913
 20
150.2474362072208862
 30
0.0
 40
0.0049927021953085
 50
252.6102478298620895
 51
284.354713691208417
  0
LINE
  5
D120
  8
0
 10
2756.3667164479420535
 20
150.2426717024735012
 30
0.0
 11
2756.3667164479370513
 21
150.2656239094276884
 31
0.0
  0
ARC
  5
D121
  8
0
 10
2756.3428173543138655
 20
150.225536627444086
 30
0.0
 40
0.0050812977956101
 50
252.89409274657379
 51
284.0708645798890188
  0
LINE
  5
D122
  8
0
 10
2756.3617951880291912
 20
150.1992532025197136
 30
0.0
 11
2756.3617951880291912
 21
150.1897100440656061
 31
0.0
  0
LINE
  5
D123
  8
0
 10
2756.3716377077298603
 20
150.1992487276872907
 30
0.0
 11
2756.3716377077298603
 21
150.1897100440656061
 31
0.0
  0
LINE
  5
D124
  8
0
 10
2756.3921099936710561
 20
150.2051585084747103
 30
0.0
 11
2756.3694464293298552
 21
150.1986162001657021
 31
0.0
  0
LINE
  5
D125
  8
0
 10
2756.3639866316298139
 20
150.1986160570656068
 30
0.0
 11
2756.341322747131926
 21
150.2051587790359974
 31
0.0
  0
ARC
  5
D126
  8
0
 10
2756.3652241222312114
 20
150.2034521808168961
 30
0.0
 40
0.0049919410979655
 50
255.6468576656467917
 51
287.3943670823217076
  0
ARC
  5
D127
  8
0
 10
2756.3682086174021606
 20
150.2034530273118946
 30
0.0
 40
0.0049927021953085
 50
252.6102478298620895
 51
284.354713691208417
  0
LINE
  5
D128
  8
0
 10
2756.366716447933868
 20
150.1986885225645096
 30
0.0
 11
2756.3667164479279563
 21
150.2271503689717065
 31
0.0
  0
LINE
  5
D129
  8
0
 10
2756.3617940960798478
 20
150.1552660296028137
 30
0.0
 11
2756.3617940960798478
 21
150.1465873634354011
 31
0.0
  0
LINE
  5
D12A
  8
0
 10
2756.3921099936878818
 20
150.1620358278443916
 30
0.0
 11
2756.3667164479379608
 21
150.1547053425746014
 31
0.0
  0
LINE
  5
D12B
  8
0
 10
2756.3639866316379994
 20
150.1546328770747039
 30
0.0
 11
2756.3413236840428908
 21
150.1611753285133091
 31
0.0
  0
ARC
  5
D12C
  8
0
 10
2756.3652237691158007
 20
150.1594823031566932
 30
0.0
 40
0.0050047419979732
 50
255.688526238624803
 51
287.3526985089694108
  0
LINE
  5
D12D
  8
0
 10
2756.3667164479379608
 20
150.1547053425746014
 30
0.0
 11
2756.3667151428289799
 21
150.1831662713406104
 31
0.0
  0
LINE
  5
D12E
  8
0
 10
2756.3617951880291912
 20
150.1112868426197053
 30
0.0
 11
2756.3617951880291912
 21
150.1017436841657116
 31
0.0
  0
LINE
  5
D12F
  8
0
 10
2756.3716377077298603
 20
150.1112823677873109
 30
0.0
 11
2756.3716377077298603
 21
150.1017436841657116
 31
0.0
  0
LINE
  5
D130
  8
0
 10
2756.3921099936710561
 20
150.1171924190695961
 30
0.0
 11
2756.3694464293298552
 21
150.1106498402656086
 31
0.0
  0
LINE
  5
D131
  8
0
 10
2756.3639866316298139
 20
150.1106496971655986
 30
0.0
 11
2756.341322747131926
 21
150.1173430650374883
 31
0.0
  0
ARC
  5
D132
  8
0
 10
2756.3652241222312114
 20
150.1154858209168879
 30
0.0
 40
0.0049919410979655
 50
255.6468576656467917
 51
287.3943670823217076
  0
ARC
  5
D133
  8
0
 10
2756.3682086174021606
 20
150.1154866674118864
 30
0.0
 40
0.0049927021953085
 50
252.6102478298620895
 51
284.354713691208417
  0
LINE
  5
D134
  8
0
 10
2756.366716447933868
 20
150.1107221626645014
 30
0.0
 11
2756.3667164479279563
 21
150.139183468066193
 31
0.0
  0
LINE
  5
D135
  8
0
 10
2756.3617951867900047
 20
150.1992532020684052
 30
0.0
 11
2756.3617951867900047
 21
150.1897100436142978
 31
0.0
  0
LINE
  5
D136
  8
0
 10
2756.3716377064888547
 20
150.1992487272360108
 30
0.0
 11
2756.3716377064888547
 21
150.1897100436142978
 31
0.0
  0
ARC
  5
D137
  8
0
 10
2756.3685427450759562
 20
150.190581341794001
 30
0.0
 40
0.0068035801853653
 50
187.3577706682706889
 51
254.4290191891844017
  0
ARC
  5
D138
  8
0
 10
2756.3649816259539875
 20
150.1905021197069061
 30
0.0
 40
0.0067030435348368
 50
284.9995169055949873
 51
353.2136943892962222
  0
LINE
  5
D139
  8
0
 10
2756.3617951867900047
 20
150.111286842168397
 30
0.0
 11
2756.3617951867900047
 21
150.1017436837142895
 31
0.0
  0
LINE
  5
D13A
  8
0
 10
2756.3716377064888547
 20
150.1112823673360026
 30
0.0
 11
2756.3716377064888547
 21
150.1017436837142895
 31
0.0
  0
ARC
  5
D13B
  8
0
 10
2756.3685427450759562
 20
150.1026149818939928
 30
0.0
 40
0.0068035801853653
 50
187.3577706682706889
 51
254.4290191891844017
  0
ARC
  5
D13C
  8
0
 10
2756.3649816259539875
 20
150.1025357598068979
 30
0.0
 40
0.0067030435348368
 50
284.9995169055949873
 51
353.2136943892962222
  0
LINE
  5
D13D
  8
0
 10
2756.3617951867900047
 20
150.0673036621683991
 30
0.0
 11
2756.3617951867900047
 21
150.0577605037142916
 31
0.0
  0
LINE
  5
D13E
  8
0
 10
2756.3716377064888547
 20
150.0672991873360047
 30
0.0
 11
2756.3716377064888547
 21
150.0577605037142916
 31
0.0
  0
ARC
  5
D13F
  8
0
 10
2756.3685427450759562
 20
150.0586318018939949
 30
0.0
 40
0.0068035801853653
 50
187.3577706682706889
 51
254.4290191891844017
  0
ARC
  5
D140
  8
0
 10
2756.3649816259539875
 20
150.0585525798069
 30
0.0
 40
0.0067030435348368
 50
284.9995169055949873
 51
353.2136943892962222
  0
LINE
  5
D141
  8
0
 10
2756.392109993647864
 20
150.0732091944549893
 30
0.0
 11
2756.3694464293180317
 21
150.0666666602689929
 31
0.0
  0
LINE
  5
D142
  8
0
 10
2756.3639866316179905
 20
150.0666665171690113
 30
0.0
 11
2756.3413220195179747
 21
150.0732560796689086
 31
0.0
  0
ARC
  5
D143
  8
0
 10
2756.3652241222198427
 20
150.0715026409201869
 30
0.0
 40
0.0049919410979655
 50
255.6468576656467917
 51
287.3943670823217076
  0
ARC
  5
D144
  8
0
 10
2756.3682086173907919
 20
150.0715034874152138
 30
0.0
 40
0.0049927021953085
 50
252.6102478298620895
 51
284.354713691208417
  0
LINE
  5
D145
  8
0
 10
2756.3667164479220446
 20
150.0667389826678004
 30
0.0
 11
2756.3667164479161329
 21
150.0952008290684034
 31
0.0
  0
LINE
  5
D146
  8
0
 10
2756.3921099936319479
 20
150.0292257886688958
 30
0.0
 11
2756.3694464293098463
 21
150.0226834803600013
 31
0.0
  0
LINE
  5
D147
  8
0
 10
2756.363986631609805
 20
150.022683337259906
 30
0.0
 11
2756.3413220195097892
 21
150.0292728997600022
 31
0.0
  0
ARC
  5
D148
  8
0
 10
2756.3652241222112025
 20
150.0275194610111953
 30
0.0
 40
0.0049919410979655
 50
255.6468576656467917
 51
287.3943670823217076
  0
ARC
  5
D149
  8
0
 10
2756.3682086173830612
 20
150.0275203075061938
 30
0.0
 40
0.0049927021953085
 50
252.6102478298620895
 51
284.354713691208417
  0
LINE
  5
D14A
  8
0
 10
2756.3667164479138592
 20
150.0227558027588088
 30
0.0
 11
2756.3667164479088569
 21
150.0512176490663876
 31
0.0
  0
LINE
  5
D14B
  8
0
 10
2756.3413220195379836
 20
150.2491887994746094
 30
0.0
 11
2756.3186590277377945
 21
150.2425993800746085
 31
0.0
  0
LINE
  5
D14C
  8
0
 10
2756.3364014859898816
 20
150.2633022211813909
 30
0.0
 11
2756.3364014859898816
 21
150.2556848135143071
 31
0.0
  0
LINE
  5
D14D
  8
0
 10
2756.3462440056900959
 20
150.2642586409587864
 30
0.0
 11
2756.3462440056900959
 21
150.2556848135143071
 31
0.0
  0
ARC
  5
D14E
  8
0
 10
2756.3431490442749237
 20
150.2565561116940103
 30
0.0
 40
0.0068035801853653
 50
187.3577706682706889
 51
254.4290191891844017
  0
ARC
  5
D14F
  8
0
 10
2756.3395879251538645
 20
150.256476889606887
 30
0.0
 40
0.0067030435348368
 50
284.9995169055949873
 51
353.2136943892962222
  0
LINE
  5
D150
  8
0
 10
2756.3364014859898816
 20
150.2212447920684042
 30
0.0
 11
2756.3364014859898816
 21
150.2117016336142967
 31
0.0
  0
LINE
  5
D151
  8
0
 10
2756.3462440056900959
 20
150.2212403172360098
 30
0.0
 11
2756.3462440056900959
 21
150.2117016336142967
 31
0.0
  0
ARC
  5
D152
  8
0
 10
2756.3431490442749237
 20
150.2125729317939999
 30
0.0
 40
0.0068035801853653
 50
187.3577706682706889
 51
254.4290191891844017
  0
ARC
  5
D153
  8
0
 10
2756.3395879251538645
 20
150.2124937097069051
 30
0.0
 40
0.0067030435348368
 50
284.9995169055949873
 51
353.2136943892962222
  0
LINE
  5
D154
  8
0
 10
2756.3667183217439742
 20
150.1831671889559061
 30
0.0
 11
2756.3440536654438802
 21
150.1766248805558917
 31
0.0
  0
ARC
  5
D155
  8
0
 10
2756.3428182912198281
 20
150.1815537179253113
 30
0.0
 40
0.0050812977956101
 50
252.89409274657379
 51
284.0708645798890188
  0
LINE
  5
D156
  8
0
 10
2756.3667183217439742
 20
150.1391840089559082
 30
0.0
 11
2756.3440536654438802
 21
150.1326417005558937
 31
0.0
  0
ARC
  5
D157
  8
0
 10
2756.3428182912198281
 20
150.1375705379253986
 30
0.0
 40
0.0050812977956101
 50
252.89409274657379
 51
284.0708645798890188
  0
LINE
  5
D158
  8
0
 10
2756.3667173848380116
 20
150.0952010995173111
 30
0.0
 11
2756.3440527285379176
 21
150.0886587911172967
 31
0.0
  0
ARC
  5
D159
  8
0
 10
2756.3428173543138655
 20
150.0935876284866879
 30
0.0
 40
0.0050812977956101
 50
252.89409274657379
 51
284.0708645798890188
  0
LINE
  5
D15A
  8
0
 10
2756.3667173848380116
 20
150.0512179195173132
 30
0.0
 11
2756.3440527285379176
 21
150.0446756111172135
 31
0.0
  0
ARC
  5
D15B
  8
0
 10
2756.3428159540308116
 20
150.0496171796154101
 30
0.0
 40
0.0050939876721165
 50
252.9459281775164925
 51
284.0513278855004273
  0
LINE
  5
D15C
  8
0
 10
2756.3159299832382203
 20
150.2271500984747092
 30
0.0
 11
2756.3385932654150565
 21
150.2206075504701062
 31
0.0
  0
ARC
  5
D15D
  8
0
 10
2756.3398303982921789
 20
150.2254439081171995
 30
0.0
 40
0.0049920790305497
 50
255.6515007074848995
 51
287.3941495332327918
  0
LINE
  5
D15E
  8
0
 10
2756.2905353455321347
 20
150.2051587790359974
 30
0.0
 11
2756.2678706892320406
 21
150.1986164706360114
 31
0.0
  0
LINE
  5
D15F
  8
0
 10
2756.2856131487319544
 20
150.221245062990107
 30
0.0
 11
2756.2856131487319544
 21
150.2117019045359996
 31
0.0
  0
LINE
  5
D160
  8
0
 10
2756.2954556684321687
 20
150.2212405881575989
 30
0.0
 11
2756.2954556684321687
 21
150.2117019045359996
 31
0.0
  0
ARC
  5
D161
  8
0
 10
2756.292360707017906
 20
150.2125732027157028
 30
0.0
 40
0.0068035801853653
 50
187.3577706682706889
 51
254.4290191891844017
  0
ARC
  5
D162
  8
0
 10
2756.2887995878968468
 20
150.2124939806286079
 30
0.0
 40
0.0067030435348368
 50
284.9995169055949873
 51
353.2136943892962222
  0
LINE
  5
D163
  8
0
 10
2756.2878045923330319
 20
150.2206079175360003
 30
0.0
 11
2756.2651399802321066
 21
150.2271974800360113
 31
0.0
  0
ARC
  5
D164
  8
0
 10
2756.2666353150079885
 20
150.2035453080054026
 30
0.0
 40
0.0050812977956101
 50
252.89409274657379
 51
284.0708645798890188
  0
LINE
  5
D165
  8
0
 10
2756.2651399802321066
 20
150.2271974800360113
 30
0.0
 11
2756.2424769884319176
 21
150.2206080606360104
 31
0.0
  0
LINE
  5
D166
  8
0
 10
2756.2397479439318886
 20
150.2051587790359974
 30
0.0
 11
2756.2624112261091796
 21
150.1986162310315081
 31
0.0
  0
ARC
  5
D167
  8
0
 10
2756.2636483589872114
 20
150.2034525886784877
 30
0.0
 40
0.0049920790305497
 50
255.6515007074848995
 51
287.3941495332327918
  0
LINE
  5
D168
  8
0
 10
2756.2905362825399607
 20
150.1611753285449993
 30
0.0
 11
2756.2678716262407761
 21
150.1546330201450132
 31
0.0
  0
LINE
  5
D169
  8
0
 10
2756.2856140857411447
 20
150.1772616124991089
 30
0.0
 11
2756.2856140857411447
 21
150.1677184540450014
 31
0.0
  0
LINE
  5
D16A
  8
0
 10
2756.2954566054409042
 20
150.177257137666686
 30
0.0
 11
2756.2954566054409042
 21
150.1677184540450014
 31
0.0
  0
ARC
  5
D16B
  8
0
 10
2756.2923616440261867
 20
150.1685897522247046
 30
0.0
 40
0.0068035801853653
 50
187.3577706682706889
 51
254.4290191891844017
  0
ARC
  5
D16C
  8
0
 10
2756.2888005249051275
 20
150.1685105301374961
 30
0.0
 40
0.0067030435348368
 50
284.9995169055949873
 51
353.2136943892962222
  0
LINE
  5
D16D
  8
0
 10
2756.2878055293399484
 20
150.1766244670450021
 30
0.0
 11
2756.2651409172399326
 21
150.1832140295450131
 31
0.0
  0
ARC
  5
D16E
  8
0
 10
2756.2666362520158145
 20
150.1595618575144044
 30
0.0
 40
0.0050812977956101
 50
252.89409274657379
 51
284.0708645798890188
  0
LINE
  5
D16F
  8
0
 10
2756.2651409172399326
 20
150.1832140295450131
 30
0.0
 11
2756.2424779254401983
 21
150.1766246101450122
 31
0.0
  0
LINE
  5
D170
  8
0
 10
2756.2397488809410788
 20
150.1611753285449993
 30
0.0
 11
2756.2624121631170055
 21
150.1546327805405099
 31
0.0
  0
ARC
  5
D171
  8
0
 10
2756.2636492959950374
 20
150.1594691381874895
 30
0.0
 40
0.0049920790305497
 50
255.6515007074848995
 51
287.3941495332327918
  0
LINE
  5
D172
  8
0
 10
2756.2905362825399607
 20
150.1171921485450014
 30
0.0
 11
2756.2678716262407761
 21
150.1106498401449869
 31
0.0
  0
LINE
  5
D173
  8
0
 10
2756.2856140857411447
 20
150.133278432499111
 30
0.0
 11
2756.2856140857411447
 21
150.1237352740450035
 31
0.0
  0
LINE
  5
D174
  8
0
 10
2756.2954566054409042
 20
150.1332739576666029
 30
0.0
 11
2756.2954566054409042
 21
150.1237352740450035
 31
0.0
  0
ARC
  5
D175
  8
0
 10
2756.2923616440261867
 20
150.1246065722247067
 30
0.0
 40
0.0068035801853653
 50
187.3577706682706889
 51
254.4290191891844017
  0
ARC
  5
D176
  8
0
 10
2756.2888005249051275
 20
150.1245273501376118
 30
0.0
 40
0.0067030435348368
 50
284.9995169055949873
 51
353.2136943892962222
  0
LINE
  5
D177
  8
0
 10
2756.2878055293399484
 20
150.1326412870450042
 30
0.0
 11
2756.2651409172399326
 21
150.1392308495449868
 31
0.0
  0
ARC
  5
D178
  8
0
 10
2756.2666362520158145
 20
150.1155786775144065
 30
0.0
 40
0.0050812977956101
 50
252.89409274657379
 51
284.0708645798890188
  0
LINE
  5
D179
  8
0
 10
2756.2651409172399326
 20
150.1392308495449868
 30
0.0
 11
2756.2424779254401983
 21
150.1326414301449859
 31
0.0
  0
LINE
  5
D17A
  8
0
 10
2756.2397488809410788
 20
150.1171921485450014
 30
0.0
 11
2756.2624121631170055
 21
150.110649600540512
 31
0.0
  0
ARC
  5
D17B
  8
0
 10
2756.2636492959950374
 20
150.1154859581874916
 30
0.0
 40
0.0049920790305497
 50
255.6515007074848995
 51
287.3941495332327918
  0
LINE
  5
D17C
  8
0
 10
2756.2905362825317752
 20
150.0732089686360098
 30
0.0
 11
2756.2678716262321359
 21
150.0666666602359953
 31
0.0
  0
LINE
  5
D17D
  8
0
 10
2756.2856140857320497
 20
150.089295252590091
 30
0.0
 11
2756.2856140857320497
 21
150.0797520941360119
 31
0.0
  0
LINE
  5
D17E
  8
0
 10
2756.2954566054318093
 20
150.0892907777576966
 30
0.0
 11
2756.2954566054318093
 21
150.0797520941360119
 31
0.0
  0
ARC
  5
D17F
  8
0
 10
2756.2923616440180012
 20
150.0806233923156014
 30
0.0
 40
0.0068035801853653
 50
187.3577706682706889
 51
254.4290191891844017
  0
ARC
  5
D180
  8
0
 10
2756.2888005248969421
 20
150.0805441702285918
 30
0.0
 40
0.0067030435348368
 50
284.9995169055949873
 51
353.2136943892962222
  0
LINE
  5
D181
  8
0
 10
2756.2878055293322177
 20
150.0886581071360126
 30
0.0
 11
2756.2651409172322019
 21
150.0952476696359952
 31
0.0
  0
ARC
  5
D182
  8
0
 10
2756.2666362520080838
 20
150.0715954976053865
 30
0.0
 40
0.0050812977956101
 50
252.89409274657379
 51
284.0708645798890188
  0
LINE
  5
D183
  8
0
 10
2756.2651409172322019
 20
150.0952476696359952
 30
0.0
 11
2756.2424779254320129
 21
150.0886582502359943
 31
0.0
  0
LINE
  5
D184
  8
0
 10
2756.2397488809319839
 20
150.0732089686360098
 30
0.0
 11
2756.2624121631088201
 21
150.066666420631492
 31
0.0
  0
ARC
  5
D185
  8
0
 10
2756.2636492959868519
 20
150.0715027782785
 30
0.0
 40
0.0049920790305497
 50
255.6515007074848995
 51
287.3941495332327918
  0
LINE
  5
D186
  8
0
 10
2756.3413236840319769
 20
150.0732089686360098
 30
0.0
 11
2756.3186590277327923
 21
150.0666666602359953
 31
0.0
  0
LINE
  5
D187
  8
0
 10
2756.3364014872317966
 20
150.089295252590091
 30
0.0
 11
2756.3364014872317966
 21
150.0797520941360119
 31
0.0
  0
LINE
  5
D188
  8
0
 10
2756.346244006932011
 20
150.0892907777576966
 30
0.0
 11
2756.346244006932011
 21
150.0797520941360119
 31
0.0
  0
ARC
  5
D189
  8
0
 10
2756.3431490455182029
 20
150.0806233923156014
 30
0.0
 40
0.0068035801853653
 50
187.3577706682706889
 51
254.4290191891844017
  0
ARC
  5
D18A
  8
0
 10
2756.3395879263971437
 20
150.0805441702285918
 30
0.0
 40
0.0067030435348368
 50
284.9995169055949873
 51
353.2136943892962222
  0
LINE
  5
D18B
  8
0
 10
2756.3385929308319646
 20
150.0886581071360126
 30
0.0
 11
2756.3159283187319488
 21
150.0952476696359952
 31
0.0
  0
ARC
  5
D18C
  8
0
 10
2756.3174236535078307
 20
150.0715954976053865
 30
0.0
 40
0.0050812977956101
 50
252.89409274657379
 51
284.0708645798890188
  0
LINE
  5
D18D
  8
0
 10
2756.3159283187319488
 20
150.0952476696359952
 30
0.0
 11
2756.2932653269322145
 21
150.0886582502359943
 31
0.0
  0
LINE
  5
D18E
  8
0
 10
2756.290536282433095
 20
150.0732089686360098
 30
0.0
 11
2756.3131995646090218
 21
150.066666420631492
 31
0.0
  0
ARC
  5
D18F
  8
0
 10
2756.3144366974870536
 20
150.0715027782785
 30
0.0
 40
0.0049920790305497
 50
255.6515007074848995
 51
287.3941495332327918
  0
LINE
  5
D190
  8
0
 10
2756.341322747131926
 20
150.1173430650374883
 30
0.0
 11
2756.3186580908318319
 21
150.1108007566375022
 31
0.0
  0
LINE
  5
D191
  8
0
 10
2756.33640055033311
 20
150.1334293489915979
 30
0.0
 11
2756.33640055033311
 21
150.1238861905376041
 31
0.0
  0
LINE
  5
D192
  8
0
 10
2756.3462430700319601
 20
150.1332736871981126
 30
0.0
 11
2756.3462430700319601
 21
150.1238861905376041
 31
0.0
  0
ARC
  5
D193
  8
0
 10
2756.343148108618152
 20
150.1247574887171936
 30
0.0
 40
0.0068035801853653
 50
187.3577706682706889
 51
254.4290191891844017
  0
ARC
  5
D194
  8
0
 10
2756.3395869894970929
 20
150.1246782666300987
 30
0.0
 40
0.0067030435348368
 50
284.9995169055949873
 51
353.2136943892962222
  0
LINE
  5
D195
  8
0
 10
2756.3385919939319137
 20
150.1327922035376048
 30
0.0
 11
2756.3159273818318979
 21
150.1393817660375021
 31
0.0
  0
ARC
  5
D196
  8
0
 10
2756.3174227166077799
 20
150.1157295940070071
 30
0.0
 40
0.0050812977956101
 50
252.89409274657379
 51
284.0708645798890188
  0
LINE
  5
D197
  8
0
 10
2756.3159273818318979
 20
150.1393817660375021
 30
0.0
 11
2756.2932643900321636
 21
150.1327923466375012
 31
0.0
  0
LINE
  5
D198
  8
0
 10
2756.2905362825399607
 20
150.1171921485450014
 30
0.0
 11
2756.3131986277089709
 21
150.1108005170329989
 31
0.0
  0
ARC
  5
D199
  8
0
 10
2756.3144357605860932
 20
150.1156368746800922
 30
0.0
 40
0.0049920790305497
 50
255.6515007074848995
 51
287.3941495332327918
  0
LINE
  5
D19A
  8
0
 10
2756.3413236840378886
 20
150.1611753285745863
 30
0.0
 11
2756.3186590277377945
 21
150.1546330201747139
 31
0.0
  0
LINE
  5
D19B
  8
0
 10
2756.3364014872381631
 20
150.1772616125286959
 30
0.0
 11
2756.3364014872381631
 21
150.1677184540747021
 31
0.0
  0
LINE
  5
D19C
  8
0
 10
2756.3462440069379227
 20
150.1772571376963015
 30
0.0
 11
2756.3462440069379227
 21
150.1677184540747021
 31
0.0
  0
ARC
  5
D19D
  8
0
 10
2756.3431490455241146
 20
150.1685897522542916
 30
0.0
 40
0.0068035801853653
 50
187.3577706682706889
 51
254.4290191891844017
  0
ARC
  5
D19E
  8
0
 10
2756.339587926402146
 20
150.1685105301671967
 30
0.0
 40
0.0067030435348368
 50
284.9995169055949873
 51
353.2136943892962222
  0
LINE
  5
D19F
  8
0
 10
2756.3385929308378763
 20
150.1766244670745891
 30
0.0
 11
2756.3159283187378605
 21
150.1832140295747138
 31
0.0
  0
ARC
  5
D1A0
  8
0
 10
2756.3174236535141972
 20
150.1595618575441051
 30
0.0
 40
0.0050812977956101
 50
252.89409274657379
 51
284.0708645798890188
  0
LINE
  5
D1A1
  8
0
 10
2756.3159283187378605
 20
150.1832140295747138
 30
0.0
 11
2756.2932653269381262
 21
150.1766246101747129
 31
0.0
  0
LINE
  5
D1A2
  8
0
 10
2756.2905362824380973
 20
150.1611753285745863
 30
0.0
 11
2756.3131995646149335
 21
150.1546327805700969
 31
0.0
  0
ARC
  5
D1A3
  8
0
 10
2756.3144366974920558
 20
150.1594691382171902
 30
0.0
 40
0.0049920790305497
 50
255.6515007074848995
 51
287.3941495332327918
  0
LINE
  5
D1A4
  8
0
 10
2756.3159299832382203
 20
150.2271500984747092
 30
0.0
 11
2756.2932653269381262
 21
150.2206077900746095
 31
0.0
  0
LINE
  5
D1A5
  8
0
 10
2756.3110077864380401
 20
150.2432363824287052
 30
0.0
 11
2756.3110077864380401
 21
150.2336932239747114
 31
0.0
  0
LINE
  5
D1A6
  8
0
 10
2756.3208503061377996
 20
150.2432319075963107
 30
0.0
 11
2756.3208503061377996
 21
150.2336932239747114
 31
0.0
  0
ARC
  5
D1A7
  8
0
 10
2756.3177553447239916
 20
150.2345645221543009
 30
0.0
 40
0.0068035801853653
 50
187.3577706682706889
 51
254.4290191891844017
  0
ARC
  5
D1A8
  8
0
 10
2756.3141942256020229
 20
150.234485300067206
 30
0.0
 40
0.0067030435348368
 50
284.9995169055949873
 51
353.2136943892962222
  0
LINE
  5
D1A9
  8
0
 10
2756.313199230038208
 20
150.2425992369747121
 30
0.0
 11
2756.2905346179381922
 21
150.2491887994746094
 31
0.0
  0
ARC
  5
D1AA
  8
0
 10
2756.292029304639982
 20
150.2255425196167096
 30
0.0
 40
0.0050871708024363
 50
252.913511372686088
 51
284.0618105652191048
  0
LINE
  5
D1AB
  8
0
 10
2756.2905346179381922
 20
150.2491887994746094
 30
0.0
 11
2756.2678716261380032
 21
150.2425993800746085
 31
0.0
  0
ARC
  5
D1AC
  8
0
 10
2756.2890430843540344
 20
150.2254433819325925
 30
0.0
 40
0.0049915507027766
 50
255.6338454110168925
 51
287.3862430436303725
  0
LINE
  5
D1AD
  8
0
 10
2756.2397488809319839
 20
150.2051585085359875
 30
0.0
 11
2756.2170842246318898
 21
150.1986162001360015
 31
0.0
  0
LINE
  5
D1AE
  8
0
 10
2756.2348266841318036
 20
150.2212447924900971
 30
0.0
 11
2756.2348266841318036
 21
150.2117016340359896
 31
0.0
  0
LINE
  5
D1AF
  8
0
 10
2756.244669203832018
 20
150.221240317657589
 30
0.0
 11
2756.244669203832018
 21
150.2117016340359896
 31
0.0
  0
ARC
  5
D1B0
  8
0
 10
2756.2415742424182099
 20
150.2125729322156076
 30
0.0
 40
0.0068035801853653
 50
187.3577706682706889
 51
254.4290191891844017
  0
ARC
  5
D1B1
  8
0
 10
2756.2380131232971507
 20
150.2124937101285127
 30
0.0
 40
0.0067030435348368
 50
284.9995169055949873
 51
353.2136943892962222
  0
LINE
  5
D1B2
  8
0
 10
2756.2370181277319716
 20
150.2206076470359903
 30
0.0
 11
2756.2143535156319558
 21
150.2271972095360013
 31
0.0
  0
ARC
  5
D1B3
  8
0
 10
2756.2158488504078377
 20
150.2035450375053927
 30
0.0
 40
0.0050812977956101
 50
252.89409274657379
 51
284.0708645798890188
  0
LINE
  5
D1B4
  8
0
 10
2756.2143535156319558
 20
150.2271972095360013
 30
0.0
 11
2756.1889605410829063
 21
150.2198140290363142
 31
0.0
  0
LINE
  5
D1B5
  8
0
 10
2756.1889605461701649
 20
150.2051392945415103
 30
0.0
 11
2756.2116247615090288
 21
150.1986159605314981
 31
0.0
  0
ARC
  5
D1B6
  8
0
 10
2756.2128618943870606
 20
150.2034523181785062
 30
0.0
 40
0.0049920790305497
 50
255.6515007074848995
 51
287.3941495332327918
  0
LINE
  5
D1B7
  8
0
 10
2756.2397488809410788
 20
150.1611753285449993
 30
0.0
 11
2756.2170842246409848
 21
150.1546330201450132
 31
0.0
  0
LINE
  5
D1B8
  8
0
 10
2756.2348266841408986
 20
150.1772616124991089
 30
0.0
 11
2756.2348266841408986
 21
150.1677184540450014
 31
0.0
  0
LINE
  5
D1B9
  8
0
 10
2756.2446692038402034
 20
150.177257137666686
 30
0.0
 11
2756.2446692038402034
 21
150.1677184540450014
 31
0.0
  0
ARC
  5
D1BA
  8
0
 10
2756.2415742424268501
 20
150.1685897522247046
 30
0.0
 40
0.0068035801853653
 50
187.3577706682706889
 51
254.4290191891844017
  0
ARC
  5
D1BB
  8
0
 10
2756.2380131233048814
 20
150.1685105301374961
 30
0.0
 40
0.0067030435348368
 50
284.9995169055949873
 51
353.2136943892962222
  0
LINE
  5
D1BC
  8
0
 10
2756.2370181277410666
 20
150.1766244670450021
 30
0.0
 11
2756.2143535156410508
 21
150.1832140295450131
 31
0.0
  0
ARC
  5
D1BD
  8
0
 10
2756.2158488504169327
 20
150.1595618575144044
 30
0.0
 40
0.0050812977956101
 50
252.89409274657379
 51
284.0708645798890188
  0
LINE
  5
D1BE
  8
0
 10
2756.2143535156410508
 20
150.1832140295450131
 30
0.0
 11
2756.1916905238408617
 21
150.1766246101450122
 31
0.0
  0
LINE
  5
D1BF
  8
0
 10
2756.18896054108518
 20
150.1611750577112048
 30
0.0
 11
2756.2116247615181237
 21
150.1546327805405099
 31
0.0
  0
ARC
  5
D1C0
  8
0
 10
2756.2128618943947913
 20
150.1594691381874895
 30
0.0
 40
0.0049920790305497
 50
255.6515007074848995
 51
287.3941495332327918
  0
LINE
  5
D1C1
  8
0
 10
2756.2397488809410788
 20
150.1171921485450014
 30
0.0
 11
2756.2170842246409848
 21
150.1106498401449869
 31
0.0
  0
LINE
  5
D1C2
  8
0
 10
2756.2348266841408986
 20
150.133278432499111
 30
0.0
 11
2756.2348266841408986
 21
150.1237352740450035
 31
0.0
  0
LINE
  5
D1C3
  8
0
 10
2756.2446692038402034
 20
150.1332739576666029
 30
0.0
 11
2756.2446692038402034
 21
150.1237352740450035
 31
0.0
  0
ARC
  5
D1C4
  8
0
 10
2756.2415742424268501
 20
150.1246065722247067
 30
0.0
 40
0.0068035801853653
 50
187.3577706682706889
 51
254.4290191891844017
  0
ARC
  5
D1C5
  8
0
 10
2756.2380131233048814
 20
150.1245273501376118
 30
0.0
 40
0.0067030435348368
 50
284.9995169055949873
 51
353.2136943892962222
  0
LINE
  5
D1C6
  8
0
 10
2756.2370181277410666
 20
150.1326412870450042
 30
0.0
 11
2756.2143535156410508
 21
150.1392308495449868
 31
0.0
  0
ARC
  5
D1C7
  8
0
 10
2756.2158488504169327
 20
150.1155786775144065
 30
0.0
 40
0.0050812977956101
 50
252.89409274657379
 51
284.0708645798890188
  0
LINE
  5
D1C8
  8
0
 10
2756.2143535156410508
 20
150.1392308495449868
 30
0.0
 11
2756.1916905238408617
 21
150.1326414301449859
 31
0.0
  0
LINE
  5
D1C9
  8
0
 10
2756.18896054108518
 20
150.1171921485450014
 30
0.0
 11
2756.2116247615181237
 21
150.110649600540512
 31
0.0
  0
ARC
  5
D1CA
  8
0
 10
2756.2128618943947913
 20
150.1154859581874916
 30
0.0
 40
0.0049920790305497
 50
255.6515007074848995
 51
287.3941495332327918
  0
LINE
  5
D1CB
  8
0
 10
2756.2397488809319839
 20
150.0732089686360098
 30
0.0
 11
2756.2170842246318898
 21
150.0666666602359953
 31
0.0
  0
LINE
  5
D1CC
  8
0
 10
2756.2348266841318036
 20
150.089295252590091
 30
0.0
 11
2756.2348266841318036
 21
150.0797520941360119
 31
0.0
  0
LINE
  5
D1CD
  8
0
 10
2756.244669203832018
 20
150.0892907777576966
 30
0.0
 11
2756.244669203832018
 21
150.0797520941360119
 31
0.0
  0
ARC
  5
D1CE
  8
0
 10
2756.2415742424182099
 20
150.0806233923156014
 30
0.0
 40
0.0068035801853653
 50
187.3577706682706889
 51
254.4290191891844017
  0
ARC
  5
D1CF
  8
0
 10
2756.2380131232971507
 20
150.0805441702285918
 30
0.0
 40
0.0067030435348368
 50
284.9995169055949873
 51
353.2136943892962222
  0
LINE
  5
D1D0
  8
0
 10
2756.2370181277319716
 20
150.0886581071360126
 30
0.0
 11
2756.2143535156319558
 21
150.0952476696359952
 31
0.0
  0
ARC
  5
D1D1
  8
0
 10
2756.2158488504078377
 20
150.0715954976053865
 30
0.0
 40
0.0050812977956101
 50
252.89409274657379
 51
284.0708645798890188
  0
LINE
  5
D1D2
  8
0
 10
2756.2143535156319558
 20
150.0952476696359952
 30
0.0
 11
2756.191690523833131
 21
150.0886582502359943
 31
0.0
  0
LINE
  5
D1D3
  8
0
 10
2756.1889605410829063
 20
150.0732089686360098
 30
0.0
 11
2756.2116247615090288
 21
150.066666420631492
 31
0.0
  0
ARC
  5
D1D4
  8
0
 10
2756.2128618943870606
 20
150.0715027782785
 30
0.0
 40
0.0049920790305497
 50
255.6515007074848995
 51
287.3941495332327918
  0
LINE
  5
D1D5
  8
0
 10
2756.3413236840378886
 20
150.0292257886746086
 30
0.0
 11
2756.3186590277377945
 21
150.0226834802745941
 31
0.0
  0
LINE
  5
D1D6
  8
0
 10
2756.3364014872381631
 20
150.0453120726286897
 30
0.0
 11
2756.3364014872381631
 21
150.0357689141746107
 31
0.0
  0
LINE
  5
D1D7
  8
0
 10
2756.3462440069379227
 20
150.0453075977962953
 30
0.0
 11
2756.3462440069379227
 21
150.0357689141746107
 31
0.0
  0
ARC
  5
D1D8
  8
0
 10
2756.3431490455241146
 20
150.0366402123543139
 30
0.0
 40
0.0068035801853653
 50
187.3577706682706889
 51
254.4290191891844017
  0
ARC
  5
D1D9
  8
0
 10
2756.339587926402146
 20
150.0365609902671906
 30
0.0
 40
0.0067030435348368
 50
284.9995169055949873
 51
353.2136943892962222
  0
LINE
  5
D1DA
  8
0
 10
2756.3384855230051471
 20
150.0447061551801085
 30
0.0
 11
2756.3159283187378605
 21
150.0512644896747076
 31
0.0
  0
ARC
  5
D1DB
  8
0
 10
2756.3174236535141972
 20
150.027612317644099
 30
0.0
 40
0.0050812977956101
 50
252.89409274657379
 51
284.0708645798890188
  0
LINE
  5
D1DC
  8
0
 10
2756.3159283187378605
 20
150.0512644896747076
 30
0.0
 11
2756.2932653269381262
 21
150.0446750702747067
 31
0.0
  0
LINE
  5
D1DD
  8
0
 10
2756.2905362824380973
 20
150.0292257886746086
 30
0.0
 11
2756.3131995646149335
 21
150.0226832406700908
 31
0.0
  0
ARC
  5
D1DE
  8
0
 10
2756.3144366974920558
 20
150.0275195983172125
 30
0.0
 40
0.0049920790305497
 50
255.6515007074848995
 51
287.3941495332327918
  0
LINE
  5
D1DF
  8
0
 10
2756.2905362825399607
 20
150.0292257886449931
 30
0.0
 11
2756.2700219456228297
 21
150.0233041846746005
 31
0.0
  0
LINE
  5
D1E0
  8
0
 10
2756.2856140857411447
 20
150.0453120725991027
 30
0.0
 11
2756.2856140857411447
 21
150.0357689141449953
 31
0.0
  0
LINE
  5
D1E1
  8
0
 10
2756.2954566054409042
 20
150.0453075977667083
 30
0.0
 11
2756.2954566054409042
 21
150.0357689141449953
 31
0.0
  0
ARC
  5
D1E2
  8
0
 10
2756.2923616440261867
 20
150.0366402123246985
 30
0.0
 40
0.0068035801853653
 50
187.3577706682706889
 51
254.4290191891844017
  0
ARC
  5
D1E3
  8
0
 10
2756.2888005249051275
 20
150.0365609902376036
 30
0.0
 40
0.0067030435348368
 50
284.9995169055949873
 51
353.2136943892962222
  0
LINE
  5
D1E4
  8
0
 10
2756.2878055293399484
 20
150.044674927144996
 30
0.0
 11
2756.2651409172399326
 21
150.051264489645007
 31
0.0
  0
LINE
  5
D1E5
  8
0
 10
2756.2651409172399326
 20
150.051264489645007
 30
0.0
 11
2756.2424779254401983
 21
150.0446750702450061
 31
0.0
  0
LINE
  5
D1E6
  8
0
 10
2756.1889605410829063
 20
150.1171921485747021
 30
0.0
 11
2756.1662968230380102
 21
150.1106498401746876
 31
0.0
  0
LINE
  5
D1E7
  8
0
 10
2756.184039282537924
 20
150.133278432528698
 30
0.0
 11
2756.184039282537924
 21
150.1237352740745905
 31
0.0
  0
LINE
  5
D1E8
  8
0
 10
2756.1938818022381383
 20
150.1332739576963036
 30
0.0
 11
2756.1938818022381383
 21
150.1237352740745905
 31
0.0
  0
ARC
  5
D1E9
  8
0
 10
2756.1907868408238755
 20
150.1246065722542937
 30
0.0
 40
0.0068035801853653
 50
187.3577706682706889
 51
254.4290191891844017
  0
ARC
  5
D1EA
  8
0
 10
2756.1872257217028164
 20
150.1245273501671988
 30
0.0
 40
0.0067030435348368
 50
284.9995169055949873
 51
353.2136943892962222
  0
LINE
  5
D1EB
  8
0
 10
2756.186230726138092
 20
150.1326412870747049
 30
0.0
 11
2756.1635661140380762
 21
150.1392308495746875
 31
0.0
  0
ARC
  5
D1EC
  8
0
 10
2756.1650614488139581
 20
150.1155786775441072
 30
0.0
 40
0.0050812977956101
 50
252.89409274657379
 51
284.0708645798890188
  0
LINE
  5
D1ED
  8
0
 10
2756.1635661140380762
 20
150.1392308495746875
 30
0.0
 11
2756.1409031222378871
 21
150.1326414301746013
 31
0.0
  0
LINE
  5
D1EE
  8
0
 10
2756.1381740777378582
 20
150.1171921485747021
 30
0.0
 11
2756.1608373599151491
 21
150.110649600570099
 31
0.0
  0
ARC
  5
D1EF
  8
0
 10
2756.1620744927918167
 20
150.1154859582171923
 30
0.0
 40
0.0049920790305497
 50
255.6515007074848995
 51
287.3941495332327918
  0
LINE
  5
D1F0
  8
0
 10
2756.1889605410829063
 20
150.0732089686360098
 30
0.0
 11
2756.167298033140014
 21
150.0669556663966091
 31
0.0
  0
LINE
  5
D1F1
  8
0
 10
2756.1840392825320123
 20
150.089295252590091
 30
0.0
 11
2756.1840392825320123
 21
150.0797520941360119
 31
0.0
  0
LINE
  5
D1F2
  8
0
 10
2756.1938818022331361
 20
150.0892907777576966
 30
0.0
 11
2756.1938818022331361
 21
150.0797520941360119
 31
0.0
  0
ARC
  5
D1F3
  8
0
 10
2756.1907868408179638
 20
150.0806233923156014
 30
0.0
 40
0.0068035801853653
 50
187.3577706682706889
 51
254.4290191891844017
  0
ARC
  5
D1F4
  8
0
 10
2756.1872257216969047
 20
150.0805441702285918
 30
0.0
 40
0.0067030435348368
 50
284.9995169055949873
 51
353.2136943892962222
  0
LINE
  5
D1F5
  8
0
 10
2756.1862307261321803
 20
150.0886581071360126
 30
0.0
 11
2756.1635661140321645
 21
150.0952476696359952
 31
0.0
  0
LINE
  5
D1F6
  8
0
 10
2756.1635661140321645
 20
150.0952476696359952
 30
0.0
 11
2756.1409031222319754
 21
150.0886582502359943
 31
0.0
  0
LINE
  5
D1F7
  8
0
 10
2756.1889605410829063
 20
150.1611750577407918
 30
0.0
 11
2756.1662968230380102
 21
150.1546330201747139
 31
0.0
  0
LINE
  5
D1F8
  8
0
 10
2756.184039282537924
 20
150.1772616125286959
 30
0.0
 11
2756.184039282537924
 21
150.1677184540747021
 31
0.0
  0
LINE
  5
D1F9
  8
0
 10
2756.1938818022381383
 20
150.1772571376963015
 30
0.0
 11
2756.1938818022381383
 21
150.1677184540747021
 31
0.0
  0
ARC
  5
D1FA
  8
0
 10
2756.1907868408238755
 20
150.1685897522542916
 30
0.0
 40
0.0068035801853653
 50
187.3577706682706889
 51
254.4290191891844017
  0
ARC
  5
D1FB
  8
0
 10
2756.1872257217028164
 20
150.1685105301671967
 30
0.0
 40
0.0067030435348368
 50
284.9995169055949873
 51
353.2136943892962222
  0
LINE
  5
D1FC
  8
0
 10
2756.186230726138092
 20
150.1766244670745891
 30
0.0
 11
2756.1635661140380762
 21
150.1832140295747138
 31
0.0
  0
ARC
  5
D1FD
  8
0
 10
2756.1650614488139581
 20
150.1595618575441051
 30
0.0
 40
0.0050812977956101
 50
252.89409274657379
 51
284.0708645798890188
  0
LINE
  5
D1FE
  8
0
 10
2756.1635661140380762
 20
150.1832140295747138
 30
0.0
 11
2756.1357036463518853
 21
150.1751128271068012
 31
0.0
  0
LINE
  5
D1FF
  8
0
 10
2756.1381740777378582
 20
150.1611753285745863
 30
0.0
 11
2756.1608373599151491
 21
150.1546327805700969
 31
0.0
  0
ARC
  5
D200
  8
0
 10
2756.1620744927918167
 20
150.1594691382171902
 30
0.0
 40
0.0049920790305497
 50
255.6515007074848995
 51
287.3941495332327918
  0
LINE
  5
D201
  8
0
 10
2756.341322747131926
 20
150.2051587790359974
 30
0.0
 11
2756.3186580908318319
 21
150.1986164706360114
 31
0.0
  0
ARC
  5
D202
  8
0
 10
2756.3174227166077799
 20
150.2035453080054026
 30
0.0
 40
0.0050812977956101
 50
252.89409274657379
 51
284.0708645798890188
  0
LINE
  5
D203
  8
0
 10
2756.2905353455321347
 20
150.2051587790359974
 30
0.0
 11
2756.3131986277089709
 21
150.1986162310315081
 31
0.0
  0
ARC
  5
D204
  8
0
 10
2756.3144357605860932
 20
150.2034525886784877
 30
0.0
 40
0.0049920790305497
 50
255.6515007074848995
 51
287.3941495332327918
  0
ARC
  5
D205
  8
0
 10
2756.2666353150079885
 20
150.2475284879054982
 30
0.0
 40
0.0050812977956101
 50
252.89409274657379
 51
284.0708645798890188
  0
LINE
  5
D206
  8
0
 10
2756.2496922607351735
 20
150.2462711845464014
 30
0.0
 11
2756.2624112261091796
 21
150.24259941093149
 31
0.0
  0
ARC
  5
D207
  8
0
 10
2756.2636483589872114
 20
150.247435768578498
 30
0.0
 40
0.0049920790305497
 50
255.6515007074848995
 51
287.3941495332327918
  0
LINE
  5
D208
  8
0
 10
2756.1889605461701649
 20
150.2051392945415103
 30
0.0
 11
2756.1662958898700708
 21
150.1985969861414958
 31
0.0
  0
ARC
  5
D209
  8
0
 10
2756.1650605156460188
 20
150.203525823510887
 30
0.0
 40
0.0050812977956101
 50
252.89409274657379
 51
284.0708645798890188
  0
LINE
  5
D20A
  8
0
 10
2756.158125688311884
 20
150.1993792958693064
 30
0.0
 11
2756.1608364267472098
 21
150.1985967465369072
 31
0.0
  0
ARC
  5
D20B
  8
0
 10
2756.1620735596238774
 20
150.2034331041840005
 30
0.0
 40
0.0049920790305497
 50
255.6515007074848995
 51
287.3941495332327918
  0
ARC
  5
D20C
  8
0
 10
2756.241241614208775
 20
150.0496041781053975
 30
0.0
 40
0.0050812977956101
 50
252.89409274657379
 51
284.0708645798890188
  0
LINE
  5
D20D
  8
0
 10
2756.2143542431322203
 20
150.0512176491359924
 30
0.0
 11
2756.2370175253090565
 21
150.044675101131503
 31
0.0
  0
ARC
  5
D20E
  8
0
 10
2756.2382546581870884
 20
150.049511458778511
 30
0.0
 40
0.0049920790305497
 50
255.6515007074848995
 51
287.3941495332327918
  0
LINE
  5
D20F
  8
0
 10
2756.3159281094322068
 20
150.1986887931360002
 30
0.0
 11
2756.3159311601712034
 21
150.2269970225696056
 31
0.0
  0
LINE
  5
D210
  8
0
 10
2756.3110098990318875
 20
150.1990998556663044
 30
0.0
 11
2756.3110098990318875
 21
150.1895566972121969
 31
0.0
  0
LINE
  5
D211
  8
0
 10
2756.3208524187321018
 20
150.1990953808337963
 30
0.0
 11
2756.3208524187321018
 21
150.1895566972121969
 31
0.0
  0
ARC
  5
D212
  8
0
 10
2756.317757457317839
 20
150.1904279953919001
 30
0.0
 40
0.0068035801853653
 50
187.3577706682706889
 51
254.4290191891844017
  0
ARC
  5
D213
  8
0
 10
2756.3141963381967798
 20
150.1903487733046916
 30
0.0
 40
0.0067030435348368
 50
284.9995169055949873
 51
353.2136943892962222
  0
LINE
  5
D214
  8
0
 10
2756.3159290463258912
 20
150.1547053426623108
 30
0.0
 11
2756.315929046320889
 21
150.183167189069593
 31
0.0
  0
LINE
  5
D215
  8
0
 10
2756.3110077851820279
 20
150.1552700221662064
 30
0.0
 11
2756.3110077851820279
 21
150.1457268637122127
 31
0.0
  0
LINE
  5
D216
  8
0
 10
2756.3208503048831517
 20
150.155265547333812
 30
0.0
 11
2756.3208503048831517
 21
150.1457268637122127
 31
0.0
  0
ARC
  5
D217
  8
0
 10
2756.3177553434679794
 20
150.1465981618918022
 30
0.0
 40
0.0068035801853653
 50
187.3577706682706889
 51
254.4290191891844017
  0
ARC
  5
D218
  8
0
 10
2756.3141942243469202
 20
150.1465189398047073
 30
0.0
 40
0.0067030435348368
 50
284.9995169055949873
 51
353.2136943892962222
  0
LINE
  5
D219
  8
0
 10
2756.3159311601762056
 20
150.1105688162622869
 30
0.0
 11
2756.3159311601712034
 21
150.1390306626695974
 31
0.0
  0
LINE
  5
D21A
  8
0
 10
2756.3110098990318875
 20
150.1111334957662962
 30
0.0
 11
2756.3110098990318875
 21
150.1015903373121887
 31
0.0
  0
LINE
  5
D21B
  8
0
 10
2756.3208524187321018
 20
150.1111290209337881
 30
0.0
 11
2756.3208524187321018
 21
150.1015903373121887
 31
0.0
  0
ARC
  5
D21C
  8
0
 10
2756.317757457317839
 20
150.1024616354918066
 30
0.0
 40
0.0068035801853653
 50
187.3577706682706889
 51
254.4290191891844017
  0
ARC
  5
D21D
  8
0
 10
2756.3141963381967798
 20
150.1023824134047118
 30
0.0
 40
0.0067030435348368
 50
284.9995169055949873
 51
353.2136943892962222
  0
LINE
  5
D21E
  8
0
 10
2756.3159290463349862
 20
150.0227558027754924
 30
0.0
 11
2756.3159290463290745
 21
150.0520779219646954
 31
0.0
  0
LINE
  5
D21F
  8
0
 10
2756.3159290463258912
 20
150.0667389827378884
 30
0.0
 11
2756.315929046320889
 21
150.0952008290695971
 31
0.0
  0
LINE
  5
D220
  8
0
 10
2756.3110077851820279
 20
150.0673036621662106
 30
0.0
 11
2756.3110077851820279
 21
150.0577605037121884
 31
0.0
  0
LINE
  5
D221
  8
0
 10
2756.3208503048831517
 20
150.0672991873337878
 30
0.0
 11
2756.3208503048831517
 21
150.0577605037121884
 31
0.0
  0
ARC
  5
D222
  8
0
 10
2756.3177553434679794
 20
150.0586318018918064
 30
0.0
 40
0.0068035801853653
 50
187.3577706682706889
 51
254.4290191891844017
  0
ARC
  5
D223
  8
0
 10
2756.3141942243469202
 20
150.0585525798047968
 30
0.0
 40
0.0067030435348368
 50
284.9995169055949873
 51
353.2136943892962222
  0
LINE
  5
D224
  8
0
 10
2756.2651416447270094
 20
150.0667389826622866
 30
0.0
 11
2756.2651416447201882
 21
150.0952008290695971
 31
0.0
  0
LINE
  5
D225
  8
0
 10
2756.260220383583146
 20
150.0673036621662106
 30
0.0
 11
2756.260220383583146
 21
150.0577605037121884
 31
0.0
  0
LINE
  5
D226
  8
0
 10
2756.2700629032819961
 20
150.0672991873337878
 30
0.0
 11
2756.2700629032819961
 21
150.0577605037121884
 31
0.0
  0
ARC
  5
D227
  8
0
 10
2756.2669679418681881
 20
150.0586318018918064
 30
0.0
 40
0.0068035801853653
 50
187.3577706682706889
 51
254.4290191891844017
  0
ARC
  5
D228
  8
0
 10
2756.2634068227471289
 20
150.0585525798047968
 30
0.0
 40
0.0067030435348368
 50
284.9995169055949873
 51
353.2136943892962222
  0
LINE
  5
D229
  8
0
 10
2756.2651416447270094
 20
150.1107221626623129
 30
0.0
 11
2756.2651416447201882
 21
150.139184009069595
 31
0.0
  0
LINE
  5
D22A
  8
0
 10
2756.260220383583146
 20
150.1112868421662085
 30
0.0
 11
2756.260220383583146
 21
150.1017436837121863
 31
0.0
  0
LINE
  5
D22B
  8
0
 10
2756.2700629032819961
 20
150.1112823673338141
 30
0.0
 11
2756.2700629032819961
 21
150.1017436837121863
 31
0.0
  0
ARC
  5
D22C
  8
0
 10
2756.2669679418681881
 20
150.1026149818918043
 30
0.0
 40
0.0068035801853653
 50
187.3577706682706889
 51
254.4290191891844017
  0
ARC
  5
D22D
  8
0
 10
2756.2634068227471289
 20
150.1025357598047094
 30
0.0
 40
0.0067030435348368
 50
284.9995169055949873
 51
353.2136943892962222
  0
LINE
  5
D22E
  8
0
 10
2756.2651416447270094
 20
150.1547053426623108
 30
0.0
 11
2756.2651416447201882
 21
150.183167189069593
 31
0.0
  0
LINE
  5
D22F
  8
0
 10
2756.260220383583146
 20
150.1552700221662064
 30
0.0
 11
2756.260220383583146
 21
150.1457268637122127
 31
0.0
  0
LINE
  5
D230
  8
0
 10
2756.2700629032819961
 20
150.155265547333812
 30
0.0
 11
2756.2700629032819961
 21
150.1457268637122127
 31
0.0
  0
ARC
  5
D231
  8
0
 10
2756.2669679418681881
 20
150.1465981618918022
 30
0.0
 40
0.0068035801853653
 50
187.3577706682706889
 51
254.4290191891844017
  0
ARC
  5
D232
  8
0
 10
2756.2634068227471289
 20
150.1465189398047073
 30
0.0
 40
0.0067030435348368
 50
284.9995169055949873
 51
353.2136943892962222
  0
LINE
  5
D233
  8
0
 10
2756.2651416447270094
 20
150.1986885225622927
 30
0.0
 11
2756.2651416447201882
 21
150.2271503689696033
 31
0.0
  0
LINE
  5
D234
  8
0
 10
2756.260220383583146
 20
150.199253202066302
 30
0.0
 11
2756.260220383583146
 21
150.1897100436121946
 31
0.0
  0
LINE
  5
D235
  8
0
 10
2756.2700629032819961
 20
150.1992487272337939
 30
0.0
 11
2756.2700629032819961
 21
150.1897100436121946
 31
0.0
  0
ARC
  5
D236
  8
0
 10
2756.2669679418681881
 20
150.1905813417918125
 30
0.0
 40
0.0068035801853653
 50
187.3577706682706889
 51
254.4290191891844017
  0
ARC
  5
D237
  8
0
 10
2756.2634068227471289
 20
150.1905021197046892
 30
0.0
 40
0.0067030435348368
 50
284.9995169055949873
 51
353.2136943892962222
  0
LINE
  5
D238
  8
0
 10
2756.2651416447270094
 20
150.2426717025622906
 30
0.0
 11
2756.2651416447238262
 21
150.2504455124378069
 31
0.0
  0
LINE
  5
D239
  8
0
 10
2756.260220383583146
 20
150.2432363820661863
 30
0.0
 11
2756.260220383583146
 21
150.2336932236121925
 31
0.0
  0
LINE
  5
D23A
  8
0
 10
2756.2700629032819961
 20
150.2432319072337918
 30
0.0
 11
2756.2700629032819961
 21
150.2336932236121925
 31
0.0
  0
ARC
  5
D23B
  8
0
 10
2756.2669679418681881
 20
150.2345645217918104
 30
0.0
 40
0.0068035801853653
 50
187.3577706682706889
 51
254.4290191891844017
  0
ARC
  5
D23C
  8
0
 10
2756.2634068227471289
 20
150.2344852997048008
 30
0.0
 40
0.0067030435348368
 50
284.9995169055949873
 51
353.2136943892962222
  0
LINE
  5
D23D
  8
0
 10
2756.2143563569761682
 20
150.1985351761622951
 30
0.0
 11
2756.2143563569698017
 21
150.2269970225696056
 31
0.0
  0
LINE
  5
D23E
  8
0
 10
2756.20943509583185
 20
150.1990998556663044
 30
0.0
 11
2756.20943509583185
 21
150.1895566972121969
 31
0.0
  0
LINE
  5
D23F
  8
0
 10
2756.2192776155320644
 20
150.1990953808337963
 30
0.0
 11
2756.2192776155320644
 21
150.1895566972121969
 31
0.0
  0
ARC
  5
D240
  8
0
 10
2756.2161826541178016
 20
150.1904279953919001
 30
0.0
 40
0.0068035801853653
 50
187.3577706682706889
 51
254.4290191891844017
  0
ARC
  5
D241
  8
0
 10
2756.2126215349971972
 20
150.1903487733046916
 30
0.0
 40
0.0067030435348368
 50
284.9995169055949873
 51
353.2136943892962222
  0
LINE
  5
D242
  8
0
 10
2756.2143542437829637
 20
150.1547053428519121
 30
0.0
 11
2756.214354243777052
 21
150.1831671892591942
 31
0.0
  0
LINE
  5
D243
  8
0
 10
2756.2094329826391004
 20
150.1552700223558077
 30
0.0
 11
2756.2094329826391004
 21
150.1457268639018139
 31
0.0
  0
LINE
  5
D244
  8
0
 10
2756.21927550233886
 20
150.1552655475234985
 30
0.0
 11
2756.21927550233886
 21
150.1457268639018139
 31
0.0
  0
ARC
  5
D245
  8
0
 10
2756.2161805409250519
 20
150.1465981620814034
 30
0.0
 40
0.0068035801853653
 50
187.3577706682706889
 51
254.4290191891844017
  0
ARC
  5
D246
  8
0
 10
2756.2126194218039927
 20
150.1465189399943938
 30
0.0
 40
0.0067030435348368
 50
284.9995169055949873
 51
353.2136943892962222
  0
LINE
  5
D247
  8
0
 10
2756.2143542431258538
 20
150.1107221626623129
 30
0.0
 11
2756.2143542431208516
 21
150.139184009069595
 31
0.0
  0
LINE
  5
D248
  8
0
 10
2756.2094329819819905
 20
150.1112868421662085
 30
0.0
 11
2756.2094329819819905
 21
150.1017436837121863
 31
0.0
  0
LINE
  5
D249
  8
0
 10
2756.2192755016822048
 20
150.1112823673338141
 30
0.0
 11
2756.2192755016822048
 21
150.1017436837121863
 31
0.0
  0
ARC
  5
D24A
  8
0
 10
2756.216180540267942
 20
150.1026149818918043
 30
0.0
 40
0.0068035801853653
 50
187.3577706682706889
 51
254.4290191891844017
  0
ARC
  5
D24B
  8
0
 10
2756.2126194211468828
 20
150.1025357598047094
 30
0.0
 40
0.0067030435348368
 50
284.9995169055949873
 51
353.2136943892962222
  0
LINE
  5
D24C
  8
0
 10
2756.2143542431258538
 20
150.0667389826622866
 30
0.0
 11
2756.2143542431208516
 21
150.0952008290695971
 31
0.0
  0
LINE
  5
D24D
  8
0
 10
2756.2094329819819905
 20
150.0673036621662106
 30
0.0
 11
2756.2094329819819905
 21
150.0577605037121884
 31
0.0
  0
LINE
  5
D24E
  8
0
 10
2756.2192755016822048
 20
150.0672991873337878
 30
0.0
 11
2756.2192755016822048
 21
150.0577605037121884
 31
0.0
  0
ARC
  5
D24F
  8
0
 10
2756.216180540267942
 20
150.0586318018918064
 30
0.0
 40
0.0068035801853653
 50
187.3577706682706889
 51
254.4290191891844017
  0
ARC
  5
D250
  8
0
 10
2756.2126194211468828
 20
150.0585525798047968
 30
0.0
 40
0.0067030435348368
 50
284.9995169055949873
 51
353.2136943892962222
  0
LINE
  5
D251
  8
0
 10
2756.1635668416261069
 20
150.1107221626623129
 30
0.0
 11
2756.1635668416201952
 21
150.139184009069595
 31
0.0
  0
LINE
  5
D252
  8
0
 10
2756.1586455804817888
 20
150.1112868421662085
 30
0.0
 11
2756.1586455804817888
 21
150.1017436837121863
 31
0.0
  0
LINE
  5
D253
  8
0
 10
2756.1684881001820031
 20
150.1112823673338141
 30
0.0
 11
2756.1684881001820031
 21
150.1017436837121863
 31
0.0
  0
ARC
  5
D254
  8
0
 10
2756.1653931387681951
 20
150.1026149818918043
 30
0.0
 40
0.0068035801853653
 50
187.3577706682706889
 51
254.4290191891844017
  0
ARC
  5
D255
  8
0
 10
2756.1618320196471359
 20
150.1025357598047094
 30
0.0
 40
0.0067030435348368
 50
284.9995169055949873
 51
353.2136943892962222
  0
LINE
  5
D256
  8
0
 10
2756.1635668416261069
 20
150.1547053426623108
 30
0.0
 11
2756.1635668416201952
 21
150.183167189069593
 31
0.0
  0
LINE
  5
D257
  8
0
 10
2756.1586455804817888
 20
150.1552700221662064
 30
0.0
 11
2756.1586455804817888
 21
150.1457268637122127
 31
0.0
  0
LINE
  5
D258
  8
0
 10
2756.1684881001820031
 20
150.155265547333812
 30
0.0
 11
2756.1684881001820031
 21
150.1457268637122127
 31
0.0
  0
ARC
  5
D259
  8
0
 10
2756.1653931387681951
 20
150.1465981618918022
 30
0.0
 40
0.0068035801853653
 50
187.3577706682706889
 51
254.4290191891844017
  0
ARC
  5
D25A
  8
0
 10
2756.1618320196471359
 20
150.1465189398047073
 30
0.0
 40
0.0067030435348368
 50
284.9995169055949873
 51
353.2136943892962222
  0
LINE
  5
D25B
  8
0
 10
2756.1635668416261069
 20
150.1986885225645096
 30
0.0
 11
2756.1635668416251974
 21
150.2037171540115139
 31
0.0
  0
LINE
  5
D25C
  8
0
 10
2756.1586455804817888
 20
150.1992532020684052
 30
0.0
 11
2756.1586455804817888
 21
150.1897100436142978
 31
0.0
  0
LINE
  5
D25D
  8
0
 10
2756.1684881001820031
 20
150.1992487272360108
 30
0.0
 11
2756.1684881001820031
 21
150.1897100436142978
 31
0.0
  0
ARC
  5
D25E
  8
0
 10
2756.1653931387681951
 20
150.190581341794001
 30
0.0
 40
0.0068035801853653
 50
187.3577706682706889
 51
254.4290191891844017
  0
ARC
  5
D25F
  8
0
 10
2756.1618320196471359
 20
150.1905021197069061
 30
0.0
 40
0.0067030435348368
 50
284.9995169055949873
 51
353.2136943892962222
  0
LINE
  5
D260
  8
0
 10
2756.1840392811818674
 20
150.2172372475911004
 30
0.0
 11
2756.1840392811818674
 21
150.2117016336121935
 31
0.0
  0
LINE
  5
D261
  8
0
 10
2756.1938818008829912
 20
150.2212403172337929
 30
0.0
 11
2756.1938818008829912
 21
150.2117016336121935
 31
0.0
  0
ARC
  5
D262
  8
0
 10
2756.1907868394678189
 20
150.2125729317918115
 30
0.0
 40
0.0068035801853653
 50
187.3577706682706889
 51
254.4290191891844017
  0
ARC
  5
D263
  8
0
 10
2756.1872257203472145
 20
150.2124937097048019
 30
0.0
 40
0.0067030435348368
 50
284.9995169055949873
 51
353.2136943892962222
  0
LINE
  5
D264
  8
0
 10
2756.1332518796821205
 20
150.1715638135219137
 30
0.0
 11
2756.1332518796821205
 21
150.1677184536121956
 31
0.0
  0
LINE
  5
D265
  8
0
 10
2756.1430943993818801
 20
150.177257137233795
 30
0.0
 11
2756.1430943993818801
 21
150.1677184536121956
 31
0.0
  0
ARC
  5
D266
  8
0
 10
2756.139999437968072
 20
150.1685897517918136
 30
0.0
 40
0.0068035801853653
 50
187.3577706682706889
 51
254.4290191891844017
  0
ARC
  5
D267
  8
0
 10
2756.1364383188470129
 20
150.1685105297046903
 30
0.0
 40
0.0067030435348368
 50
284.9995169055949873
 51
353.2136943892962222
  0
LINE
  5
D268
  8
0
 10
2756.1381731409519489
 20
150.1327137526984927
 30
0.0
 11
2756.1381731409460372
 21
150.1611755991058033
 31
0.0
  0
LINE
  5
D269
  8
0
 10
2756.1332518798080855
 20
150.1332784322023883
 30
0.0
 11
2756.1332518798080855
 21
150.1237352737483945
 31
0.0
  0
LINE
  5
D26A
  8
0
 10
2756.1430943995069356
 20
150.1332739573699939
 30
0.0
 11
2756.1430943995069356
 21
150.1237352737483945
 31
0.0
  0
ARC
  5
D26B
  8
0
 10
2756.1399994380931275
 20
150.1246065719280125
 30
0.0
 40
0.0068035801853653
 50
187.3577706682706889
 51
254.4290191891844017
  0
ARC
  5
D26C
  8
0
 10
2756.1364383189720684
 20
150.1245273498410029
 30
0.0
 40
0.0067030435348368
 50
284.9995169055949873
 51
353.2136943892962222
  0
LINE
  5
D26D
  8
0
 10
2756.392110148626216
 20
150.088730572662314
 30
0.0
 11
2756.3921099936878818
 21
150.1171924190695961
 31
0.0
  0
LINE
  5
D26E
  8
0
 10
2756.3871888874818978
 20
150.0892952521662096
 30
0.0
 11
2756.3871888874818978
 21
150.0797520937121874
 31
0.0
  0
LINE
  5
D26F
  8
0
 10
2756.3970314071821122
 20
150.0892907773337868
 30
0.0
 11
2756.3970314071821122
 21
150.0797520937121874
 31
0.0
  0
ARC
  5
D270
  8
0
 10
2756.3939364457678494
 20
150.0806233918918053
 30
0.0
 40
0.0068035801853653
 50
187.3577706682706889
 51
254.4290191891844017
  0
ARC
  5
D271
  8
0
 10
2756.3903753266467902
 20
150.0805441698047105
 30
0.0
 40
0.0067030435348368
 50
284.9995169055949873
 51
353.2136943892962222
  0
LINE
  5
D272
  8
0
 10
2756.3921099936878818
 20
150.0447473479466112
 30
0.0
 11
2756.3921099936878818
 21
150.0732091944549893
 31
0.0
  0
LINE
  5
D273
  8
0
 10
2756.3871888874818978
 20
150.0453120722661993
 30
0.0
 11
2756.3871888874818978
 21
150.0357689138122055
 31
0.0
  0
LINE
  5
D274
  8
0
 10
2756.3970314071821122
 20
150.0453075974338049
 30
0.0
 11
2756.3970314071821122
 21
150.0357689138122055
 31
0.0
  0
ARC
  5
D275
  8
0
 10
2756.3939365639039352
 20
150.0366402648996029
 30
0.0
 40
0.006803704123686
 50
187.3580851451295075
 51
254.4269336543997895
  0
ARC
  5
D276
  8
0
 10
2756.3903754372599906
 20
150.0365609410262948
 30
0.0
 40
0.0067029279204021
 50
284.9974427439992724
 51
353.2139975403633798
  0
LINE
  5
D277
  8
0
 10
2756.3921099936760584
 20
150.1327137973925119
 30
0.0
 11
2756.3921099936878818
 21
150.1620358278443916
 31
0.0
  0
LINE
  5
D278
  8
0
 10
2756.387188732532195
 20
150.1332784768964927
 30
0.0
 11
2756.387188732532195
 21
150.1237353184424137
 31
0.0
  0
LINE
  5
D279
  8
0
 10
2756.3970312522319546
 20
150.1332740020640131
 30
0.0
 11
2756.3970312522319546
 21
150.1237353184424137
 31
0.0
  0
ARC
  5
D27A
  8
0
 10
2756.3939362908181465
 20
150.1246066166220885
 30
0.0
 40
0.0068035801853653
 50
187.3577706682706889
 51
254.4290191891844017
  0
ARC
  5
D27B
  8
0
 10
2756.3903751716970874
 20
150.1245273945349936
 30
0.0
 40
0.0067030435348368
 50
284.9995169055949873
 51
353.2136943892962222
  0
LINE
  5
D27C
  8
0
 10
2756.3921099936878818
 20
150.1766969325589116
 30
0.0
 11
2756.3921099936878818
 21
150.2051585084747103
 31
0.0
  0
LINE
  5
D27D
  8
0
 10
2756.387188887494176
 20
150.1772616120628072
 30
0.0
 11
2756.387188887494176
 21
150.1677184536088134
 31
0.0
  0
LINE
  5
D27E
  8
0
 10
2756.3970314071939356
 20
150.1772571372304128
 30
0.0
 11
2756.3970314071939356
 21
150.1677184536088134
 31
0.0
  0
ARC
  5
D27F
  8
0
 10
2756.3939366862941824
 20
150.168589859504408
 30
0.0
 40
0.0068038325138033
 50
187.3584109051718087
 51
254.4261650379656032
  0
ARC
  5
D280
  8
0
 10
2756.3903753181098182
 20
150.1685105334786101
 30
0.0
 40
0.0067030524694574
 50
284.9982119108149732
 51
353.2136709624098785
  0
LINE
  5
D281
  8
0
 10
2756.3921099936878818
 20
150.2206935354452071
 30
0.0
 11
2756.3921099936878818
 21
150.2491416883835882
 31
0.0
  0
LINE
  5
D282
  8
0
 10
2756.3871888874818978
 20
150.2212447920661873
 30
0.0
 11
2756.3871888874818978
 21
150.2117016336121935
 31
0.0
  0
LINE
  5
D283
  8
0
 10
2756.3970314071821122
 20
150.2212403172337929
 30
0.0
 11
2756.3970314071821122
 21
150.2117016336121935
 31
0.0
  0
ARC
  5
D284
  8
0
 10
2756.3939365639039352
 20
150.212572984699591
 30
0.0
 40
0.006803704123683
 50
187.3580851451067986
 51
254.4269336544261932
  0
ARC
  5
D285
  8
0
 10
2756.3903754372599906
 20
150.2124936608263113
 30
0.0
 40
0.0067029279203997
 50
284.9974427439980218
 51
353.2139975403746917
  0
LINE
  5
D286
  8
0
 10
2756.387188732532195
 20
150.2661514871959128
 30
0.0
 11
2756.387188732532195
 21
150.2556848582424038
 31
0.0
  0
LINE
  5
D287
  8
0
 10
2756.3970312522319546
 20
150.2661515374655892
 30
0.0
 11
2756.3970312522319546
 21
150.2556848582424038
 31
0.0
  0
ARC
  5
D288
  8
0
 10
2756.3939362908181465
 20
150.2565561564221071
 30
0.0
 40
0.0068035801853653
 50
187.3577706682706889
 51
254.4290191891844017
  0
ARC
  5
D289
  8
0
 10
2756.3903751716970874
 20
150.2564769343350122
 30
0.0
 40
0.0067030435348368
 50
284.9995169055949873
 51
353.2136943892962222
  0
ARC
  5
D28A
  8
0
 10
2756.2412425511101901
 20
150.225536627444086
 30
0.0
 40
0.0050812977956101
 50
252.89409274657379
 51
284.0708645798890188
  0
ARC
  5
D28B
  8
0
 10
2756.2382555950889582
 20
150.2254439081171995
 30
0.0
 40
0.0049920790305497
 50
255.6515007074848995
 51
287.3941495332327918
  0
ARC
  5
D28C
  8
0
 10
2756.2412404372598758
 20
150.1817365641952904
 30
0.0
 40
0.0050812977956101
 50
252.89409274657379
 51
284.0708645798890188
  0
ARC
  5
D28D
  8
0
 10
2756.2382534812381891
 20
150.1816438448684039
 30
0.0
 40
0.0049920790305497
 50
255.6515007074848995
 51
287.3941495332327918
  0
ARC
  5
D28E
  8
0
 10
2756.2412425511101901
 20
150.1375702675452999
 30
0.0
 40
0.0050812977956101
 50
252.89409274657379
 51
284.0708645798890188
  0
ARC
  5
D28F
  8
0
 10
2756.2382555950889582
 20
150.1374775482182997
 30
0.0
 40
0.0049920790305497
 50
255.6515007074848995
 51
287.3941495332327918
  0
ARC
  5
D290
  8
0
 10
2756.2412425511101901
 20
150.0935870875451883
 30
0.0
 40
0.0050812977956101
 50
252.89409274657379
 51
284.0708645798890188
  0
ARC
  5
D291
  8
0
 10
2756.2382555950889582
 20
150.0934943682183018
 30
0.0
 40
0.0049920790305497
 50
255.6515007074848995
 51
287.3941495332327918
  0
ARC
  5
D292
  8
0
 10
2756.190455149509944
 20
150.1815534474451965
 30
0.0
 40
0.0050812977956101
 50
252.89409274657379
 51
284.0708645798890188
  0
ARC
  5
D293
  8
0
 10
2756.1874681934878026
 20
150.18146072811831
 30
0.0
 40
0.0049920790305497
 50
255.6515007074848995
 51
287.3941495332327918
  0
ARC
  5
D294
  8
0
 10
2756.190455149509944
 20
150.1375702675452999
 30
0.0
 40
0.0050812977956101
 50
252.89409274657379
 51
284.0708645798890188
  0
ARC
  5
D295
  8
0
 10
2756.1874681934878026
 20
150.1374775482182997
 30
0.0
 40
0.0049920790305497
 50
255.6515007074848995
 51
287.3941495332327918
  0
ARC
  5
D296
  8
0
 10
2756.190455149509944
 20
150.0935870875451883
 30
0.0
 40
0.0050812977956101
 50
252.89409274657379
 51
284.0708645798890188
  0
ARC
  5
D297
  8
0
 10
2756.1874681934878026
 20
150.0934943682183018
 30
0.0
 40
0.0049920790305497
 50
255.6515007074848995
 51
287.3941495332327918
  0
ARC
  5
D298
  8
0
 10
2756.1396677481238839
 20
150.1375702675690889
 30
0.0
 40
0.0050812977956101
 50
252.89409274657379
 51
284.0708645798890188
  0
ARC
  5
D299
  8
0
 10
2756.1366807921021973
 20
150.1374775482422024
 30
0.0
 40
0.0049920790305497
 50
255.6515007074848995
 51
287.3941495332327918
  0
LINE
  5
D29A
  8
0
 10
2756.2905346179381922
 20
150.018645925037589
 30
0.0
 11
2756.2905346179381922
 21
150.0300865355694953
 31
0.0
  0
LINE
  5
D29B
  8
0
 10
2756.2905346179381922
 20
150.0447473661133131
 30
0.0
 11
2756.2905346179381922
 21
150.0740697155582097
 31
0.0
  0
LINE
  5
D29C
  8
0
 10
2756.2905346179381922
 20
150.0887305461068877
 30
0.0
 11
2756.2905346179381922
 21
150.1180528954695035
 31
0.0
  0
LINE
  5
D29D
  8
0
 10
2756.2905346179381922
 20
150.1327137260132929
 30
0.0
 11
2756.2905346179381922
 21
150.1620360754695014
 31
0.0
  0
LINE
  5
D29E
  8
0
 10
2756.2905346179381922
 20
150.1766969060132908
 30
0.0
 11
2756.2905346179381922
 21
150.2060193792210043
 31
0.0
  0
LINE
  5
D29F
  8
0
 10
2756.2905346179381922
 20
150.2206798846895026
 30
0.0
 11
2756.2905346179381922
 21
150.2562320397557869
 31
0.0
  0
LINE
  5
D2A0
  8
0
 10
2756.3413220195379836
 20
150.0447471826817036
 30
0.0
 11
2756.3413220195379836
 21
150.0740697155302996
 31
0.0
  0
LINE
  5
D2A1
  8
0
 10
2756.3413220195379836
 20
150.088730889937608
 30
0.0
 11
2756.3413220195379836
 21
150.1182036652224951
 31
0.0
  0
LINE
  5
D2A2
  8
0
 10
2756.3413220195379836
 20
150.132713415814294
 30
0.0
 11
2756.3413220195379836
 21
150.1620360754706098
 31
0.0
  0
LINE
  5
D2A3
  8
0
 10
2756.3413220195379836
 20
150.1766966915035084
 30
0.0
 11
2756.3413220195379836
 21
150.2060192546622943
 31
0.0
  0
LINE
  5
D2A4
  8
0
 10
2756.3413220195379836
 20
150.2206798847012124
 30
0.0
 11
2756.3413220195379836
 21
150.2500024345623046
 31
0.0
  0
LINE
  5
D2A5
  8
0
 10
2756.3413220195379836
 20
150.03008653557049
 30
0.0
 11
2756.3413220195379836
 21
150.0110897378035872
 31
0.0
  0
LINE
  5
D2A6
  8
0
 10
2756.2397479439350718
 20
150.0447473750004121
 30
0.0
 11
2756.2397479439350718
 21
150.0740695127632023
 31
0.0
  0
LINE
  5
D2A7
  8
0
 10
2756.2397479439350718
 20
150.0887305726755869
 30
0.0
 11
2756.2397479439350718
 21
150.118052692674496
 31
0.0
  0
LINE
  5
D2A8
  8
0
 10
2756.2397479439350718
 20
150.1327137526756133
 30
0.0
 11
2756.2397479439350718
 21
150.1620358726744939
 31
0.0
  0
LINE
  5
D2A9
  8
0
 10
2756.2397479439350718
 20
150.1768793992854114
 30
0.0
 11
2756.2397479439350718
 21
150.2060190526632084
 31
0.0
  0
LINE
  5
D2AA
  8
0
 10
2756.2397479439350718
 20
150.2206801125743993
 30
0.0
 11
2756.2397479439350718
 21
150.2430886992395074
 31
0.0
  0
LINE
  5
D2AB
  8
0
 10
2756.1889605410829063
 20
150.0533653529753053
 30
0.0
 11
2756.1889605410829063
 21
150.0740695131121072
 31
0.0
  0
LINE
  5
D2AC
  8
0
 10
2756.1889605410829063
 20
150.0887305730609
 30
0.0
 11
2756.1889605410829063
 21
150.1180526930523058
 31
0.0
  0
LINE
  5
D2AD
  8
0
 10
2756.1889605410829063
 20
150.1327137530608979
 30
0.0
 11
2756.1889605410829063
 21
150.1620358730523037
 31
0.0
  0
LINE
  5
D2AE
  8
0
 10
2756.1889605410829063
 20
150.1766969329609083
 30
0.0
 11
2756.1889605410829063
 21
150.206019052212099
 31
0.0
  0
LINE
  5
D2AF
  8
0
 10
2756.1889605410829063
 20
150.2198140290363142
 30
0.0
 11
2756.1889605410829063
 21
150.2201288128586043
 31
0.0
  0
LINE
  5
D2B0
  8
0
 10
2756.1635661140321645
 20
150.0952476696359952
 30
0.0
 11
2756.1635661140321645
 21
150.0696304498960956
 31
0.0
  0
LINE
  5
D2B1
  8
0
 10
2756.3617951880378314
 20
150.0233161744912138
 30
0.0
 11
2756.3617951880378314
 21
150.0130033533596929
 31
0.0
  0
LINE
  5
D2B2
  8
0
 10
2756.3716377077380457
 20
150.0233161744747008
 30
0.0
 11
2756.3716377077380457
 21
150.0132352419745132
 31
0.0
  0
ARC
  5
D2B3
  8
0
 10
2756.3666405874569136
 20
150.0142729182076096
 30
0.0
 40
0.0050089610136091
 50
194.6822762607023947
 51
255.1538451207611899
  0
ARC
  5
D2B4
  8
0
 10
2756.3675118127448513
 20
150.0134109890387037
 30
0.0
 40
0.004129636366756
 50
277.8399452112684003
 51
357.5608973304622964
  0
ARC
  5
D2B5
  8
0
 10
2756.3398342360469542
 20
150.0495340886945996
 30
0.0
 40
0.0050127805548843
 50
254.3919658806076995
 51
287.2653876511408839
  0
ARC
  5
D2B6
  8
0
 10
2756.3398267534707884
 20
150.0935960844425949
 30
0.0
 40
0.0050897876363926
 50
255.971091973052495
 51
287.0928258359990082
  0
ARC
  5
D2B7
  8
0
 10
2756.3174237073949371
 20
150.2475306830849888
 30
0.0
 40
0.0050836763988867
 50
252.8977622214090104
 51
284.0635193914732213
  0
ARC
  5
D2B8
  8
0
 10
2756.3144363629148756
 20
150.2474355946216917
 30
0.0
 40
0.0049920790305497
 50
255.6515007074848995
 51
287.3941495332327918
  0
LINE
  5
D2B9
  8
0
 10
2756.3159287117609892
 20
150.2426717990792042
 30
0.0
 11
2756.3159306527841181
 21
150.2606828215481016
 31
0.0
  0
ARC
  5
D2BA
  8
0
 10
2756.2920296566030629
 20
150.0935927377055066
 30
0.0
 40
0.0050868504745158
 50
252.9082548722741137
 51
284.0586274420683139
  0
ARC
  5
D2BB
  8
0
 10
2756.2890426622097948
 20
150.093494464783106
 30
0.0
 40
0.0049920790305508
 50
255.6515007074592916
 51
287.3894214380185872
  0
ARC
  5
D2BC
  8
0
 10
2756.2918008040351197
 20
150.136179250428512
 30
0.0
 40
0.0036896071960197
 50
249.9290814577049957
 51
293.3706676905738959
  0
ARC
  5
D2BD
  8
0
 10
2756.2890426622179803
 20
150.1374776446920976
 30
0.0
 40
0.004992079030548
 50
255.6515007074592916
 51
287.3891283858998804
  0
ARC
  5
D2BE
  8
0
 10
2756.2920292681551473
 20
150.1815567269277949
 30
0.0
 40
0.0050844703354867
 50
252.9045873545433949
 51
284.0659710692623889
  0
ARC
  5
D2BF
  8
0
 10
2756.2890426622179803
 20
150.1814608246920102
 30
0.0
 40
0.0049920790305489
 50
255.6515007074592916
 51
287.3894213381441887
  0
ARC
  5
D2C0
  8
0
 10
2756.292029656538034
 20
150.0496095573828086
 30
0.0
 40
0.0050868501410118
 50
252.9082544768008063
 51
284.0586291961610073
  0
ARC
  5
D2C1
  8
0
 10
2756.2890426622179803
 20
150.0495112847920893
 30
0.0
 40
0.0049920790305489
 50
255.6515007074592916
 51
287.3894213381447003
  0
ARC
  5
D2C2
  8
0
 10
2756.3398277687620066
 20
150.1815616958234898
 30
0.0
 40
0.0050893076559378
 50
255.9579598638595996
 51
287.0935642303510917
  0
LINE
  5
D2C3
  8
0
 10
2756.1354433170381526
 20
150.1326415112746986
 30
0.0
 11
2756.1208191470091151
 21
150.1368631454986087
 31
0.0
  0
LINE
  5
D2C4
  8
0
 10
2756.1381740777378582
 20
150.1171921485747021
 30
0.0
 11
2756.1237277029490542
 21
150.1130226187634094
 31
0.0
  0
LINE
  5
D2C5
  8
0
 10
2756.2143603405761496
 20
150.0512158888959107
 30
0.0
 11
2756.2006490319149634
 21
150.0472624789364886
 31
0.0
  0
LINE
  5
D2C6
  8
0
 10
2756.2621761401378535
 20
150.0504024604861968
 30
0.0
 11
2756.2621761401378535
 21
150.0290029620747134
 31
0.0
  0
ARC
  5
D2C7
  8
0
 10
2756.2678371661490928
 20
150.0294076027909114
 30
0.0
 40
0.0056754691093618
 50
184.0884535646976019
 51
236.7231634079637104
  0
LINE
  5
D2C8
  8
0
 10
2756.2348266841381701
 20
150.0453075639593123
 30
0.0
 11
2756.2348266841381701
 21
150.0372897538746884
 31
0.0
  0
LINE
  5
D2C9
  8
0
 10
2756.2446692038379297
 20
150.0453077644816062
 30
0.0
 11
2756.2446692038379297
 21
150.0340567792746072
 31
0.0
  0
ARC
  5
D2CA
  8
0
 10
2756.241016127767125
 20
150.0377186394956084
 30
0.0
 40
0.0062042852376966
 50
183.9638650075901865
 51
233.4007414906396889
  0
ARC
  5
D2CB
  8
0
 10
2756.2418478491249516
 20
150.0339485355517866
 30
0.0
 40
0.0028234303818589
 50
278.1174762695566187
 51
2.1971247318209568
  0
LINE
  5
D2CC
  8
0
 10
2756.3110077864380401
 20
150.0233161744912138
 30
0.0
 11
2756.3110077864380401
 21
150.0189138833746085
 31
0.0
  0
LINE
  5
D2CD
  8
0
 10
2756.3208503061377996
 20
150.0233161744747008
 30
0.0
 11
2756.3208503061377996
 21
150.0175089514746958
 31
0.0
  0
ARC
  5
D2CE
  8
0
 10
2756.3161939206188435
 20
150.0192794012619117
 30
0.0
 40
0.0051989990453027
 50
184.0315305521810956
 51
247.8269626313590095
  0
ARC
  5
D2CF
  8
0
 10
2756.3173201080089711
 20
150.0175247468893076
 30
0.0
 40
0.0035302334659626
 50
265.9239402054046764
 51
359.743639160779594
  0
LINE
  5
D2D0
  8
0
 10
2756.3667173848380116
 20
150.0952005585745894
 30
0.0
 11
2756.3893806664609656
 21
150.0886580107010957
 31
0.0
  0
LINE
  5
D2D1
  8
0
 10
2756.3667183217439742
 20
150.1391840089559082
 30
0.0
 11
2756.3893805887751114
 21
150.1326412130289896
 31
0.0
  0
ARC
  5
D2D2
  8
0
 10
2756.3906155043009676
 20
150.1375579098703099
 30
0.0
 40
0.0050694106351478
 50
255.900804135160314
 51
287.1458656530696771
  0
ARC
  5
D2D3
  8
0
 10
2756.3683954574089512
 20
150.1464304795970861
 30
0.0
 40
0.0066032252676619
 50
178.6386004845871867
 51
255.2696002327155895
  0
LINE
  5
D2D4
  8
0
 10
2756.3667164479379608
 20
150.1400442826746087
 30
0.0
 11
2756.3921099936760584
 21
150.1327137974082007
 31
0.0
  0
LINE
  5
D2D5
  8
0
 10
2756.3667183217439742
 20
150.1831671889559061
 30
0.0
 11
2756.389380332338078
 21
150.1766244670745891
 31
0.0
  0
ARC
  5
D2D6
  8
0
 10
2756.3906177544340608
 20
150.1814599815232896
 30
0.0
 40
0.0049913338324824
 50
255.6458856431353013
 51
287.3955110003930145
  0
ARC
  5
D2D7
  8
0
 10
2756.2977634699550435
 20
149.9836306005111055
 30
0.0
 40
0.0379993317464945
 50
344.2791301093628249
 51
356.9414719830666058
  0
ARC
  5
D2D8
  8
0
 10
2756.3400560885911545
 20
150.1361860349506117
 30
0.0
 40
0.0036961689394948
 50
246.6646926378097078
 51
290.0566124617154173
  0
LINE
  5
D2D9
  8
0
 10
2756.2192755030378066
 20
150.2336932239747114
 30
0.0
 11
2756.2192755030378066
 21
150.2352461388950076
 31
0.0
  0
ARC
  5
D2DA
  8
0
 10
2756.2164762819338648
 20
150.2350926030073026
 30
0.0
 40
0.0073930516177332
 50
212.082782236996394
 51
253.3196797399326954
  0
ARC
  5
D2DB
  8
0
 10
2756.2126195791961436
 20
150.2344851643970003
 30
0.0
 40
0.0067028719082585
 50
284.9985224503545851
 51
353.214687692210191
  0
LINE
  5
D2DC
  8
0
 10
2756.1381731408378073
 20
150.1611755989746086
 30
0.0
 11
2756.126016381233967
 21
150.1576662448007937
 31
0.0
  0
LINE
  5
D2DD
  8
0
 10
2756.3667173848380116
 20
150.0512179195173132
 30
0.0
 11
2756.3893803248379299
 21
150.0446751513746051
 31
0.0
  0
ARC
  5
D2DE
  8
0
 10
2756.3906178175589048
 20
150.0495110030182957
 30
0.0
 40
0.0049918933522375
 50
255.6467811705207112
 51
287.3927397628530116
  0
ARC
  5
D2DF
  8
0
 10
2756.5956643335539411
 20
150.1303260393746086
 30
0.0
 40
0.0680976588
 50
0.0022867289997503
 51
2.8294904632000359
  0
ARC
  5
D2E0
  8
0
 10
2756.3944498533969636
 20
150.4916906179722105
 30
0.0
 40
0.4971958365940137
 50
269.7303586011767038
 51
286.1098928080887731
  0
ARC
  5
D2E1
  8
0
 10
2756.4516994400742078
 20
150.2959860449028895
 30
0.0
 40
0.2932915185189223
 50
285.9736804876122278
 51
301.398856405885283
  0
ARC
  5
D2E2
  8
0
 10
2756.5179039673212174
 20
150.1872988411888912
 30
0.0
 40
0.1660283106883226
 50
301.4387539991716949
 51
317.6585162713276986
  0
ARC
  5
D2E3
  8
0
 10
2756.5676759508469331
 20
150.1413379087921101
 30
0.0
 40
0.0982837999895464
 50
317.9196363274039072
 51
338.397844062718093
  0
ARC
  5
D2E4
  8
0
 10
2756.5930496658888842
 20
150.1305183238843028
 30
0.0
 40
0.0707125805078704
 50
338.9796799724879861
 51
359.8464009811594906
  0
ARC
  5
D2E5
  8
0
 10
2756.3943356665131432
 20
149.7640130833030128
 30
0.0
 40
0.5021456893483683
 50
75.8100904718318986
 51
90.2539543397545572
  0
ARC
  5
D2E6
  8
0
 10
2756.4515859717339481
 20
149.9699683758134938
 30
0.0
 40
0.2884838628091697
 50
53.9858048582647001
 51
76.8064327716496962
  0
ARC
  5
D2E7
  8
0
 10
2756.5395283231719077
 20
150.0968988042947956
 30
0.0
 40
0.1341502793360812
 50
34.4739303516301518
 51
52.4911112595011886
  0
ARC
  5
D2E8
  8
0
 10
2756.585369441516832
 20
150.1284824401944036
 30
0.0
 40
0.0784823308822585
 50
3.8028036501344049
 51
34.4085654796021529
  0
ARC
  5
D2E9
  8
0
 10
2756.397928343832973
 20
150.487815005138998
 30
0.0
 40
0.4788417798304505
 50
269.3038071316246942
 51
289.518104674101096
  0
ARC
  5
D2EA
  8
0
 10
2756.4760361054841269
 20
150.2674666927136116
 30
0.0
 40
0.2450593997866734
 50
289.5181124357388853
 51
311.9397087472107728
  0
ARC
  5
D2EB
  8
0
 10
2756.5815261526950053
 20
150.1500599103167986
 30
0.0
 40
0.0872224503316398
 50
311.9397087472107728
 51
338.4373529042090922
  0
LINE
  5
D2EC
  8
0
 10
2756.4175047864541739
 20
150.2271500984747092
 30
0.0
 11
2756.3948415048298557
 21
150.2206075506009029
 31
0.0
  0
ARC
  5
D2ED
  8
0
 10
2756.3936217724321978
 20
150.2252893131017117
 30
0.0
 40
0.0048380416738762
 50
251.7914055297030131
 51
284.6025741255526782
  0
LINE
  5
D2EE
  8
0
 10
2756.4175047864541739
 20
150.2271500984747092
 30
0.0
 11
2756.4401694427538132
 21
150.2206077900746095
 31
0.0
  0
LINE
  5
D2EF
  8
0
 10
2756.4224269832548089
 20
150.2432363824287052
 30
0.0
 11
2756.4224269832548089
 21
150.2336932239747114
 31
0.0
  0
LINE
  5
D2F0
  8
0
 10
2756.4125844635541398
 20
150.2432319075963107
 30
0.0
 11
2756.4125844635541398
 21
150.2336932239747114
 31
0.0
  0
ARC
  5
D2F1
  8
0
 10
2756.4156794249679479
 20
150.2345645221543009
 30
0.0
 40
0.0068035801853653
 50
285.5709808108156267
 51
352.6422293317293111
  0
ARC
  5
D2F2
  8
0
 10
2756.4192405440899165
 20
150.234485300067206
 30
0.0
 40
0.0067030435348368
 50
186.7863056107036925
 51
255.0004830944050127
  0
LINE
  5
D2F3
  8
0
 10
2756.3921099936878818
 20
150.2491416883835882
 30
0.0
 11
2756.4147757419541449
 21
150.2425993800746085
 31
0.0
  0
LINE
  5
D2F4
  8
0
 10
2756.4202355396541861
 20
150.2425992369747121
 30
0.0
 11
2756.4429001517542019
 21
150.2491887994746094
 31
0.0
  0
ARC
  5
D2F5
  8
0
 10
2756.4189980490527887
 20
150.2474353607258877
 30
0.0
 40
0.0049919410979655
 50
252.6056329176782071
 51
284.3531423343530946
  0
ARC
  5
D2F6
  8
0
 10
2756.4160135538818395
 20
150.2474362072208862
 30
0.0
 40
0.0049927021953085
 50
255.6452863087914977
 51
287.3897521701380242
  0
LINE
  5
D2F7
  8
0
 10
2756.417505723350132
 20
150.2426717024735012
 30
0.0
 11
2756.4175057233551343
 21
150.2656239094276884
 31
0.0
  0
ARC
  5
D2F8
  8
0
 10
2756.4414048169787748
 20
150.225536627444086
 30
0.0
 40
0.0050812977956101
 50
255.9291354201110948
 51
287.10590725342621
  0
LINE
  5
D2F9
  8
0
 10
2756.4224269832629943
 20
150.1992532025197136
 30
0.0
 11
2756.4224269832629943
 21
150.1897100440656061
 31
0.0
  0
LINE
  5
D2FA
  8
0
 10
2756.41258446356278
 20
150.1992487276872907
 30
0.0
 11
2756.41258446356278
 21
150.1897100440656061
 31
0.0
  0
LINE
  5
D2FB
  8
0
 10
2756.3921099936878818
 20
150.2051585084747103
 30
0.0
 11
2756.4147757419627851
 21
150.1986162001657021
 31
0.0
  0
LINE
  5
D2FC
  8
0
 10
2756.4202355396628263
 20
150.1986160570656068
 30
0.0
 11
2756.4428994241598048
 21
150.2051587790359974
 31
0.0
  0
ARC
  5
D2FD
  8
0
 10
2756.4189980490618836
 20
150.2034521808168961
 30
0.0
 40
0.0049919410979655
 50
252.6056329176782071
 51
284.3531423343530946
  0
ARC
  5
D2FE
  8
0
 10
2756.4160135538909344
 20
150.2034530273118946
 30
0.0
 40
0.0049927021953085
 50
255.6452863087914977
 51
287.3897521701380242
  0
LINE
  5
D2FF
  8
0
 10
2756.417505723359227
 20
150.1986885225645096
 30
0.0
 11
2756.4175057233637745
 21
150.2271503689717065
 31
0.0
  0
LINE
  5
D300
  8
0
 10
2756.4224280752127925
 20
150.1552660296028137
 30
0.0
 11
2756.4224280752127925
 21
150.1465873634354011
 31
0.0
  0
LINE
  5
D301
  8
0
 10
2756.3921099936878818
 20
150.1620358278443916
 30
0.0
 11
2756.4175057233542248
 21
150.1547053425746014
 31
0.0
  0
LINE
  5
D302
  8
0
 10
2756.4202355396541861
 20
150.1546328770747039
 30
0.0
 11
2756.44289848724884
 21
150.1611753285133091
 31
0.0
  0
ARC
  5
D303
  8
0
 10
2756.4189984021759301
 20
150.1594823031566932
 30
0.0
 40
0.0050047419979732
 50
252.6473014910305892
 51
284.3114737613752254
  0
LINE
  5
D304
  8
0
 10
2756.4175057233542248
 20
150.1547053425746014
 30
0.0
 11
2756.4175070284632056
 21
150.1831662713406104
 31
0.0
  0
LINE
  5
D305
  8
0
 10
2756.4224269832629943
 20
150.1112868426197053
 30
0.0
 11
2756.4224269832629943
 21
150.1017436841657116
 31
0.0
  0
LINE
  5
D306
  8
0
 10
2756.41258446356278
 20
150.1112823677873109
 30
0.0
 11
2756.41258446356278
 21
150.1017436841657116
 31
0.0
  0
LINE
  5
D307
  8
0
 10
2756.3921099936878818
 20
150.1171924190695961
 30
0.0
 11
2756.4147757419627851
 21
150.1106498402656086
 31
0.0
  0
LINE
  5
D308
  8
0
 10
2756.4202355396628263
 20
150.1106496971655986
 30
0.0
 11
2756.4428994241598048
 21
150.1173430650374883
 31
0.0
  0
ARC
  5
D309
  8
0
 10
2756.4189980490618836
 20
150.1154858209168879
 30
0.0
 40
0.0049919410979655
 50
252.6056329176782071
 51
284.3531423343530946
  0
ARC
  5
D30A
  8
0
 10
2756.4160135538909344
 20
150.1154866674118864
 30
0.0
 40
0.0049927021953085
 50
255.6452863087914977
 51
287.3897521701380242
  0
LINE
  5
D30B
  8
0
 10
2756.417505723359227
 20
150.1107221626645014
 30
0.0
 11
2756.4175057233637745
 21
150.139183468066193
 31
0.0
  0
LINE
  5
D30C
  8
0
 10
2756.4224269845030904
 20
150.1992532020684052
 30
0.0
 11
2756.4224269845030904
 21
150.1897100436142978
 31
0.0
  0
LINE
  5
D30D
  8
0
 10
2756.412584464802876
 20
150.1992487272360108
 30
0.0
 11
2756.412584464802876
 21
150.1897100436142978
 31
0.0
  0
ARC
  5
D30E
  8
0
 10
2756.4156794262171388
 20
150.190581341794001
 30
0.0
 40
0.0068035801853653
 50
285.5709808108156267
 51
352.6422293317293111
  0
ARC
  5
D30F
  8
0
 10
2756.419240545338198
 20
150.1905021197069061
 30
0.0
 40
0.0067030435348368
 50
186.7863056107036925
 51
255.0004830944050127
  0
LINE
  5
D310
  8
0
 10
2756.4224269845030904
 20
150.111286842168397
 30
0.0
 11
2756.4224269845030904
 21
150.1017436837142895
 31
0.0
  0
LINE
  5
D311
  8
0
 10
2756.412584464802876
 20
150.1112823673360026
 30
0.0
 11
2756.412584464802876
 21
150.1017436837142895
 31
0.0
  0
ARC
  5
D312
  8
0
 10
2756.4156794262171388
 20
150.1026149818939928
 30
0.0
 40
0.0068035801853653
 50
285.5709808108156267
 51
352.6422293317293111
  0
ARC
  5
D313
  8
0
 10
2756.419240545338198
 20
150.1025357598068979
 30
0.0
 40
0.0067030435348368
 50
186.7863056107036925
 51
255.0004830944050127
  0
LINE
  5
D314
  8
0
 10
2756.4224269845030904
 20
150.0673036621683991
 30
0.0
 11
2756.4224269845030904
 21
150.0577605037142916
 31
0.0
  0
LINE
  5
D315
  8
0
 10
2756.412584464802876
 20
150.0672991873360047
 30
0.0
 11
2756.412584464802876
 21
150.0577605037142916
 31
0.0
  0
ARC
  5
D316
  8
0
 10
2756.4156794262171388
 20
150.0586318018939949
 30
0.0
 40
0.0068035801853653
 50
285.5709808108156267
 51
352.6422293317293111
  0
ARC
  5
D317
  8
0
 10
2756.419240545338198
 20
150.0585525798069
 30
0.0
 40
0.0067030435348368
 50
186.7863056107036925
 51
255.0004830944050127
  0
LINE
  5
D318
  8
0
 10
2756.3921099936878818
 20
150.0732091944549893
 30
0.0
 11
2756.4147757419750633
 21
150.0666666602689929
 31
0.0
  0
LINE
  5
D319
  8
0
 10
2756.420235539674195
 20
150.0666665171690113
 30
0.0
 11
2756.4429001517742108
 21
150.0732560796689086
 31
0.0
  0
ARC
  5
D31A
  8
0
 10
2756.4189980490727976
 20
150.0715026409201869
 30
0.0
 40
0.0049919410979655
 50
252.6056329176782071
 51
284.3531423343530946
  0
ARC
  5
D31B
  8
0
 10
2756.4160135539018484
 20
150.0715034874152138
 30
0.0
 40
0.0049927021953085
 50
255.6452863087914977
 51
287.3897521701380242
  0
LINE
  5
D31C
  8
0
 10
2756.4175057233701409
 20
150.0667389826678004
 30
0.0
 11
2756.4175057233760526
 21
150.0952008290684034
 31
0.0
  0
LINE
  5
D31D
  8
0
 10
2756.3921099936878818
 20
150.0292257886688958
 30
0.0
 11
2756.414775741982794
 21
150.0226834803600013
 31
0.0
  0
LINE
  5
D31E
  8
0
 10
2756.4202355396819257
 20
150.022683337259906
 30
0.0
 11
2756.4429001517819415
 21
150.0292728997600022
 31
0.0
  0
ARC
  5
D31F
  8
0
 10
2756.418998049080983
 20
150.0275194610111953
 30
0.0
 40
0.0049919410979655
 50
252.6056329176782071
 51
284.3531423343530946
  0
ARC
  5
D320
  8
0
 10
2756.4160135539100338
 20
150.0275203075061938
 30
0.0
 40
0.0049927021953085
 50
255.6452863087914977
 51
287.3897521701380242
  0
LINE
  5
D321
  8
0
 10
2756.4175057233787811
 20
150.0227558027588088
 30
0.0
 11
2756.4175057233828738
 21
150.0512176490663876
 31
0.0
  0
LINE
  5
D322
  8
0
 10
2756.4429001517542019
 20
150.2491887994746094
 30
0.0
 11
2756.4655631435548457
 21
150.2425993800746085
 31
0.0
  0
ARC
  5
D323
  8
0
 10
2756.4410731270168071
 20
150.2565561116940103
 30
0.0
 40
0.0068035801853653
 50
285.5709808108156267
 51
352.6422293317293111
  0
ARC
  5
D324
  8
0
 10
2756.4446342461378663
 20
150.256476889606887
 30
0.0
 40
0.0067030435348368
 50
186.7863056107036925
 51
255.0004830944050127
  0
LINE
  5
D325
  8
0
 10
2756.4478206853018492
 20
150.2212447920684042
 30
0.0
 11
2756.4478206853018492
 21
150.2117016336142967
 31
0.0
  0
LINE
  5
D326
  8
0
 10
2756.4379781656029991
 20
150.2212403172360098
 30
0.0
 11
2756.4379781656029991
 21
150.2117016336142967
 31
0.0
  0
ARC
  5
D327
  8
0
 10
2756.4410731270168071
 20
150.2125729317939999
 30
0.0
 40
0.0068035801853653
 50
285.5709808108156267
 51
352.6422293317293111
  0
ARC
  5
D328
  8
0
 10
2756.4446342461378663
 20
150.2124937097069051
 30
0.0
 40
0.0067030435348368
 50
186.7863056107036925
 51
255.0004830944050127
  0
LINE
  5
D329
  8
0
 10
2756.4175038495491208
 20
150.1831671889559061
 30
0.0
 11
2756.4401685058492149
 21
150.1766248805558917
 31
0.0
  0
ARC
  5
D32A
  8
0
 10
2756.4414038800728122
 20
150.1815537179253113
 30
0.0
 40
0.0050812977956101
 50
255.9291354201110948
 51
287.10590725342621
  0
LINE
  5
D32B
  8
0
 10
2756.4175038495491208
 20
150.1391840089559082
 30
0.0
 11
2756.4401685058492149
 21
150.1326417005558937
 31
0.0
  0
ARC
  5
D32C
  8
0
 10
2756.4414038800728122
 20
150.1375705379253986
 30
0.0
 40
0.0050812977956101
 50
255.9291354201110948
 51
287.10590725342621
  0
LINE
  5
D32D
  8
0
 10
2756.4175047864541739
 20
150.0952010995173111
 30
0.0
 11
2756.4401694427538132
 21
150.0886587911172967
 31
0.0
  0
ARC
  5
D32E
  8
0
 10
2756.4414048169787748
 20
150.0935876284866879
 30
0.0
 40
0.0050812977956101
 50
255.9291354201110948
 51
287.10590725342621
  0
LINE
  5
D32F
  8
0
 10
2756.4175047864541739
 20
150.0512179195173132
 30
0.0
 11
2756.4401694427538132
 21
150.0446756111172135
 31
0.0
  0
ARC
  5
D330
  8
0
 10
2756.4414062172609192
 20
150.0496171796154101
 30
0.0
 40
0.0050939876721165
 50
255.9486721144996011
 51
287.0540718224834222
  0
LINE
  5
D331
  8
0
 10
2756.4682921880548747
 20
150.2271500984747092
 30
0.0
 11
2756.4456289058780385
 21
150.2206075504701062
 31
0.0
  0
ARC
  5
D332
  8
0
 10
2756.4443917730000067
 20
150.2254439081171995
 30
0.0
 40
0.0049920790305497
 50
252.6058504667672082
 51
284.3484992925151005
  0
LINE
  5
D333
  8
0
 10
2756.4936868257600509
 20
150.2051587790359974
 30
0.0
 11
2756.5163514820601449
 21
150.1986164706360114
 31
0.0
  0
LINE
  5
D334
  8
0
 10
2756.4986090225597763
 20
150.221245062990107
 30
0.0
 11
2756.4986090225597763
 21
150.2117019045359996
 31
0.0
  0
LINE
  5
D335
  8
0
 10
2756.4887665028600168
 20
150.2212405881575989
 30
0.0
 11
2756.4887665028600168
 21
150.2117019045359996
 31
0.0
  0
ARC
  5
D336
  8
0
 10
2756.4918614642751891
 20
150.2125732027157028
 30
0.0
 40
0.0068035801853653
 50
285.5709808108156267
 51
352.6422293317293111
  0
ARC
  5
D337
  8
0
 10
2756.495422583394884
 20
150.2124939806286079
 30
0.0
 40
0.0067030435348368
 50
186.7863056107036925
 51
255.0004830944050127
  0
LINE
  5
D338
  8
0
 10
2756.4964175789600631
 20
150.2206079175360003
 30
0.0
 11
2756.5190821910600789
 21
150.2271974800360113
 31
0.0
  0
ARC
  5
D339
  8
0
 10
2756.517586856284197
 20
150.2035453080054026
 30
0.0
 40
0.0050812977956101
 50
255.9291354201110948
 51
287.10590725342621
  0
LINE
  5
D33A
  8
0
 10
2756.5190821910600789
 20
150.2271974800360113
 30
0.0
 11
2756.5417451828598132
 21
150.2206080606360104
 31
0.0
  0
LINE
  5
D33B
  8
0
 10
2756.5444742273598422
 20
150.2051587790359974
 30
0.0
 11
2756.521810945183006
 21
150.1986162310315081
 31
0.0
  0
ARC
  5
D33C
  8
0
 10
2756.5205738123058836
 20
150.2034525886784877
 30
0.0
 40
0.0049920790305497
 50
252.6058504667672082
 51
284.3484992925151005
  0
LINE
  5
D33D
  8
0
 10
2756.4936858887522249
 20
150.1611753285449993
 30
0.0
 11
2756.5163505450518642
 21
150.1546330201450132
 31
0.0
  0
LINE
  5
D33E
  8
0
 10
2756.4986080855519504
 20
150.1772616124991089
 30
0.0
 11
2756.4986080855519504
 21
150.1677184540450014
 31
0.0
  0
LINE
  5
D33F
  8
0
 10
2756.4887655658521908
 20
150.177257137666686
 30
0.0
 11
2756.4887655658521908
 21
150.1677184540450014
 31
0.0
  0
ARC
  5
D340
  8
0
 10
2756.4918605272659988
 20
150.1685897522247046
 30
0.0
 40
0.0068035801853653
 50
285.5709808108156267
 51
352.6422293317293111
  0
ARC
  5
D341
  8
0
 10
2756.495421646387058
 20
150.1685105301374961
 30
0.0
 40
0.0067030435348368
 50
186.7863056107036925
 51
255.0004830944050127
  0
LINE
  5
D342
  8
0
 10
2756.4964166419517824
 20
150.1766244670450021
 30
0.0
 11
2756.5190812540517982
 21
150.1832140295450131
 31
0.0
  0
ARC
  5
D343
  8
0
 10
2756.5175859192759162
 20
150.1595618575144044
 30
0.0
 40
0.0050812977956101
 50
255.9291354201110948
 51
287.10590725342621
  0
LINE
  5
D344
  8
0
 10
2756.5190812540517982
 20
150.1832140295450131
 30
0.0
 11
2756.5417442458510777
 21
150.1766246101450122
 31
0.0
  0
LINE
  5
D345
  8
0
 10
2756.5444732903520162
 20
150.1611753285449993
 30
0.0
 11
2756.52181000817518
 21
150.1546327805405099
 31
0.0
  0
ARC
  5
D346
  8
0
 10
2756.5205728752971481
 20
150.1594691381874895
 30
0.0
 40
0.0049920790305497
 50
252.6058504667672082
 51
284.3484992925151005
  0
LINE
  5
D347
  8
0
 10
2756.4936858887522249
 20
150.1171921485450014
 30
0.0
 11
2756.5163505450518642
 21
150.1106498401449869
 31
0.0
  0
LINE
  5
D348
  8
0
 10
2756.4986080855519504
 20
150.133278432499111
 30
0.0
 11
2756.4986080855519504
 21
150.1237352740450035
 31
0.0
  0
LINE
  5
D349
  8
0
 10
2756.4887655658521908
 20
150.1332739576666029
 30
0.0
 11
2756.4887655658521908
 21
150.1237352740450035
 31
0.0
  0
ARC
  5
D34A
  8
0
 10
2756.4918605272659988
 20
150.1246065722247067
 30
0.0
 40
0.0068035801853653
 50
285.5709808108156267
 51
352.6422293317293111
  0
ARC
  5
D34B
  8
0
 10
2756.495421646387058
 20
150.1245273501376118
 30
0.0
 40
0.0067030435348368
 50
186.7863056107036925
 51
255.0004830944050127
  0
LINE
  5
D34C
  8
0
 10
2756.4964166419517824
 20
150.1326412870450042
 30
0.0
 11
2756.5190812540517982
 21
150.1392308495449868
 31
0.0
  0
ARC
  5
D34D
  8
0
 10
2756.5175859192759162
 20
150.1155786775144065
 30
0.0
 40
0.0050812977956101
 50
255.9291354201110948
 51
287.10590725342621
  0
LINE
  5
D34E
  8
0
 10
2756.5190812540517982
 20
150.1392308495449868
 30
0.0
 11
2756.5417442458510777
 21
150.1326414301449859
 31
0.0
  0
LINE
  5
D34F
  8
0
 10
2756.5444732903520162
 20
150.1171921485450014
 30
0.0
 11
2756.52181000817518
 21
150.110649600540512
 31
0.0
  0
ARC
  5
D350
  8
0
 10
2756.5205728752971481
 20
150.1154859581874916
 30
0.0
 40
0.0049920790305497
 50
252.6058504667672082
 51
284.3484992925151005
  0
LINE
  5
D351
  8
0
 10
2756.4936858887599556
 20
150.0732089686360098
 30
0.0
 11
2756.5163505450600496
 21
150.0666666602359953
 31
0.0
  0
LINE
  5
D352
  8
0
 10
2756.4986080855601358
 20
150.089295252590091
 30
0.0
 11
2756.4986080855601358
 21
150.0797520941360119
 31
0.0
  0
LINE
  5
D353
  8
0
 10
2756.4887655658599215
 20
150.0892907777576966
 30
0.0
 11
2756.4887655658599215
 21
150.0797520941360119
 31
0.0
  0
ARC
  5
D354
  8
0
 10
2756.4918605272741843
 20
150.0806233923156014
 30
0.0
 40
0.0068035801853653
 50
285.5709808108156267
 51
352.6422293317293111
  0
ARC
  5
D355
  8
0
 10
2756.4954216463947887
 20
150.0805441702285918
 30
0.0
 40
0.0067030435348368
 50
186.7863056107036925
 51
255.0004830944050127
  0
LINE
  5
D356
  8
0
 10
2756.4964166419599678
 20
150.0886581071360126
 30
0.0
 11
2756.5190812540599836
 21
150.0952476696359952
 31
0.0
  0
ARC
  5
D357
  8
0
 10
2756.5175859192841017
 20
150.0715954976053865
 30
0.0
 40
0.0050812977956101
 50
255.9291354201110948
 51
287.10590725342621
  0
LINE
  5
D358
  8
0
 10
2756.5190812540599836
 20
150.0952476696359952
 30
0.0
 11
2756.5417442458601727
 21
150.0886582502359943
 31
0.0
  0
LINE
  5
D359
  8
0
 10
2756.5444732903602016
 20
150.0732089686360098
 30
0.0
 11
2756.5218100081829107
 21
150.066666420631492
 31
0.0
  0
ARC
  5
D35A
  8
0
 10
2756.5205728753048788
 20
150.0715027782785
 30
0.0
 40
0.0049920790305497
 50
252.6058504667672082
 51
284.3484992925151005
  0
LINE
  5
D35B
  8
0
 10
2756.4428984872602086
 20
150.0732089686360098
 30
0.0
 11
2756.465563143559848
 21
150.0666666602359953
 31
0.0
  0
LINE
  5
D35C
  8
0
 10
2756.4478206840599341
 20
150.089295252590091
 30
0.0
 11
2756.4478206840599341
 21
150.0797520941360119
 31
0.0
  0
LINE
  5
D35D
  8
0
 10
2756.4379781643601746
 20
150.0892907777576966
 30
0.0
 11
2756.4379781643601746
 21
150.0797520941360119
 31
0.0
  0
ARC
  5
D35E
  8
0
 10
2756.4410731257739826
 20
150.0806233923156014
 30
0.0
 40
0.0068035801853653
 50
285.5709808108156267
 51
352.6422293317293111
  0
ARC
  5
D35F
  8
0
 10
2756.4446342448959513
 20
150.0805441702285918
 30
0.0
 40
0.0067030435348368
 50
186.7863056107036925
 51
255.0004830944050127
  0
LINE
  5
D360
  8
0
 10
2756.4456292404602209
 20
150.0886581071360126
 30
0.0
 11
2756.468293852559782
 21
150.0952476696359952
 31
0.0
  0
ARC
  5
D361
  8
0
 10
2756.4667985177839
 20
150.0715954976053865
 30
0.0
 40
0.0050812977956101
 50
255.9291354201110948
 51
287.10590725342621
  0
LINE
  5
D362
  8
0
 10
2756.468293852559782
 20
150.0952476696359952
 30
0.0
 11
2756.490956844359971
 21
150.0886582502359943
 31
0.0
  0
LINE
  5
D363
  8
0
 10
2756.49368588886
 20
150.0732089686360098
 30
0.0
 11
2756.4710226066831638
 21
150.066666420631492
 31
0.0
  0
ARC
  5
D364
  8
0
 10
2756.4697854738060414
 20
150.0715027782785
 30
0.0
 40
0.0049920790305497
 50
252.6058504667672082
 51
284.3484992925151005
  0
LINE
  5
D365
  8
0
 10
2756.4428994241598048
 20
150.1173430650374883
 30
0.0
 11
2756.4655640804598988
 21
150.1108007566375022
 31
0.0
  0
LINE
  5
D366
  8
0
 10
2756.447821620959985
 20
150.1334293489915979
 30
0.0
 11
2756.447821620959985
 21
150.1238861905376041
 31
0.0
  0
LINE
  5
D367
  8
0
 10
2756.4379791012602254
 20
150.1332736871981126
 30
0.0
 11
2756.4379791012602254
 21
150.1238861905376041
 31
0.0
  0
ARC
  5
D368
  8
0
 10
2756.4410740626740335
 20
150.1247574887171936
 30
0.0
 40
0.0068035801853653
 50
285.5709808108156267
 51
352.6422293317293111
  0
ARC
  5
D369
  8
0
 10
2756.4446351817950926
 20
150.1246782666300987
 30
0.0
 40
0.0067030435348368
 50
186.7863056107036925
 51
255.0004830944050127
  0
LINE
  5
D36A
  8
0
 10
2756.445630177359817
 20
150.1327922035376048
 30
0.0
 11
2756.4682947894598328
 21
150.1393817660375021
 31
0.0
  0
ARC
  5
D36B
  8
0
 10
2756.4667994546839509
 20
150.1157295940070071
 30
0.0
 40
0.0050812977956101
 50
255.9291354201110948
 51
287.10590725342621
  0
LINE
  5
D36C
  8
0
 10
2756.4682947894598328
 20
150.1393817660375021
 30
0.0
 11
2756.4909577812600219
 21
150.1327923466375012
 31
0.0
  0
LINE
  5
D36D
  8
0
 10
2756.4936858887522249
 20
150.1171921485450014
 30
0.0
 11
2756.4710235435832146
 21
150.1108005170329989
 31
0.0
  0
ARC
  5
D36E
  8
0
 10
2756.4697864107051828
 20
150.1156368746800922
 30
0.0
 40
0.0049920790305497
 50
252.6058504667672082
 51
284.3484992925151005
  0
LINE
  5
D36F
  8
0
 10
2756.4428984872538422
 20
150.1611753285745863
 30
0.0
 11
2756.4655631435548457
 21
150.1546330201747139
 31
0.0
  0
LINE
  5
D370
  8
0
 10
2756.4478206840549319
 20
150.1772616125286959
 30
0.0
 11
2756.4478206840549319
 21
150.1677184540747021
 31
0.0
  0
LINE
  5
D371
  8
0
 10
2756.4379781643538081
 20
150.1772571376963015
 30
0.0
 11
2756.4379781643538081
 21
150.1677184540747021
 31
0.0
  0
ARC
  5
D372
  8
0
 10
2756.4410731257689804
 20
150.1685897522542916
 30
0.0
 40
0.0068035801853653
 50
285.5709808108156267
 51
352.6422293317293111
  0
ARC
  5
D373
  8
0
 10
2756.4446342448900396
 20
150.1685105301671967
 30
0.0
 40
0.0067030435348368
 50
186.7863056107036925
 51
255.0004830944050127
  0
LINE
  5
D374
  8
0
 10
2756.4456292404552187
 20
150.1766244670745891
 30
0.0
 11
2756.4682938525547797
 21
150.1832140295747138
 31
0.0
  0
ARC
  5
D375
  8
0
 10
2756.4667985177788978
 20
150.1595618575441051
 30
0.0
 40
0.0050812977956101
 50
255.9291354201110948
 51
287.10590725342621
  0
LINE
  5
D376
  8
0
 10
2756.4682938525547797
 20
150.1832140295747138
 30
0.0
 11
2756.4909568443549688
 21
150.1766246101747129
 31
0.0
  0
LINE
  5
D377
  8
0
 10
2756.4936858888549978
 20
150.1611753285745863
 30
0.0
 11
2756.4710226066767973
 21
150.1546327805700969
 31
0.0
  0
ARC
  5
D378
  8
0
 10
2756.4697854738001297
 20
150.1594691382171902
 30
0.0
 40
0.0049920790305497
 50
252.6058504667672082
 51
284.3484992925151005
  0
LINE
  5
D379
  8
0
 10
2756.4682921880548747
 20
150.2271500984747092
 30
0.0
 11
2756.4909568443549688
 21
150.2206077900746095
 31
0.0
  0
LINE
  5
D37A
  8
0
 10
2756.4732143848541455
 20
150.2432363824287052
 30
0.0
 11
2756.4732143848541455
 21
150.2336932239747114
 31
0.0
  0
LINE
  5
D37B
  8
0
 10
2756.4633718651548406
 20
150.2432319075963107
 30
0.0
 11
2756.4633718651548406
 21
150.2336932239747114
 31
0.0
  0
ARC
  5
D37C
  8
0
 10
2756.4664668265691034
 20
150.2345645221543009
 30
0.0
 40
0.0068035801853653
 50
285.5709808108156267
 51
352.6422293317293111
  0
ARC
  5
D37D
  8
0
 10
2756.4700279456901626
 20
150.234485300067206
 30
0.0
 40
0.0067030435348368
 50
186.7863056107036925
 51
255.0004830944050127
  0
LINE
  5
D37E
  8
0
 10
2756.471022941254887
 20
150.2425992369747121
 30
0.0
 11
2756.4936875533539933
 21
150.2491887994746094
 31
0.0
  0
ARC
  5
D37F
  8
0
 10
2756.4921928666522035
 20
150.2255425196167096
 30
0.0
 40
0.0050871708024363
 50
255.9381894347808952
 51
287.0864886273138836
  0
LINE
  5
D380
  8
0
 10
2756.4936875533539933
 20
150.2491887994746094
 30
0.0
 11
2756.5163505451550918
 21
150.2425993800746085
 31
0.0
  0
ARC
  5
D381
  8
0
 10
2756.4951790869390607
 20
150.2254433819325925
 30
0.0
 40
0.0049915507027766
 50
252.613756956369599
 51
284.3661545889830791
  0
LINE
  5
D382
  8
0
 10
2756.5444732903602016
 20
150.2051585085359875
 30
0.0
 11
2756.567137946659841
 21
150.1986162001360015
 31
0.0
  0
LINE
  5
D383
  8
0
 10
2756.5493954871599271
 20
150.2212447924900971
 30
0.0
 11
2756.5493954871599271
 21
150.2117016340359896
 31
0.0
  0
LINE
  5
D384
  8
0
 10
2756.5395529674601676
 20
150.221240317657589
 30
0.0
 11
2756.5395529674601676
 21
150.2117016340359896
 31
0.0
  0
ARC
  5
D385
  8
0
 10
2756.5426479288739756
 20
150.2125729322156076
 30
0.0
 40
0.0068035801853653
 50
285.5709808108156267
 51
352.6422293317293111
  0
ARC
  5
D386
  8
0
 10
2756.5462090479950348
 20
150.2124937101285127
 30
0.0
 40
0.0067030435348368
 50
186.7863056107036925
 51
255.0004830944050127
  0
LINE
  5
D387
  8
0
 10
2756.5472040435602139
 20
150.2206076470359903
 30
0.0
 11
2756.569868655659775
 21
150.2271972095360013
 31
0.0
  0
ARC
  5
D388
  8
0
 10
2756.568373320883893
 20
150.2035450375053927
 30
0.0
 40
0.0050812977956101
 50
255.9291354201110948
 51
287.10590725342621
  0
LINE
  5
D389
  8
0
 10
2756.569868655659775
 20
150.2271972095360013
 30
0.0
 11
2756.5963603328978024
 21
150.2194945737379044
 31
0.0
  0
LINE
  5
D38A
  8
0
 10
2756.5952616251220206
 20
150.2051392945415103
 30
0.0
 11
2756.5725974097831568
 21
150.1986159605314981
 31
0.0
  0
ARC
  5
D38B
  8
0
 10
2756.5713602769051249
 20
150.2034523181785062
 30
0.0
 40
0.0049920790305497
 50
252.6058504667672082
 51
284.3484992925151005
  0
LINE
  5
D38C
  8
0
 10
2756.5444732903520162
 20
150.1611753285449993
 30
0.0
 11
2756.5671379466521103
 21
150.1546330201450132
 31
0.0
  0
LINE
  5
D38D
  8
0
 10
2756.5493954871521964
 20
150.1772616124991089
 30
0.0
 11
2756.5493954871521964
 21
150.1677184540450014
 31
0.0
  0
LINE
  5
D38E
  8
0
 10
2756.5395529674510726
 20
150.177257137666686
 30
0.0
 11
2756.5395529674510726
 21
150.1677184540450014
 31
0.0
  0
ARC
  5
D38F
  8
0
 10
2756.5426479288657902
 20
150.1685897522247046
 30
0.0
 40
0.0068035801853653
 50
285.5709808108156267
 51
352.6422293317293111
  0
ARC
  5
D390
  8
0
 10
2756.5462090479868493
 20
150.1685105301374961
 30
0.0
 40
0.0067030435348368
 50
186.7863056107036925
 51
255.0004830944050127
  0
LINE
  5
D391
  8
0
 10
2756.5472040435520285
 20
150.1766244670450021
 30
0.0
 11
2756.5698686556520443
 21
150.1832140295450131
 31
0.0
  0
ARC
  5
D392
  8
0
 10
2756.5683733208761623
 20
150.1595618575144044
 30
0.0
 40
0.0050812977956101
 50
255.9291354201110948
 51
287.10590725342621
  0
LINE
  5
D393
  8
0
 10
2756.5698686556520443
 20
150.1832140295450131
 30
0.0
 11
2756.5925316474517786
 21
150.1766246101450122
 31
0.0
  0
LINE
  5
D394
  8
0
 10
2756.5952616302070055
 20
150.1611750577112048
 30
0.0
 11
2756.5725974097749713
 21
150.1546327805405099
 31
0.0
  0
ARC
  5
D395
  8
0
 10
2756.5713602768969395
 20
150.1594691381874895
 30
0.0
 40
0.0049920790305497
 50
252.6058504667672082
 51
284.3484992925151005
  0
LINE
  5
D396
  8
0
 10
2756.5444732903520162
 20
150.1171921485450014
 30
0.0
 11
2756.5671379466521103
 21
150.1106498401449869
 31
0.0
  0
LINE
  5
D397
  8
0
 10
2756.5493954871521964
 20
150.133278432499111
 30
0.0
 11
2756.5493954871521964
 21
150.1237352740450035
 31
0.0
  0
LINE
  5
D398
  8
0
 10
2756.5395529674510726
 20
150.1332739576666029
 30
0.0
 11
2756.5395529674510726
 21
150.1237352740450035
 31
0.0
  0
ARC
  5
D399
  8
0
 10
2756.5426479288657902
 20
150.1246065722247067
 30
0.0
 40
0.0068035801853653
 50
285.5709808108156267
 51
352.6422293317293111
  0
ARC
  5
D39A
  8
0
 10
2756.5462090479868493
 20
150.1245273501376118
 30
0.0
 40
0.0067030435348368
 50
186.7863056107036925
 51
255.0004830944050127
  0
LINE
  5
D39B
  8
0
 10
2756.5472040435520285
 20
150.1326412870450042
 30
0.0
 11
2756.5698686556520443
 21
150.1392308495449868
 31
0.0
  0
ARC
  5
D39C
  8
0
 10
2756.5683733208761623
 20
150.1155786775144065
 30
0.0
 40
0.0050812977956101
 50
255.9291354201110948
 51
287.10590725342621
  0
LINE
  5
D39D
  8
0
 10
2756.5698686556520443
 20
150.1392308495449868
 30
0.0
 11
2756.5925316474517786
 21
150.1326414301449859
 31
0.0
  0
LINE
  5
D39E
  8
0
 10
2756.5952616302070055
 20
150.1171921485450014
 30
0.0
 11
2756.5725974097749713
 21
150.110649600540512
 31
0.0
  0
ARC
  5
D39F
  8
0
 10
2756.5713602768969395
 20
150.1154859581874916
 30
0.0
 40
0.0049920790305497
 50
252.6058504667672082
 51
284.3484992925151005
  0
LINE
  5
D3A0
  8
0
 10
2756.5444732903602016
 20
150.0732089686360098
 30
0.0
 11
2756.567137946659841
 21
150.0666666602359953
 31
0.0
  0
LINE
  5
D3A1
  8
0
 10
2756.5493954871599271
 20
150.089295252590091
 30
0.0
 11
2756.5493954871599271
 21
150.0797520941360119
 31
0.0
  0
LINE
  5
D3A2
  8
0
 10
2756.5395529674601676
 20
150.0892907777576966
 30
0.0
 11
2756.5395529674601676
 21
150.0797520941360119
 31
0.0
  0
ARC
  5
D3A3
  8
0
 10
2756.5426479288739756
 20
150.0806233923156014
 30
0.0
 40
0.0068035801853653
 50
285.5709808108156267
 51
352.6422293317293111
  0
ARC
  5
D3A4
  8
0
 10
2756.5462090479950348
 20
150.0805441702285918
 30
0.0
 40
0.0067030435348368
 50
186.7863056107036925
 51
255.0004830944050127
  0
LINE
  5
D3A5
  8
0
 10
2756.5472040435602139
 20
150.0886581071360126
 30
0.0
 11
2756.569868655659775
 21
150.0952476696359952
 31
0.0
  0
ARC
  5
D3A6
  8
0
 10
2756.568373320883893
 20
150.0715954976053865
 30
0.0
 40
0.0050812977956101
 50
255.9291354201110948
 51
287.10590725342621
  0
LINE
  5
D3A7
  8
0
 10
2756.569868655659775
 20
150.0952476696359952
 30
0.0
 11
2756.592531647459964
 21
150.0886582502359943
 31
0.0
  0
LINE
  5
D3A8
  8
0
 10
2756.5952616302101887
 20
150.0732089686360098
 30
0.0
 11
2756.5725974097831568
 21
150.066666420631492
 31
0.0
  0
ARC
  5
D3A9
  8
0
 10
2756.5713602769051249
 20
150.0715027782785
 30
0.0
 40
0.0049920790305497
 50
252.6058504667672082
 51
284.3484992925151005
  0
LINE
  5
D3AA
  8
0
 10
2756.4428984872538422
 20
150.0292257886746086
 30
0.0
 11
2756.4655631435548457
 21
150.0226834802745941
 31
0.0
  0
LINE
  5
D3AB
  8
0
 10
2756.4478206840549319
 20
150.0453120726286897
 30
0.0
 11
2756.4478206840549319
 21
150.0357689141746107
 31
0.0
  0
LINE
  5
D3AC
  8
0
 10
2756.4379781643538081
 20
150.0453075977962953
 30
0.0
 11
2756.4379781643538081
 21
150.0357689141746107
 31
0.0
  0
ARC
  5
D3AD
  8
0
 10
2756.4410731257689804
 20
150.0366402123543139
 30
0.0
 40
0.0068035801853653
 50
285.5709808108156267
 51
352.6422293317293111
  0
ARC
  5
D3AE
  8
0
 10
2756.4446342448900396
 20
150.0365609902671906
 30
0.0
 40
0.0067030435348368
 50
186.7863056107036925
 51
255.0004830944050127
  0
LINE
  5
D3AF
  8
0
 10
2756.4457366482879479
 20
150.0447061551801085
 30
0.0
 11
2756.4682938525547797
 21
150.0512644896747076
 31
0.0
  0
ARC
  5
D3B0
  8
0
 10
2756.4667985177788978
 20
150.027612317644099
 30
0.0
 40
0.0050812977956101
 50
255.9291354201110948
 51
287.10590725342621
  0
LINE
  5
D3B1
  8
0
 10
2756.4682938525547797
 20
150.0512644896747076
 30
0.0
 11
2756.4909568443549688
 21
150.0446750702747067
 31
0.0
  0
LINE
  5
D3B2
  8
0
 10
2756.4936858888549978
 20
150.0292257886746086
 30
0.0
 11
2756.4710226066767973
 21
150.0226832406700908
 31
0.0
  0
ARC
  5
D3B3
  8
0
 10
2756.4697854738001297
 20
150.0275195983172125
 30
0.0
 40
0.0049920790305497
 50
252.6058504667672082
 51
284.3484992925151005
  0
LINE
  5
D3B4
  8
0
 10
2756.4936858887522249
 20
150.0292257886449931
 30
0.0
 11
2756.5142002256689011
 21
150.0233041846746005
 31
0.0
  0
LINE
  5
D3B5
  8
0
 10
2756.4986080855519504
 20
150.0453120725991027
 30
0.0
 11
2756.4986080855519504
 21
150.0357689141449953
 31
0.0
  0
LINE
  5
D3B6
  8
0
 10
2756.4887655658521908
 20
150.0453075977667083
 30
0.0
 11
2756.4887655658521908
 21
150.0357689141449953
 31
0.0
  0
ARC
  5
D3B7
  8
0
 10
2756.4918605272659988
 20
150.0366402123246985
 30
0.0
 40
0.0068035801853653
 50
285.5709808108156267
 51
352.6422293317293111
  0
ARC
  5
D3B8
  8
0
 10
2756.495421646387058
 20
150.0365609902376036
 30
0.0
 40
0.0067030435348368
 50
186.7863056107036925
 51
255.0004830944050127
  0
LINE
  5
D3B9
  8
0
 10
2756.4964166419517824
 20
150.044674927144996
 30
0.0
 11
2756.5190812540517982
 21
150.051264489645007
 31
0.0
  0
LINE
  5
D3BA
  8
0
 10
2756.5190812540517982
 20
150.051264489645007
 30
0.0
 11
2756.5417442458510777
 21
150.0446750702450061
 31
0.0
  0
LINE
  5
D3BB
  8
0
 10
2756.5952616302101887
 20
150.1171921485747021
 30
0.0
 11
2756.6179253482541753
 21
150.1106498401746876
 31
0.0
  0
LINE
  5
D3BC
  8
0
 10
2756.6001828887538068
 20
150.133278432528698
 30
0.0
 11
2756.6001828887538068
 21
150.1237352740745905
 31
0.0
  0
LINE
  5
D3BD
  8
0
 10
2756.5903403690549567
 20
150.1332739576963036
 30
0.0
 11
2756.5903403690549567
 21
150.1237352740745905
 31
0.0
  0
ARC
  5
D3BE
  8
0
 10
2756.5934353304692195
 20
150.1246065722542937
 30
0.0
 40
0.0068035801853653
 50
285.5709808108156267
 51
352.6422293317293111
  0
ARC
  5
D3BF
  8
0
 10
2756.5969964495898239
 20
150.1245273501671988
 30
0.0
 40
0.0067030435348368
 50
186.7863056107036925
 51
255.0004830944050127
  0
LINE
  5
D3C0
  8
0
 10
2756.597991445155003
 20
150.1326412870747049
 30
0.0
 11
2756.6206560572550188
 21
150.1392308495746875
 31
0.0
  0
ARC
  5
D3C1
  8
0
 10
2756.6191607224791369
 20
150.1155786775441072
 30
0.0
 40
0.0050812977956101
 50
255.9291354201110948
 51
287.10590725342621
  0
LINE
  5
D3C2
  8
0
 10
2756.6206560572550188
 20
150.1392308495746875
 30
0.0
 11
2756.6433190490538436
 21
150.1326414301746013
 31
0.0
  0
LINE
  5
D3C3
  8
0
 10
2756.6460480935538726
 20
150.1171921485747021
 30
0.0
 11
2756.6233848113779459
 21
150.110649600570099
 31
0.0
  0
ARC
  5
D3C4
  8
0
 10
2756.622147678499914
 20
150.1154859582171923
 30
0.0
 40
0.0049920790305497
 50
252.6058504667672082
 51
284.3484992925151005
  0
LINE
  5
D3C5
  8
0
 10
2756.5952616302101887
 20
150.0732089686360098
 30
0.0
 11
2756.6169241381521715
 21
150.0669556663966091
 31
0.0
  0
LINE
  5
D3C6
  8
0
 10
2756.6001828887601732
 20
150.089295252590091
 30
0.0
 11
2756.6001828887601732
 21
150.0797520941360119
 31
0.0
  0
LINE
  5
D3C7
  8
0
 10
2756.5903403690599589
 20
150.0892907777576966
 30
0.0
 11
2756.5903403690599589
 21
150.0797520941360119
 31
0.0
  0
ARC
  5
D3C8
  8
0
 10
2756.5934353304742217
 20
150.0806233923156014
 30
0.0
 40
0.0068035801853653
 50
285.5709808108156267
 51
352.6422293317293111
  0
ARC
  5
D3C9
  8
0
 10
2756.5969964495948261
 20
150.0805441702285918
 30
0.0
 40
0.0067030435348368
 50
186.7863056107036925
 51
255.0004830944050127
  0
LINE
  5
D3CA
  8
0
 10
2756.5979914451600052
 20
150.0886581071360126
 30
0.0
 11
2756.620656057260021
 21
150.0952476696359952
 31
0.0
  0
LINE
  5
D3CB
  8
0
 10
2756.620656057260021
 20
150.0952476696359952
 30
0.0
 11
2756.6433190490602101
 21
150.0886582502359943
 31
0.0
  0
LINE
  5
D3CC
  8
0
 10
2756.5952616302101887
 20
150.1611750577407918
 30
0.0
 11
2756.6179253482541753
 21
150.1546330201747139
 31
0.0
  0
LINE
  5
D3CD
  8
0
 10
2756.6001828887538068
 20
150.1772616125286959
 30
0.0
 11
2756.6001828887538068
 21
150.1677184540747021
 31
0.0
  0
LINE
  5
D3CE
  8
0
 10
2756.5903403690549567
 20
150.1772571376963015
 30
0.0
 11
2756.5903403690549567
 21
150.1677184540747021
 31
0.0
  0
ARC
  5
D3CF
  8
0
 10
2756.5934353304692195
 20
150.1685897522542916
 30
0.0
 40
0.0068035801853653
 50
285.5709808108156267
 51
352.6422293317293111
  0
ARC
  5
D3D0
  8
0
 10
2756.5969964495898239
 20
150.1685105301671967
 30
0.0
 40
0.0067030435348368
 50
186.7863056107036925
 51
255.0004830944050127
  0
LINE
  5
D3D1
  8
0
 10
2756.597991445155003
 20
150.1766244670745891
 30
0.0
 11
2756.6206560572550188
 21
150.1832140295747138
 31
0.0
  0
ARC
  5
D3D2
  8
0
 10
2756.6191607224791369
 20
150.1595618575441051
 30
0.0
 40
0.0050812977956101
 50
255.9291354201110948
 51
287.10590725342621
  0
LINE
  5
D3D3
  8
0
 10
2756.6206560572550188
 20
150.1832140295747138
 30
0.0
 11
2756.6485185249398455
 21
150.1751128271068012
 31
0.0
  0
LINE
  5
D3D4
  8
0
 10
2756.6460480935538726
 20
150.1611753285745863
 30
0.0
 11
2756.6233848113779459
 21
150.1546327805700969
 31
0.0
  0
ARC
  5
D3D5
  8
0
 10
2756.622147678499914
 20
150.1594691382171902
 30
0.0
 40
0.0049920790305497
 50
252.6058504667672082
 51
284.3484992925151005
  0
LINE
  5
D3D6
  8
0
 10
2756.4428994241598048
 20
150.2051587790359974
 30
0.0
 11
2756.4655640804598988
 21
150.1986164706360114
 31
0.0
  0
ARC
  5
D3D7
  8
0
 10
2756.4667994546839509
 20
150.2035453080054026
 30
0.0
 40
0.0050812977956101
 50
255.9291354201110948
 51
287.10590725342621
  0
LINE
  5
D3D8
  8
0
 10
2756.4936868257600509
 20
150.2051587790359974
 30
0.0
 11
2756.4710235435832146
 21
150.1986162310315081
 31
0.0
  0
ARC
  5
D3D9
  8
0
 10
2756.4697864107051828
 20
150.2034525886784877
 30
0.0
 40
0.0049920790305497
 50
252.6058504667672082
 51
284.3484992925151005
  0
ARC
  5
D3DA
  8
0
 10
2756.517586856284197
 20
150.2475284879054982
 30
0.0
 40
0.0050812977956101
 50
255.9291354201110948
 51
287.10590725342621
  0
LINE
  5
D3DB
  8
0
 10
2756.534529910557012
 20
150.2462711845464014
 30
0.0
 11
2756.521810945183006
 21
150.24259941093149
 31
0.0
  0
ARC
  5
D3DC
  8
0
 10
2756.5205738123058836
 20
150.247435768578498
 30
0.0
 40
0.0049920790305497
 50
252.6058504667672082
 51
284.3484992925151005
  0
LINE
  5
D3DD
  8
0
 10
2756.5952616251220206
 20
150.2051392945415103
 30
0.0
 11
2756.6179262814221147
 21
150.1985969861414958
 31
0.0
  0
ARC
  5
D3DE
  8
0
 10
2756.6191616556461668
 20
150.203525823510887
 30
0.0
 40
0.0050812977956101
 50
255.9291354201110948
 51
287.10590725342621
  0
ARC
  5
D3DF
  8
0
 10
2756.6221486116678534
 20
150.2034331041840005
 30
0.0
 40
0.0049920790305497
 50
252.6058504667672082
 51
284.3484992925151005
  0
ARC
  5
D3E0
  8
0
 10
2756.5429805570838653
 20
150.0496041781053975
 30
0.0
 40
0.0050812977956101
 50
255.9291354201110948
 51
287.10590725342621
  0
LINE
  5
D3E1
  8
0
 10
2756.5698679281599652
 20
150.0512176491359924
 30
0.0
 11
2756.547204645983129
 21
150.044675101131503
 31
0.0
  0
ARC
  5
D3E2
  8
0
 10
2756.5459675131050972
 20
150.049511458778511
 30
0.0
 40
0.0049920790305497
 50
252.6058504667672082
 51
284.3484992925151005
  0
LINE
  5
D3E3
  8
0
 10
2756.4682940618599787
 20
150.1986887931360002
 30
0.0
 11
2756.4682910111218916
 21
150.2269970225696056
 31
0.0
  0
LINE
  5
D3E4
  8
0
 10
2756.4732122722598433
 20
150.1990998556663044
 30
0.0
 11
2756.4732122722598433
 21
150.1895566972121969
 31
0.0
  0
LINE
  5
D3E5
  8
0
 10
2756.4633697525600837
 20
150.1990953808337963
 30
0.0
 11
2756.4633697525600837
 21
150.1895566972121969
 31
0.0
  0
ARC
  5
D3E6
  8
0
 10
2756.4664647139738918
 20
150.1904279953919001
 30
0.0
 40
0.0068035801853653
 50
285.5709808108156267
 51
352.6422293317293111
  0
ARC
  5
D3E7
  8
0
 10
2756.4700258330958604
 20
150.1903487733046916
 30
0.0
 40
0.0067030435348368
 50
186.7863056107036925
 51
255.0004830944050127
  0
LINE
  5
D3E8
  8
0
 10
2756.4682931249658395
 20
150.1547053426623108
 30
0.0
 11
2756.468293124972206
 21
150.183167189069593
 31
0.0
  0
LINE
  5
D3E9
  8
0
 10
2756.4732143861101576
 20
150.1552700221662064
 30
0.0
 11
2756.4732143861101576
 21
150.1457268637122127
 31
0.0
  0
LINE
  5
D3EA
  8
0
 10
2756.4633718664099433
 20
150.155265547333812
 30
0.0
 11
2756.4633718664099433
 21
150.1457268637122127
 31
0.0
  0
ARC
  5
D3EB
  8
0
 10
2756.4664668278242061
 20
150.1465981618918022
 30
0.0
 40
0.0068035801853653
 50
285.5709808108156267
 51
352.6422293317293111
  0
ARC
  5
D3EC
  8
0
 10
2756.4700279469448105
 20
150.1465189398047073
 30
0.0
 40
0.0067030435348368
 50
186.7863056107036925
 51
255.0004830944050127
  0
LINE
  5
D3ED
  8
0
 10
2756.4682910111159799
 20
150.1105688162622869
 30
0.0
 11
2756.4682910111218916
 21
150.1390306626695974
 31
0.0
  0
LINE
  5
D3EE
  8
0
 10
2756.4732122722598433
 20
150.1111334957662962
 30
0.0
 11
2756.4732122722598433
 21
150.1015903373121887
 31
0.0
  0
LINE
  5
D3EF
  8
0
 10
2756.4633697525600837
 20
150.1111290209337881
 30
0.0
 11
2756.4633697525600837
 21
150.1015903373121887
 31
0.0
  0
ARC
  5
D3F0
  8
0
 10
2756.4664647139738918
 20
150.1024616354918066
 30
0.0
 40
0.0068035801853653
 50
285.5709808108156267
 51
352.6422293317293111
  0
ARC
  5
D3F1
  8
0
 10
2756.4700258330958604
 20
150.1023824134047118
 30
0.0
 40
0.0067030435348368
 50
186.7863056107036925
 51
255.0004830944050127
  0
LINE
  5
D3F2
  8
0
 10
2756.4682931249571993
 20
150.0227558027754924
 30
0.0
 11
2756.468293124963111
 21
150.0520779219646954
 31
0.0
  0
LINE
  5
D3F3
  8
0
 10
2756.4682931249658395
 20
150.0667389827378884
 30
0.0
 11
2756.468293124972206
 21
150.0952008290695971
 31
0.0
  0
LINE
  5
D3F4
  8
0
 10
2756.4732143861101576
 20
150.0673036621662106
 30
0.0
 11
2756.4732143861101576
 21
150.0577605037121884
 31
0.0
  0
LINE
  5
D3F5
  8
0
 10
2756.4633718664099433
 20
150.0672991873337878
 30
0.0
 11
2756.4633718664099433
 21
150.0577605037121884
 31
0.0
  0
ARC
  5
D3F6
  8
0
 10
2756.4664668278242061
 20
150.0586318018918064
 30
0.0
 40
0.0068035801853653
 50
285.5709808108156267
 51
352.6422293317293111
  0
ARC
  5
D3F7
  8
0
 10
2756.4700279469448105
 20
150.0585525798047968
 30
0.0
 40
0.0067030435348368
 50
186.7863056107036925
 51
255.0004830944050127
  0
LINE
  5
D3F8
  8
0
 10
2756.5190805265660856
 20
150.0667389826622866
 30
0.0
 11
2756.5190805265719973
 21
150.0952008290695971
 31
0.0
  0
LINE
  5
D3F9
  8
0
 10
2756.524001787709949
 20
150.0673036621662106
 30
0.0
 11
2756.524001787709949
 21
150.0577605037121884
 31
0.0
  0
LINE
  5
D3FA
  8
0
 10
2756.5141592680101894
 20
150.0672991873337878
 30
0.0
 11
2756.5141592680101894
 21
150.0577605037121884
 31
0.0
  0
ARC
  5
D3FB
  8
0
 10
2756.5172542294239975
 20
150.0586318018918064
 30
0.0
 40
0.0068035801853653
 50
285.5709808108156267
 51
352.6422293317293111
  0
ARC
  5
D3FC
  8
0
 10
2756.5208153485459661
 20
150.0585525798047968
 30
0.0
 40
0.0067030435348368
 50
186.7863056107036925
 51
255.0004830944050127
  0
LINE
  5
D3FD
  8
0
 10
2756.5190805265660856
 20
150.1107221626623129
 30
0.0
 11
2756.5190805265719973
 21
150.139184009069595
 31
0.0
  0
LINE
  5
D3FE
  8
0
 10
2756.524001787709949
 20
150.1112868421662085
 30
0.0
 11
2756.524001787709949
 21
150.1017436837121863
 31
0.0
  0
LINE
  5
D3FF
  8
0
 10
2756.5141592680101894
 20
150.1112823673338141
 30
0.0
 11
2756.5141592680101894
 21
150.1017436837121863
 31
0.0
  0
ARC
  5
D400
  8
0
 10
2756.5172542294239975
 20
150.1026149818918043
 30
0.0
 40
0.0068035801853653
 50
285.5709808108156267
 51
352.6422293317293111
  0
ARC
  5
D401
  8
0
 10
2756.5208153485459661
 20
150.1025357598047094
 30
0.0
 40
0.0067030435348368
 50
186.7863056107036925
 51
255.0004830944050127
  0
LINE
  5
D402
  8
0
 10
2756.5190805265660856
 20
150.1547053426623108
 30
0.0
 11
2756.5190805265719973
 21
150.183167189069593
 31
0.0
  0
LINE
  5
D403
  8
0
 10
2756.524001787709949
 20
150.1552700221662064
 30
0.0
 11
2756.524001787709949
 21
150.1457268637122127
 31
0.0
  0
LINE
  5
D404
  8
0
 10
2756.5141592680101894
 20
150.155265547333812
 30
0.0
 11
2756.5141592680101894
 21
150.1457268637122127
 31
0.0
  0
ARC
  5
D405
  8
0
 10
2756.5172542294239975
 20
150.1465981618918022
 30
0.0
 40
0.0068035801853653
 50
285.5709808108156267
 51
352.6422293317293111
  0
ARC
  5
D406
  8
0
 10
2756.5208153485459661
 20
150.1465189398047073
 30
0.0
 40
0.0067030435348368
 50
186.7863056107036925
 51
255.0004830944050127
  0
LINE
  5
D407
  8
0
 10
2756.5190805265660856
 20
150.1986885225622927
 30
0.0
 11
2756.5190805265719973
 21
150.2271503689696033
 31
0.0
  0
LINE
  5
D408
  8
0
 10
2756.524001787709949
 20
150.199253202066302
 30
0.0
 11
2756.524001787709949
 21
150.1897100436121946
 31
0.0
  0
LINE
  5
D409
  8
0
 10
2756.5141592680101894
 20
150.1992487272337939
 30
0.0
 11
2756.5141592680101894
 21
150.1897100436121946
 31
0.0
  0
ARC
  5
D40A
  8
0
 10
2756.5172542294239975
 20
150.1905813417918125
 30
0.0
 40
0.0068035801853653
 50
285.5709808108156267
 51
352.6422293317293111
  0
ARC
  5
D40B
  8
0
 10
2756.5208153485459661
 20
150.1905021197046892
 30
0.0
 40
0.0067030435348368
 50
186.7863056107036925
 51
255.0004830944050127
  0
LINE
  5
D40C
  8
0
 10
2756.5190805265660856
 20
150.2426717025622906
 30
0.0
 11
2756.5190805265679046
 21
150.2504455124378069
 31
0.0
  0
LINE
  5
D40D
  8
0
 10
2756.524001787709949
 20
150.2432363820661863
 30
0.0
 11
2756.524001787709949
 21
150.2336932236121925
 31
0.0
  0
LINE
  5
D40E
  8
0
 10
2756.5141592680101894
 20
150.2432319072337918
 30
0.0
 11
2756.5141592680101894
 21
150.2336932236121925
 31
0.0
  0
ARC
  5
D40F
  8
0
 10
2756.5172542294239975
 20
150.2345645217918104
 30
0.0
 40
0.0068035801853653
 50
285.5709808108156267
 51
352.6422293317293111
  0
ARC
  5
D410
  8
0
 10
2756.5208153485459661
 20
150.2344852997048008
 30
0.0
 40
0.0067030435348368
 50
186.7863056107036925
 51
255.0004830944050127
  0
LINE
  5
D411
  8
0
 10
2756.5698658143160173
 20
150.1985351761622951
 30
0.0
 11
2756.5698658143219291
 21
150.2269970225696056
 31
0.0
  0
LINE
  5
D412
  8
0
 10
2756.5747870754598807
 20
150.1990998556663044
 30
0.0
 11
2756.5747870754598807
 21
150.1895566972121969
 31
0.0
  0
LINE
  5
D413
  8
0
 10
2756.5649445557601211
 20
150.1990953808337963
 30
0.0
 11
2756.5649445557601211
 21
150.1895566972121969
 31
0.0
  0
ARC
  5
D414
  8
0
 10
2756.5680395171739292
 20
150.1904279953919001
 30
0.0
 40
0.0068035801853653
 50
285.5709808108156267
 51
352.6422293317293111
  0
ARC
  5
D415
  8
0
 10
2756.5716006362949884
 20
150.1903487733046916
 30
0.0
 40
0.0067030435348368
 50
186.7863056107036925
 51
255.0004830944050127
  0
LINE
  5
D416
  8
0
 10
2756.5698679275101313
 20
150.1547053428519121
 30
0.0
 11
2756.5698679275151335
 21
150.1831671892591942
 31
0.0
  0
LINE
  5
D417
  8
0
 10
2756.5747891886530851
 20
150.1552700223558077
 30
0.0
 11
2756.5747891886530851
 21
150.1457268639018139
 31
0.0
  0
LINE
  5
D418
  8
0
 10
2756.5649466689537803
 20
150.1552655475234985
 30
0.0
 11
2756.5649466689537803
 21
150.1457268639018139
 31
0.0
  0
ARC
  5
D419
  8
0
 10
2756.5680416303671336
 20
150.1465981620814034
 30
0.0
 40
0.0068035801853653
 50
285.5709808108156267
 51
352.6422293317293111
  0
ARC
  5
D41A
  8
0
 10
2756.5716027494891023
 20
150.1465189399943938
 30
0.0
 40
0.0067030435348368
 50
186.7863056107036925
 51
255.0004830944050127
  0
LINE
  5
D41B
  8
0
 10
2756.5698679281658769
 20
150.1107221626623129
 30
0.0
 11
2756.5698679281717887
 21
150.139184009069595
 31
0.0
  0
LINE
  5
D41C
  8
0
 10
2756.5747891893101951
 20
150.1112868421662085
 30
0.0
 11
2756.5747891893101951
 21
150.1017436837121863
 31
0.0
  0
LINE
  5
D41D
  8
0
 10
2756.5649466696099807
 20
150.1112823673338141
 30
0.0
 11
2756.5649466696099807
 21
150.1017436837121863
 31
0.0
  0
ARC
  5
D41E
  8
0
 10
2756.5680416310237888
 20
150.1026149818918043
 30
0.0
 40
0.0068035801853653
 50
285.5709808108156267
 51
352.6422293317293111
  0
ARC
  5
D41F
  8
0
 10
2756.571602750144848
 20
150.1025357598047094
 30
0.0
 40
0.0067030435348368
 50
186.7863056107036925
 51
255.0004830944050127
  0
LINE
  5
D420
  8
0
 10
2756.5698679281658769
 20
150.0667389826622866
 30
0.0
 11
2756.5698679281717887
 21
150.0952008290695971
 31
0.0
  0
LINE
  5
D421
  8
0
 10
2756.5747891893101951
 20
150.0673036621662106
 30
0.0
 11
2756.5747891893101951
 21
150.0577605037121884
 31
0.0
  0
LINE
  5
D422
  8
0
 10
2756.5649466696099807
 20
150.0672991873337878
 30
0.0
 11
2756.5649466696099807
 21
150.0577605037121884
 31
0.0
  0
ARC
  5
D423
  8
0
 10
2756.5680416310237888
 20
150.0586318018918064
 30
0.0
 40
0.0068035801853653
 50
285.5709808108156267
 51
352.6422293317293111
  0
ARC
  5
D424
  8
0
 10
2756.571602750144848
 20
150.0585525798047968
 30
0.0
 40
0.0067030435348368
 50
186.7863056107036925
 51
255.0004830944050127
  0
LINE
  5
D425
  8
0
 10
2756.6206553296660786
 20
150.1107221626623129
 30
0.0
 11
2756.6206553296719903
 21
150.139184009069595
 31
0.0
  0
LINE
  5
D426
  8
0
 10
2756.625576590809942
 20
150.1112868421662085
 30
0.0
 11
2756.625576590809942
 21
150.1017436837121863
 31
0.0
  0
LINE
  5
D427
  8
0
 10
2756.6157340711101824
 20
150.1112823673338141
 30
0.0
 11
2756.6157340711101824
 21
150.1017436837121863
 31
0.0
  0
ARC
  5
D428
  8
0
 10
2756.6188290325239905
 20
150.1026149818918043
 30
0.0
 40
0.0068035801853653
 50
285.5709808108156267
 51
352.6422293317293111
  0
ARC
  5
D429
  8
0
 10
2756.6223901516459591
 20
150.1025357598047094
 30
0.0
 40
0.0067030435348368
 50
186.7863056107036925
 51
255.0004830944050127
  0
LINE
  5
D42A
  8
0
 10
2756.6206553296660786
 20
150.1547053426623108
 30
0.0
 11
2756.6206553296719903
 21
150.183167189069593
 31
0.0
  0
LINE
  5
D42B
  8
0
 10
2756.625576590809942
 20
150.1552700221662064
 30
0.0
 11
2756.625576590809942
 21
150.1457268637122127
 31
0.0
  0
LINE
  5
D42C
  8
0
 10
2756.6157340711101824
 20
150.155265547333812
 30
0.0
 11
2756.6157340711101824
 21
150.1457268637122127
 31
0.0
  0
ARC
  5
D42D
  8
0
 10
2756.6188290325239905
 20
150.1465981618918022
 30
0.0
 40
0.0068035801853653
 50
285.5709808108156267
 51
352.6422293317293111
  0
ARC
  5
D42E
  8
0
 10
2756.6223901516459591
 20
150.1465189398047073
 30
0.0
 40
0.0067030435348368
 50
186.7863056107036925
 51
255.0004830944050127
  0
LINE
  5
D42F
  8
0
 10
2756.6206553296660786
 20
150.1986885225645096
 30
0.0
 11
2756.6206553296669881
 21
150.2037171540115139
 31
0.0
  0
LINE
  5
D430
  8
0
 10
2756.625576590809942
 20
150.1992532020684052
 30
0.0
 11
2756.625576590809942
 21
150.1897100436142978
 31
0.0
  0
LINE
  5
D431
  8
0
 10
2756.6157340711101824
 20
150.1992487272360108
 30
0.0
 11
2756.6157340711101824
 21
150.1897100436142978
 31
0.0
  0
ARC
  5
D432
  8
0
 10
2756.6188290325239905
 20
150.190581341794001
 30
0.0
 40
0.0068035801853653
 50
285.5709808108156267
 51
352.6422293317293111
  0
ARC
  5
D433
  8
0
 10
2756.6223901516459591
 20
150.1905021197069061
 30
0.0
 40
0.0067030435348368
 50
186.7863056107036925
 51
255.0004830944050127
  0
LINE
  5
D434
  8
0
 10
2756.6001828901098634
 20
150.2172372475911004
 30
0.0
 11
2756.6001828901098634
 21
150.2117016336121935
 31
0.0
  0
ARC
  5
D435
  8
0
 10
2756.5934353318239118
 20
150.2125729317918115
 30
0.0
 40
0.0068035801853653
 50
285.5709808108156267
 51
352.6422293317293111
  0
ARC
  5
D436
  8
0
 10
2756.5969964509458805
 20
150.2124937097048019
 30
0.0
 40
0.0067030435348368
 50
186.7863056107036925
 51
255.0004830944050127
  0
LINE
  5
D437
  8
0
 10
2756.650970291610065
 20
150.1715638135219137
 30
0.0
 11
2756.650970291610065
 21
150.1677184536121956
 31
0.0
  0
LINE
  5
D438
  8
0
 10
2756.6411277719098507
 20
150.177257137233795
 30
0.0
 11
2756.6411277719098507
 21
150.1677184536121956
 31
0.0
  0
ARC
  5
D439
  8
0
 10
2756.6442227333241135
 20
150.1685897517918136
 30
0.0
 40
0.0068035801853653
 50
285.5709808108156267
 51
352.6422293317293111
  0
ARC
  5
D43A
  8
0
 10
2756.6477838524451727
 20
150.1685105297046903
 30
0.0
 40
0.0067030435348368
 50
186.7863056107036925
 51
255.0004830944050127
  0
LINE
  5
D43B
  8
0
 10
2756.6460490303411461
 20
150.1327137526984927
 30
0.0
 11
2756.6460490303470579
 21
150.1611755991058033
 31
0.0
  0
LINE
  5
D43C
  8
0
 10
2756.6509702914850095
 20
150.1332784322023883
 30
0.0
 11
2756.6509702914850095
 21
150.1237352737483945
 31
0.0
  0
LINE
  5
D43D
  8
0
 10
2756.6411277717838857
 20
150.1332739573699939
 30
0.0
 11
2756.6411277717838857
 21
150.1237352737483945
 31
0.0
  0
ARC
  5
D43E
  8
0
 10
2756.644222733199058
 20
150.1246065719280125
 30
0.0
 40
0.0068035801853653
 50
285.5709808108156267
 51
352.6422293317293111
  0
ARC
  5
D43F
  8
0
 10
2756.6477838523201171
 20
150.1245273498410029
 30
0.0
 40
0.0067030435348368
 50
186.7863056107036925
 51
255.0004830944050127
  0
ARC
  5
D440
  8
0
 10
2756.5429796201829049
 20
150.225536627444086
 30
0.0
 40
0.0050812977956101
 50
255.9291354201110948
 51
287.10590725342621
  0
ARC
  5
D441
  8
0
 10
2756.5459665762041368
 20
150.2254439081171995
 30
0.0
 40
0.0049920790305497
 50
252.6058504667672082
 51
284.3484992925151005
  0
ARC
  5
D442
  8
0
 10
2756.542981734031855
 20
150.1817365641952904
 30
0.0
 40
0.0050812977956101
 50
255.9291354201110948
 51
287.10590725342621
  0
ARC
  5
D443
  8
0
 10
2756.5459686900530869
 20
150.1816438448684039
 30
0.0
 40
0.0049920790305497
 50
252.6058504667672082
 51
284.3484992925151005
  0
ARC
  5
D444
  8
0
 10
2756.5429796201829049
 20
150.1375702675452999
 30
0.0
 40
0.0050812977956101
 50
255.9291354201110948
 51
287.10590725342621
  0
ARC
  5
D445
  8
0
 10
2756.5459665762041368
 20
150.1374775482182997
 30
0.0
 40
0.0049920790305497
 50
252.6058504667672082
 51
284.3484992925151005
  0
ARC
  5
D446
  8
0
 10
2756.5429796201829049
 20
150.0935870875451883
 30
0.0
 40
0.0050812977956101
 50
255.9291354201110948
 51
287.10590725342621
  0
ARC
  5
D447
  8
0
 10
2756.5459665762041368
 20
150.0934943682183018
 30
0.0
 40
0.0049920790305497
 50
252.6058504667672082
 51
284.3484992925151005
  0
ARC
  5
D448
  8
0
 10
2756.593767021783151
 20
150.1815534474451965
 30
0.0
 40
0.0050812977956101
 50
255.9291354201110948
 51
287.10590725342621
  0
ARC
  5
D449
  8
0
 10
2756.5967539778039281
 20
150.18146072811831
 30
0.0
 40
0.0049920790305497
 50
252.6058504667672082
 51
284.3484992925151005
  0
ARC
  5
D44A
  8
0
 10
2756.593767021783151
 20
150.1375702675452999
 30
0.0
 40
0.0050812977956101
 50
255.9291354201110948
 51
287.10590725342621
  0
ARC
  5
D44B
  8
0
 10
2756.5967539778039281
 20
150.1374775482182997
 30
0.0
 40
0.0049920790305497
 50
252.6058504667672082
 51
284.3484992925151005
  0
ARC
  5
D44C
  8
0
 10
2756.593767021783151
 20
150.0935870875451883
 30
0.0
 40
0.0050812977956101
 50
255.9291354201110948
 51
287.10590725342621
  0
ARC
  5
D44D
  8
0
 10
2756.5967539778039281
 20
150.0934943682183018
 30
0.0
 40
0.0049920790305497
 50
252.6058504667672082
 51
284.3484992925151005
  0
ARC
  5
D44E
  8
0
 10
2756.6445544231692111
 20
150.1375702675690889
 30
0.0
 40
0.0050812977956101
 50
255.9291354201110948
 51
287.10590725342621
  0
ARC
  5
D44F
  8
0
 10
2756.6475413791899882
 20
150.1374775482422024
 30
0.0
 40
0.0049920790305497
 50
252.6058504667672082
 51
284.3484992925151005
  0
LINE
  5
D450
  8
0
 10
2756.4936875533539933
 20
150.018645925037589
 30
0.0
 11
2756.4936875533539933
 21
150.0300865355694953
 31
0.0
  0
LINE
  5
D451
  8
0
 10
2756.4936875533539933
 20
150.0447473661133131
 30
0.0
 11
2756.4936875533539933
 21
150.0740697155582097
 31
0.0
  0
LINE
  5
D452
  8
0
 10
2756.4936875533539933
 20
150.0887305461068877
 30
0.0
 11
2756.4936875533539933
 21
150.1180528954695035
 31
0.0
  0
LINE
  5
D453
  8
0
 10
2756.4936875533539933
 20
150.1327137260132929
 30
0.0
 11
2756.4936875533539933
 21
150.1620360754695014
 31
0.0
  0
LINE
  5
D454
  8
0
 10
2756.4936875533539933
 20
150.1766969060132908
 30
0.0
 11
2756.4936875533539933
 21
150.2060193792210043
 31
0.0
  0
LINE
  5
D455
  8
0
 10
2756.4936875533539933
 20
150.2206798846895026
 30
0.0
 11
2756.4936875533539933
 21
150.2562320397557869
 31
0.0
  0
LINE
  5
D456
  8
0
 10
2756.4429001517542019
 20
150.0447471826817036
 30
0.0
 11
2756.4429001517542019
 21
150.0740697155302996
 31
0.0
  0
LINE
  5
D457
  8
0
 10
2756.4429001517542019
 20
150.088730889937608
 30
0.0
 11
2756.4429001517542019
 21
150.1182036652224951
 31
0.0
  0
LINE
  5
D458
  8
0
 10
2756.4429001517542019
 20
150.132713415814294
 30
0.0
 11
2756.4429001517542019
 21
150.1620360754706098
 31
0.0
  0
LINE
  5
D459
  8
0
 10
2756.4429001517542019
 20
150.1766966915035084
 30
0.0
 11
2756.4429001517542019
 21
150.2060192546622943
 31
0.0
  0
LINE
  5
D45A
  8
0
 10
2756.4429001517542019
 20
150.2206798847012124
 30
0.0
 11
2756.4429001517542019
 21
150.2500024345623046
 31
0.0
  0
LINE
  5
D45B
  8
0
 10
2756.4429001517542019
 20
150.03008653557049
 30
0.0
 11
2756.4429001517542019
 21
150.0110897378035872
 31
0.0
  0
LINE
  5
D45C
  8
0
 10
2756.5444742273580232
 20
150.0447473750004121
 30
0.0
 11
2756.5444742273580232
 21
150.0740695127632023
 31
0.0
  0
LINE
  5
D45D
  8
0
 10
2756.5444742273580232
 20
150.0887305726755869
 30
0.0
 11
2756.5444742273580232
 21
150.118052692674496
 31
0.0
  0
LINE
  5
D45E
  8
0
 10
2756.5444742273580232
 20
150.1327137526756133
 30
0.0
 11
2756.5444742273580232
 21
150.1620358726744939
 31
0.0
  0
LINE
  5
D45F
  8
0
 10
2756.5444742273580232
 20
150.1768793992854114
 30
0.0
 11
2756.5444742273580232
 21
150.2060190526632084
 31
0.0
  0
LINE
  5
D460
  8
0
 10
2756.5444742273580232
 20
150.2206801125743993
 30
0.0
 11
2756.5444742273580232
 21
150.2430886992395074
 31
0.0
  0
LINE
  5
D461
  8
0
 10
2756.5952616302101887
 20
150.0533653529753053
 30
0.0
 11
2756.5952616302101887
 21
150.0740695131121072
 31
0.0
  0
LINE
  5
D462
  8
0
 10
2756.5952616302101887
 20
150.0887305730609
 30
0.0
 11
2756.5952616302101887
 21
150.1180526930523058
 31
0.0
  0
LINE
  5
D463
  8
0
 10
2756.5952616302101887
 20
150.1327137530608979
 30
0.0
 11
2756.5952616302101887
 21
150.1620358730523037
 31
0.0
  0
LINE
  5
D464
  8
0
 10
2756.5952616302101887
 20
150.1766969329609083
 30
0.0
 11
2756.5952616302101887
 21
150.206019052212099
 31
0.0
  0
LINE
  5
D465
  8
0
 10
2756.620656057260021
 20
150.0952476696359952
 30
0.0
 11
2756.620656057260021
 21
150.0696304498960956
 31
0.0
  0
LINE
  5
D466
  8
0
 10
2756.4224269832548089
 20
150.0233161744912138
 30
0.0
 11
2756.4224269832548089
 21
150.0130033533596929
 31
0.0
  0
LINE
  5
D467
  8
0
 10
2756.4125844635541398
 20
150.0233161744747008
 30
0.0
 11
2756.4125844635541398
 21
150.0132352419745132
 31
0.0
  0
ARC
  5
D468
  8
0
 10
2756.4175815838348171
 20
150.0142729182076096
 30
0.0
 40
0.0050089610136091
 50
284.8461548792387816
 51
345.3177237392976053
  0
ARC
  5
D469
  8
0
 10
2756.4167103585468794
 20
150.0134109890387037
 30
0.0
 40
0.004129636366756
 50
182.4391026695377036
 51
262.160054788731486
  0
ARC
  5
D46A
  8
0
 10
2756.4443879352447766
 20
150.0495340886945996
 30
0.0
 40
0.0050127805548843
 50
252.7346123488590877
 51
285.6080341193924141
  0
ARC
  5
D46B
  8
0
 10
2756.4443954178218519
 20
150.0935960844425949
 30
0.0
 40
0.0050897876363926
 50
252.9071741640009066
 51
284.0289080269474198
  0
ARC
  5
D46C
  8
0
 10
2756.4667984638967937
 20
150.2475306830849888
 30
0.0
 40
0.0050836763988867
 50
255.9364806085268071
 51
287.102237778591018
  0
ARC
  5
D46D
  8
0
 10
2756.4697858083768551
 20
150.2474355946216917
 30
0.0
 40
0.0049920790305497
 50
252.6058504667672082
 51
284.3484992925151005
  0
LINE
  5
D46E
  8
0
 10
2756.4682934595311963
 20
150.2426717990792042
 30
0.0
 11
2756.4682915185089769
 21
150.2606828215481016
 31
0.0
  0
ARC
  5
D46F
  8
0
 10
2756.4921925146900321
 20
150.0935927377055066
 30
0.0
 40
0.0050868504745158
 50
255.9413725579316861
 51
287.0917451277259147
  0
ARC
  5
D470
  8
0
 10
2756.495179509081936
 20
150.093494464783106
 30
0.0
 40
0.0049920790305508
 50
252.6105785619814128
 51
284.34849929254068
  0
ARC
  5
D471
  8
0
 10
2756.4924213672570659
 20
150.136179250428512
 30
0.0
 40
0.0036896071960197
 50
246.6293323094261041
 51
290.070918542294919
  0
ARC
  5
D472
  8
0
 10
2756.4951795090742053
 20
150.1374776446920976
 30
0.0
 40
0.004992079030548
 50
252.6108716141000912
 51
284.34849929254068
  0
ARC
  5
D473
  8
0
 10
2756.4921929031379477
 20
150.1815567269277949
 30
0.0
 40
0.0050844703354867
 50
255.9340289307374974
 51
287.0954126454566904
  0
ARC
  5
D474
  8
0
 10
2756.4951795090742053
 20
150.1814608246920102
 30
0.0
 40
0.0049920790305489
 50
252.6105786618558113
 51
284.34849929254068
  0
ARC
  5
D475
  8
0
 10
2756.4921925147541515
 20
150.0496095573828086
 30
0.0
 40
0.0050868501410118
 50
255.9413708038385948
 51
287.0917455231991084
  0
ARC
  5
D476
  8
0
 10
2756.4951795090742053
 20
150.0495112847920893
 30
0.0
 40
0.0049920790305489
 50
252.6105786618552997
 51
284.34849929254068
  0
ARC
  5
D477
  8
0
 10
2756.4443944025310884
 20
150.1815616958234898
 30
0.0
 40
0.0050893076559378
 50
252.9064357696489083
 51
284.0420401361403719
  0
LINE
  5
D478
  8
0
 10
2756.6487788542549424
 20
150.1326415112746986
 30
0.0
 11
2756.6634030242830704
 21
150.1368631454986087
 31
0.0
  0
LINE
  5
D479
  8
0
 10
2756.6460480935538726
 20
150.1171921485747021
 30
0.0
 11
2756.6604944683431313
 21
150.1130226187634094
 31
0.0
  0
LINE
  5
D47A
  8
0
 10
2756.5698618307160359
 20
150.0512158888959107
 30
0.0
 11
2756.5835731393781316
 21
150.0472624789364886
 31
0.0
  0
LINE
  5
D47B
  8
0
 10
2756.5220460311538773
 20
150.0504024604861968
 30
0.0
 11
2756.5220460311538773
 21
150.0290029620747134
 31
0.0
  0
ARC
  5
D47C
  8
0
 10
2756.5163850051430927
 20
150.0294076027909114
 30
0.0
 40
0.0056754691093618
 50
303.2768365920363181
 51
355.9115464353023981
  0
LINE
  5
D47D
  8
0
 10
2756.5493954871549249
 20
150.0453075639593123
 30
0.0
 11
2756.5493954871549249
 21
150.0372897538746884
 31
0.0
  0
LINE
  5
D47E
  8
0
 10
2756.5395529674551653
 20
150.0453077644816062
 30
0.0
 11
2756.5395529674551653
 21
150.0340567792746072
 31
0.0
  0
ARC
  5
D47F
  8
0
 10
2756.54320604352597
 20
150.0377186394956084
 30
0.0
 40
0.0062042852376966
 50
306.5992585093603111
 51
356.0361349924098135
  0
ARC
  5
D480
  8
0
 10
2756.5423743221681434
 20
150.0339485355517866
 30
0.0
 40
0.0028234303818589
 50
177.8028752681790081
 51
261.8825237304433813
  0
LINE
  5
D481
  8
0
 10
2756.4732143848541455
 20
150.0233161744912138
 30
0.0
 11
2756.4732143848541455
 21
150.0189138833746085
 31
0.0
  0
LINE
  5
D482
  8
0
 10
2756.4633718651548406
 20
150.0233161744747008
 30
0.0
 11
2756.4633718651548406
 21
150.0175089514746958
 31
0.0
  0
ARC
  5
D483
  8
0
 10
2756.4680282506728872
 20
150.0192794012619117
 30
0.0
 40
0.0051989990453027
 50
292.1730373686410189
 51
355.9684694478187907
  0
ARC
  5
D484
  8
0
 10
2756.4669020632841239
 20
150.0175247468893076
 30
0.0
 40
0.0035302334659626
 50
180.256360839220406
 51
274.0760597945953236
  0
LINE
  5
D485
  8
0
 10
2756.4175047864541739
 20
150.0952005585745894
 30
0.0
 11
2756.3948415048312199
 21
150.0886580107010957
 31
0.0
  0
LINE
  5
D486
  8
0
 10
2756.4175038495491208
 20
150.1391840089559082
 30
0.0
 11
2756.3948415825179836
 21
150.1326412130289896
 31
0.0
  0
ARC
  5
D487
  8
0
 10
2756.3936057035971317
 20
150.1375666536565916
 30
0.0
 40
0.0050781258437008
 50
252.870059130757511
 51
284.0857057858289068
  0
ARC
  5
D488
  8
0
 10
2756.4158267138841438
 20
150.1464304795970861
 30
0.0
 40
0.0066032252676619
 50
284.7303997672843821
 51
1.36139951541278
  0
LINE
  5
D489
  8
0
 10
2756.4175057233542248
 20
150.1400442826746087
 30
0.0
 11
2756.3921099936760584
 21
150.1327137973925119
 31
0.0
  0
LINE
  5
D48A
  8
0
 10
2756.4175038495491208
 20
150.1831671889559061
 30
0.0
 11
2756.3948418389541075
 21
150.1766244670745891
 31
0.0
  0
ARC
  5
D48B
  8
0
 10
2756.3936034509101773
 20
150.181468571651493
 30
0.0
 40
0.0049998954091641
 50
252.6205996967381964
 51
284.3404339004599137
  0
ARC
  5
D48C
  8
0
 10
2756.444166082701031
 20
150.1361860349506117
 30
0.0
 40
0.0036961689394948
 50
249.9433875382846111
 51
293.3353073621902922
  0
ARC
  5
D48D
  8
0
 10
2756.5677458893587755
 20
150.2350926030073026
 30
0.0
 40
0.0073930516177332
 50
286.6803202600673899
 51
327.9172177630035776
  0
ARC
  5
D48E
  8
0
 10
2756.5716025920960419
 20
150.2344851643970003
 30
0.0
 40
0.0067028719082585
 50
173.4685182781555
 51
255.0014775496453865
  0
LINE
  5
D48F
  8
0
 10
2756.6460490304539235
 20
150.1611755989746086
 30
0.0
 11
2756.658205790059128
 21
150.1576662448007937
 31
0.0
  0
LINE
  5
D490
  8
0
 10
2756.4175047864541739
 20
150.0512179195173132
 30
0.0
 11
2756.3948418464551651
 21
150.0446751513746051
 31
0.0
  0
ARC
  5
D491
  8
0
 10
2756.3936033877089358
 20
150.0495195937407118
 30
0.0
 40
0.0050004555415395
 50
252.6233672330334059
 51
284.3395405769134072
  0
LINE
  5
D492
  8
0
 10
2756.4379781656029991
 20
150.2556848135143071
 30
0.0
 11
2756.4379781656029991
 21
150.2642586486051073
 31
0.0
  0
LINE
  5
D493
  8
0
 10
2756.4478206853018492
 20
150.2556848135143071
 30
0.0
 11
2756.4478206853018492
 21
150.2633022240783873
 31
0.0
  0
LINE
  5
D494
  8
0
 10
2756.6233857445449758
 20
150.1985967465369072
 30
0.0
 11
2756.6260705384102039
 21
150.1994012063528885
 31
0.0
  0
LINE
  5
D495
  8
0
 10
2756.5903403704101038
 20
150.2117016336121935
 30
0.0
 11
2756.5903403704101038
 21
150.2212449188801031
 31
0.0
  0
LINE
  5
D496
  8
0
 10
2756.3921099936878818
 20
150.0292257886688958
 30
0.0
 11
2756.3921099936878818
 21
150.0090085718923092
 31
0.0
  0
ARC
  5
D497
  8
0
 10
2763.1276977161001014
 20
147.2918250963828939
 30
0.0
 40
0.015
 50
44.99999995824259
 51
89.9999999999739515
  0
ARC
  5
D498
  8
0
 10
2756.89666014868817
 20
151.903440076745909
 30
0.0
 40
0.0197
 50
359.9999999999968168
 51
44.9999999999965397
  0
ARC
  5
D499
  8
0
 10
2756.374496759343856
 20
149.8948260981231897
 30
0.0
 40
1.011182817783197
 50
70.3659454572222245
 51
89.0019460268265306
  0
ARC
  5
D49A
  8
0
 10
2756.5788787282249359
 20
150.495906051532387
 30
0.0
 40
0.3764953754550622
 50
43.4860060733444911
 51
68.9244840544684507
  0
ARC
  5
D49B
  8
0
 10
2756.6877187519280596
 20
150.6193891241505867
 30
0.0
 40
0.213056157390152
 50
14.4029256141707709
 51
39.5321233902354123
  0
ARC
  5
D49C
  8
0
 10
2755.8875601486879532
 20
151.903440076745909
 30
0.0
 40
0.0197
 50
135.0000000000034106
 51
180.0000000000048885
  0
LINE
  5
D49D
  8
0
 10
2749.5673071540381898
 20
147.2156690622747135
 30
0.0
 11
2749.5673071540381898
 21
146.5901656591746871
 31
0.0
  0
LINE
  5
D49E
  8
0
 10
2749.6416537795198565
 20
146.5037674519568895
 30
0.0
 11
2749.6416539132378603
 21
147.2981696317746128
 31
0.0
  0
LINE
  5
D49F
  8
0
 10
2749.5730727686382124
 20
146.5762462343747075
 30
0.0
 11
2749.6416537795198565
 21
146.5037674519568895
 31
0.0
  0
LINE
  5
D4A0
  8
0
 10
2751.4964410123379821
 20
147.3068250963829087
 30
0.0
 11
2751.4964410123379821
 21
146.4990096251663942
 31
0.0
  0
LINE
  5
D4A1
  8
0
 10
2749.5730727686382124
 20
147.2295884870746079
 30
0.0
 11
2749.6459159795499545
 21
147.3024316980929882
 31
0.0
  0
LINE
  5
D4A2
  8
0
 10
2751.9885669966379282
 20
146.3812638174746041
 30
0.0
 11
2751.9885669966379282
 21
145.5749173607746059
 31
0.0
  0
LINE
  5
D4A3
  8
0
 10
2752.7956536108381442
 20
147.1883504315746052
 30
0.0
 11
2752.7956536108381442
 21
145.5749173607746059
 31
0.0
  0
LINE
  5
D4A4
  8
0
 10
2751.4964410123379821
 20
146.4990096251663942
 30
0.0
 11
2751.8704567658378437
 21
146.4990096251663942
 31
0.0
  0
LINE
  5
D4A5
  8
0
 10
2751.4964410123379821
 20
147.3068250963829087
 30
0.0
 11
2752.6775433808379603
 21
147.3068250963829087
 31
0.0
  0
ARC
  5
D4A6
  8
0
 10
2749.5869921934381637
 20
146.5901656591746871
 30
0.0
 40
0.0196850394
 50
180.0
 51
225.0000000019034019
  0
ARC
  5
D4A7
  8
0
 10
2749.6538974498789685
 20
146.5168607184562859
 30
0.0
 40
0.0179259891587767
 50
226.9205179197685993
 51
264.7606631389077165
  0
ARC
  5
D4A8
  8
0
 10
2751.8710723194790262
 20
146.3815162892005901
 30
0.0
 40
0.1174949484133101
 50
359.8768834262933183
 51
90.3001727947771968
  0
ARC
  5
D4A9
  8
0
 10
2752.6769163010590091
 20
147.1880891550250112
 30
0.0
 40
0.1187375972436685
 50
0.1260767946170837
 51
89.697406780797607
  0
ARC
  5
D4AA
  8
0
 10
2749.5869921934381637
 20
147.2156690622747135
 30
0.0
 40
0.0196850394
 50
134.9999999980965981
 51
180.0
  0
LINE
  5
D4AB
  8
0
 10
2751.9540253253671835
 20
146.4647260345242898
 30
0.0
 11
2752.7610056935031935
 21
147.2719198837442889
 31
0.0
  0
LINE
  5
D4AC
  8
0
 10
2751.4964410123379821
 20
146.4990096251663942
 30
0.0
 11
2749.6522605150380514
 21
146.4990096251663942
 31
0.0
  0
LINE
  5
D4AD
  8
0
 10
2751.4964410123379821
 20
147.3068250963829087
 30
0.0
 11
2749.6565225812760218
 21
147.3068250963829087
 31
0.0
  0
LINE
  5
D4AE
  8
0
 10
2753.5134253418377739
 20
144.9509173607746106
 30
0.0
 11
2751.2707954206380236
 21
144.9509173607746106
 31
0.0
  0
LINE
  5
D4AF
  8
0
 10
2753.5331105684208524
 20
145.2306986538746116
 30
0.0
 11
2751.2511103812380497
 21
145.2306986538746116
 31
0.0
  0
LINE
  5
D4B0
  8
0
 10
2753.4172270973381274
 20
145.3379173607746111
 30
0.0
 11
2751.3571619646309045
 21
145.3379173607746111
 31
0.0
  0
LINE
  5
D4B1
  8
0
 10
2753.2666103037381617
 20
145.4480233929745907
 30
0.0
 11
2751.5176103812377733
 21
145.4480233929745907
 31
0.0
  0
LINE
  5
D4B2
  8
0
 10
2753.1797164134882223
 20
145.5349173607746138
 30
0.0
 11
2751.60450434898803
 21
145.5349173607746138
 31
0.0
  0
LINE
  5
D4B3
  8
0
 10
2752.0085670741382273
 20
145.5549173607747093
 30
0.0
 11
2752.7756536883380249
 21
145.5549173607747093
 31
0.0
  0
LINE
  5
D4B4
  8
0
 10
2753.4304753751380304
 20
145.3327919885747121
 30
0.0
 11
2753.5266736196381316
 21
145.2452583210746866
 31
0.0
  0
LINE
  5
D4B5
  8
0
 10
2753.1936358382381513
 20
145.5291517461747048
 30
0.0
 11
2753.2608447666380016
 21
145.4619428177747125
 31
0.0
  0
LINE
  5
D4B6
  8
0
 10
2751.2511103812380497
 20
145.2306986538746116
 30
0.0
 11
2751.2511103812380497
 21
144.9706024000747107
 31
0.0
  0
LINE
  5
D4B7
  8
0
 10
2751.5176103812377733
 20
145.4480233929745907
 30
0.0
 11
2751.5176103812377733
 21
145.3576024000747111
 31
0.0
  0
LINE
  5
D4B8
  8
0
 10
2751.5905849241380565
 20
145.5291517461747048
 30
0.0
 11
2751.5233759957382063
 21
145.4619428177747125
 31
0.0
  0
LINE
  5
D4B9
  8
0
 10
2751.3439176013380347
 20
145.3325375729284872
 30
0.0
 11
2751.2575471427380762
 21
145.2452583210746866
 31
0.0
  0
LINE
  5
D4BA
  8
0
 10
2753.2666103037381617
 20
145.4480233929745907
 30
0.0
 11
2753.2666103037381617
 21
145.3576024000747111
 31
0.0
  0
LINE
  5
D4BB
  8
0
 10
2753.5331105684208524
 20
145.2306986538746116
 30
0.0
 11
2753.5331105684208524
 21
144.9706024000747107
 31
0.0
  0
ARC
  5
D4BC
  8
0
 10
2752.737110381237926
 20
145.5649173607747002
 30
0.0
 40
0.03
 50
199.4712206344742924
 51
270.0
  0
ARC
  5
D4BD
  8
0
 10
2752.0471103812378715
 20
145.5649173607747002
 30
0.0
 40
0.03
 50
270.0
 51
340.5287793655102746
  0
ARC
  5
D4BE
  8
0
 10
2752.7756537431378092
 20
145.5749172284754991
 30
0.0
 40
0.0199998677009458
 50
269.9998430082541176
 51
0.0003790115922822
  0
ARC
  5
D4BF
  8
0
 10
2752.0085670741382273
 20
145.5749173607746059
 30
0.0
 40
0.02
 50
180.0
 51
270.0
  0
ARC
  5
D4C0
  8
0
 10
2753.1797164134382001
 20
145.5152323213746115
 30
0.0
 40
0.0196850394
 50
44.9999999999953886
 51
90.0
  0
ARC
  5
D4C1
  8
0
 10
2751.6045043489380078
 20
145.5152323213746115
 30
0.0
 40
0.0196850394
 50
90.0
 51
135.0000000000046043
  0
ARC
  5
D4C2
  8
0
 10
2751.5372954206382019
 20
145.4480233929745907
 30
0.0
 40
0.0196850394
 50
135.0000000000046043
 51
180.0
  0
ARC
  5
D4C3
  8
0
 10
2751.4979253418377994
 20
145.3576024000747111
 30
0.0
 40
0.0196850394
 50
270.0
 51
0.0
  0
ARC
  5
D4C4
  8
0
 10
2751.3564894417381765
 20
145.3205801526113987
 30
0.0
 40
0.0173502470857109
 50
87.7785688770009358
 51
136.4348707065952055
  0
ARC
  5
D4C5
  8
0
 10
2751.2707954206380236
 20
145.2306986538746116
 30
0.0
 40
0.0196850394
 50
132.3000000000093053
 51
180.0
  0
ARC
  5
D4C6
  8
0
 10
2751.2707954206380236
 20
144.9706024000747107
 30
0.0
 40
0.0196850394
 50
180.0
 51
270.0
  0
ARC
  5
D4C7
  8
0
 10
2753.2862954754391467
 20
145.3576025323760916
 30
0.0
 40
0.0196851717014817
 50
180.0003850772677083
 51
269.9998404957603952
  0
ARC
  5
D4C8
  8
0
 10
2753.2469257733891936
 20
145.4480236813278964
 30
0.0
 40
0.0196845303509187
 50
359.999160689838277
 51
45.0002947265396074
  0
ARC
  5
D4C9
  8
0
 10
2753.4172270973381274
 20
145.3182323213746088
 30
0.0
 40
0.0196850394
 50
47.6999999999906734
 51
90.0
  0
ARC
  5
D4CA
  8
0
 10
2753.5134252094771909
 20
144.970602719621013
 30
0.0
 40
0.0196853589467648
 50
270.0003852453735931
 51
359.9990699353987793
  0
ARC
  5
D4CB
  8
0
 10
2753.5134244329601643
 20
145.2306979989737954
 30
0.0
 40
0.0196861354726858
 50
0.0019060650446335
 51
47.6993262917464591
  0
ARC
  5
D4CC
  8
0
 10
2749.6565225812760218
 20
147.2918250963828939
 30
0.0
 40
0.015
 50
90.0000000000260485
 51
135.0000000417574029
  0
ENDSEC
  0
EOF
