  0
SECTION
  2
HEADER
  9
$ACADVER
  1
AC1009
  9
$INSBASE
 10
4655.3433578228368788
 20
477.5820061390318187
 30
0.0
  9
$EXTMIN
 10
4647.9680963672690268
 20
470.1321100114197975
 30
-0.0000000349181948
  9
$EXTMAX
 10
4662.9092080398368125
 20
478.9014584765524774
 30
0.0000000814935746
  9
$LIMMIN
 10
0.0
 20
0.0
  9
$LIMMAX
 10
11.6929133858000007
 20
8.2677165353999982
  9
$ORTHOMODE
 70
     0
  9
$REGENMODE
 70
     1
  9
$FILLMODE
 70
     1
  9
$QTEXTMODE
 70
     0
  9
$MIRRTEXT
 70
     0
  9
$DRAGMODE
 70
     2
  9
$LTSCALE
 40
0.6431102362
  9
$OSMODE
 70
  4095
  9
$ATTMODE
 70
     1
  9
$TEXTSIZE
 40
0.2
  9
$TRACEWID
 40
0.05
  9
$TEXTSTYLE
  7
STANDARD
  9
$CLAYER
  8
0
  9
$CELTYPE
  6
BYLAYER
  9
$CECOLOR
 62
   256
  9
$DIMSCALE
 40
1.0
  9
$DIMASZ
 40
0.1875
  9
$DIMEXO
 40
0.0625
  9
$DIMDLI
 40
0.4443307087
  9
$DIMRND
 40
0.0
  9
$DIMDLE
 40
0.0
  9
$DIMEXE
 40
0.125
  9
$DIMTP
 40
0.01
  9
$DIMTM
 40
0.01
  9
$DIMTXT
 40
2.0
  9
$DIMCEN
 40
0.1052362205
  9
$DIMTSZ
 40
0.0
  9
$DIMTOL
 70
     1
  9
$DIMLIM
 70
     0
  9
$DIMTIH
 70
     1
  9
$DIMTOH
 70
     1
  9
$DIMSE1
 70
     0
  9
$DIMSE2
 70
     0
  9
$DIMTAD
 70
     0
  9
$DIMZIN
 70
     0
  9
$DIMBLK
  1

  9
$DIMASO
 70
     1
  9
$DIMSHO
 70
     1
  9
$DIMPOST
  1
\X
  9
$DIMAPOST
  1

  9
$DIMALT
 70
     1
  9
$DIMALTD
 70
     2
  9
$DIMALTF
 40
25.3999999999999986
  9
$DIMLFAC
 40
1.0
  9
$DIMTOFL
 70
     0
  9
$DIMTVP
 40
0.0
  9
$DIMTIX
 70
     0
  9
$DIMSOXD
 70
     0
  9
$DIMSAH
 70
     0
  9
$DIMBLK1
  1

  9
$DIMBLK2
  1

  9
$DIMSTYLE
  2
STANDARD
  9
$DIMCLRD
 70
     0
  9
$DIMCLRE
 70
     0
  9
$DIMCLRT
 70
     0
  9
$DIMTFAC
 40
1.0
  9
$DIMGAP
 40
0.09
  9
$LUNITS
 70
     2
  9
$LUPREC
 70
     4
  9
$SKETCHINC
 40
0.1
  9
$FILLETRAD
 40
0.0
  9
$AUNITS
 70
     0
  9
$AUPREC
 70
     0
  9
$MENU
  1
.
  9
$ELEVATION
 40
0.0
  9
$PELEVATION
 40
0.0
  9
$THICKNESS
 40
0.0
  9
$LIMCHECK
 70
     0
  9
$BLIPMODE
 70
     0
  9
$CHAMFERA
 40
0.0
  9
$CHAMFERB
 40
0.0
  9
$SKPOLY
 70
     0
  9
$TDCREATE
 40
2458060.468368056230247
  9
$TDUPDATE
 40
2459935.5899421297945082
  9
$TDINDWG
 40
1.5229863426000001
  9
$TDUSRTIMER
 40
1.5229863426000001
  9
$USRTIMER
 70
     1
  9
$ANGBASE
 50
0.0
  9
$ANGDIR
 70
     0
  9
$PDMODE
 70
     0
  9
$PDSIZE
 40
0.3125
  9
$PLINEWID
 40
0.0
  9
$COORDS
 70
     1
  9
$SPLFRAME
 70
     0
  9
$SPLINETYPE
 70
     6
  9
$SPLINESEGS
 70
     8
  9
$ATTDIA
 70
     1
  9
$ATTREQ
 70
     1
  9
$HANDLING
 70
     1
  9
$HANDSEED
  5
1EB50
  9
$SURFTAB1
 70
     6
  9
$SURFTAB2
 70
     6
  9
$SURFTYPE
 70
     6
  9
$SURFU
 70
     6
  9
$SURFV
 70
     6
  9
$UCSNAME
  2

  9
$UCSORG
 10
0.0
 20
0.0
 30
0.0
  9
$UCSXDIR
 10
1.0
 20
0.0
 30
0.0
  9
$UCSYDIR
 10
0.0
 20
1.0
 30
0.0
  9
$PUCSNAME
  2

  9
$PUCSORG
 10
0.0
 20
0.0
 30
0.0
  9
$PUCSXDIR
 10
1.0
 20
0.0
 30
0.0
  9
$PUCSYDIR
 10
0.0
 20
1.0
 30
0.0
  9
$USERI1
 70
     0
  9
$USERI2
 70
     0
  9
$USERI3
 70
     0
  9
$USERI4
 70
     0
  9
$USERI5
 70
     0
  9
$USERR1
 40
0.0
  9
$USERR2
 40
0.0
  9
$USERR3
 40
0.0
  9
$USERR4
 40
0.0
  9
$USERR5
 40
0.0
  9
$WORLDVIEW
 70
     1
  9
$SHADEDGE
 70
     3
  9
$SHADEDIF
 70
    70
  9
$TILEMODE
 70
     1
  9
$MAXACTVP
 70
    64
  9
$PLIMCHECK
 70
     0
  9
$PEXTMIN
 10
1.0000000000000000E+20
 20
1.0000000000000000E+20
 30
1.0000000000000000E+20
  9
$PEXTMAX
 10
-1.0000000000000000E+20
 20
-1.0000000000000000E+20
 30
-1.0000000000000000E+20
  9
$PLIMMIN
 10
0.0
 20
0.0
  9
$PLIMMAX
 10
12.0
 20
9.0
  9
$UNITMODE
 70
     0
  9
$VISRETAIN
 70
     1
  9
$PLINEGEN
 70
     0
  9
$PSLTSCALE
 70
     1
  0
ENDSEC
  0
SECTION
  2
TABLES
  0
TABLE
  2
VPORT
 70
     1
  0
VPORT
  2
*ACTIVE
 70
     0
 10
0.0
 20
0.0
 11
1.0
 21
1.0
 12
744.0732957582404197
 22
341.9371791414470749
 13
0.0
 23
0.0
 14
1.0
 24
1.0
 15
0.0
 25
0.0
 16
0.0
 26
0.0
 36
60.4960186965801583
 17
3911.3653564453120453
 27
132.5796051025390057
 37
0.0
 40
9.4209570581667386
 41
1.593589743589743
 42
50.0
 43
0.0
 44
0.0
 50
0.0
 51
0.0
 71
     0
 72
   100
 73
     1
 74
     1
 75
     0
 76
     0
 77
     0
 78
     0
  0
ENDTAB
  0
TABLE
  2
LTYPE
 70
     2
  0
LTYPE
  2
CONTINUOUS
 70
     0
  3
Solid line
 72
    65
 73
     0
 40
0.0
  0
LTYPE
  2
PHANTOM2
 70
     0
  3
___ _ _ ___ _ _ ___ _ _ ___ _ _
 72
    65
 73
     6
 40
1.25
 49
0.625
 49
-0.125
 49
0.125
 49
-0.125
 49
0.125
 49
-0.125
  0
ENDTAB
  0
TABLE
  2
LAYER
 70
     2
  0
LAYER
  2
0
 70
     0
 62
   255
  6
CONTINUOUS
  0
LAYER
  2
DEFPOINTS
 70
     0
 62
     7
  6
CONTINUOUS
  0
ENDTAB
  0
TABLE
  2
STYLE
 70
     1
  0
STYLE
  2
STANDARD
 70
     0
 40
0.0
 41
0.8
 50
0.0
 71
     0
 42
0.2
  3
txt
  4

  0
ENDTAB
  0
TABLE
  2
VIEW
 70
     0
  0
ENDTAB
  0
TABLE
  2
UCS
 70
     0
  0
ENDTAB
  0
TABLE
  2
APPID
 70
    11
  0
APPID
  2
ACAD
 70
     0
  0
APPID
  2
ACAD_MLEADERVER
 70
     0
  0
APPID
  2
ACAD_EXEMPT_FROM_CAD_STANDARDS
 70
     0
  0
APPID
  2
ACAD_NAV_VCDISPLAY
 70
     0
  0
APPID
  2
ACAECLAYERSTANDARD
 70
     0
  0
APPID
  2
ACCMTRANSPARENCY
 70
     0
  0
APPID
  2
ACAD_DSTYLE_DIMJAG
 70
     0
  0
APPID
  2
ACAD_DSTYLE_DIMTALN
 70
     0
  0
APPID
  2
ACDBATTR
 70
     0
  0
APPID
  2
ACADANNOTATIVE
 70
     0
  0
APPID
  2
DCO15
 70
     0
  0
ENDTAB
  0
TABLE
  2
DIMSTYLE
 70
     1
  0
DIMSTYLE
  2
STANDARD
 70
     0
  3

  4

  5

  6

  7

 40
1.0
 41
0.1875
 42
0.0625
 43
0.38
 44
0.125
 45
0.0
 46
0.0
 47
0.01
 48
0.01
140
0.15625
141
0.09
142
0.0
143
25.3999999999999986
144
1.0
145
0.0
146
1.0
147
0.09
 71
     1
 72
     0
 73
     1
 74
     1
 75
     0
 76
     0
 77
     0
 78
     4
170
     0
171
     2
172
     0
173
     0
174
     0
175
     0
176
     0
177
     0
178
     0
  0
ENDTAB
  0
ENDSEC
  0
SECTION
  2
BLOCKS
  0
BLOCK
  8
0
  2
$MODEL_SPACE
 70
     0
 10
0.0
 20
0.0
 30
0.0
  3
$MODEL_SPACE
  1

  0
ENDBLK
  5
21
  8
0
  0
BLOCK
 67
     1
  8
0
  2
$PAPER_SPACE
 70
     0
 10
0.0
 20
0.0
 30
0.0
  3
$PAPER_SPACE
  1

  0
ENDBLK
  5
1D
 67
     1
  8
0
  0
ENDSEC
  0
SECTION
  2
ENTITIES
  0
ATTDEF
  5
159BF
  8
DEFPOINTS
 10
4655.3391005563307772
 20
477.5799714589830955
 30
0.0
 40
0.001
  1
P24904-LV
  3

  2
MODELNUMBER
 70
     0
1001
ACDBATTR
1070
     0
1070
     1
  0
ATTDEF
  5
159C0
  8
DEFPOINTS
 10
4655.3391005563307772
 20
477.5783046186039087
 30
0.0
 40
0.001
  1
PURE PALETTA
  3

  2
TRADENAME
 70
     0
1001
ACDBATTR
1070
     0
1070
     1
  0
ATTDEF
  5
159C1
  8
DEFPOINTS
 10
4655.3391005563307772
 20
477.5766381256498221
 30
0.0
 40
0.001
  1
BATH FAUCET
  3

  2
PRODUCT
 70
     0
1001
ACDBATTR
1070
     0
1070
     1
  0
ARC
  5
1E9BC
  8
0
 10
4655.3433578228368788
 20
477.5820061390318187
 30
0.0
 40
1.311996062999998
 50
298.3779469780305931
 51
241.6220530219694069
  0
LINE
  5
1E9BD
  8
0
 10
4654.7197849881367802
 20
470.7059388760766865
 30
0.0
 11
4654.7197849881367802
 21
477.4102252096578809
 31
0.0
  0
LINE
  5
1E9BE
  8
0
 10
4655.9669306575369774
 20
470.7059388760766865
 30
0.0
 11
4655.9669306575369774
 21
477.4102252096578809
 31
0.0
  0
CIRCLE
  5
1E9BF
  8
0
 10
4655.3433578228368788
 20
477.5820061390318187
 30
0.0
 40
0.5168578643999995
  0
CIRCLE
  5
1E9C0
  8
0
 10
4655.3433578228368788
 20
477.5820061390318187
 30
0.0
 40
0.6339999999999995
  0
CIRCLE
  5
1E9C1
  8
0
 10
4655.3433578228368788
 20
477.5820061390318187
 30
0.0
 40
0.6468011810999998
  0
ARC
  5
1E9C2
  8
0
 10
4655.3433578228368788
 20
470.8610005615468026
 30
0.0
 40
0.6977332346748816
 50
236.2589771375052123
 51
303.741022862494674
  0
ARC
  5
1E9C3
  8
0
 10
4655.1953066837304505
 20
470.7069711572622737
 30
0.0
 40
0.4755228160500952
 50
180.1243797346077997
 51
189.1390723673503942
  0
ARC
  5
1E9C4
  8
0
 10
4655.2162869210242206
 20
470.7108297657848084
 30
0.0
 40
0.4968498218081566
 50
189.194114404409504
 51
201.2106425563167136
  0
ARC
  5
1E9C5
  8
0
 10
4655.2193721162384463
 20
470.7120270934747737
 30
0.0
 40
0.5001592059057564
 50
201.2106425563167136
 51
216.9154107259062982
  0
ARC
  5
1E9C6
  8
0
 10
4655.2885805018750034
 20
470.764019333764395
 30
0.0
 40
0.5867212858995411
 50
216.9154107259062982
 51
235.4467794579643964
  0
ARC
  5
1E9C7
  8
0
 10
4655.1974035765324516
 20
471.060255175474424
 30
0.0
 40
0.4776186081341302
 50
180.0166789922595001
 51
201.2497529798978064
  0
ARC
  5
1E9C8
  8
0
 10
4655.2385171852092753
 20
471.0762431794203735
 30
0.0
 40
0.5217314757438682
 50
201.2497529798978064
 51
221.7037408878358065
  0
ARC
  5
1E9C9
  8
0
 10
4655.2988243251520544
 20
471.1299819447174855
 30
0.0
 40
0.6025077471580187
 50
221.7037408878358065
 51
240.4140780360519045
  0
ARC
  5
1E9CA
  8
0
 10
4655.3433574979253535
 20
471.2182224201461054
 30
0.0
 40
0.7012470871143397
 50
240.809539344184401
 51
299.1899770931278795
  0
ARC
  5
1E9CB
  8
0
 10
4655.4914089619442166
 20
470.7069711572622737
 30
0.0
 40
0.4755228160500952
 50
350.8609276326495205
 51
359.875620265392115
  0
ARC
  5
1E9CC
  8
0
 10
4655.4704287246504464
 20
470.7108297657848084
 30
0.0
 40
0.4968498218081566
 50
338.7893574436802737
 51
350.8058855955903823
  0
ARC
  5
1E9CD
  8
0
 10
4655.4673435294362207
 20
470.7120270934747737
 30
0.0
 40
0.5001592059057564
 50
323.0845892740936733
 51
338.7893574436802737
  0
ARC
  5
1E9CE
  8
0
 10
4655.3981351437987541
 20
470.764019333764395
 30
0.0
 40
0.5867212858995411
 50
304.5532205420354899
 51
323.0845892740936733
  0
ARC
  5
1E9CF
  8
0
 10
4655.4893120691422155
 20
471.060255175474424
 30
0.0
 40
0.4776186081341302
 50
338.750247020102222
 51
359.9833210077405283
  0
ARC
  5
1E9D0
  8
0
 10
4655.4481984604626632
 20
471.0762431794203735
 30
0.0
 40
0.5217314757438682
 50
318.2962591121643072
 51
338.750247020102222
  0
ARC
  5
1E9D1
  8
0
 10
4655.3878913205207937
 20
471.1299819447174855
 30
0.0
 40
0.6025077471580187
 50
299.5859219639481239
 51
318.2962591121643072
  0
ARC
  5
1E9D2
  8
0
 10
4655.3433578228368788
 20
477.5820061390318187
 30
0.0
 40
1.193964090699998
 50
301.4847101877364253
 51
238.5152898122636032
  0
ARC
  5
1E9D3
  8
0
 10
4655.3433578228368788
 20
477.5820061390318187
 30
0.0
 40
1.005661417399998
 50
308.3206915870438252
 51
231.6793084129562033
  0
ARC
  5
1E9D4
  8
0
 10
4655.3433578228368788
 20
477.5820061390318187
 30
0.0
 40
0.9217406929999993
 50
312.5720301247022803
 51
227.4279698752978049
  0
ARC
  5
1E9D5
  8
0
 10
4659.3433578228359693
 20
477.5820061390318187
 30
0.0
 40
1.311996062999998
 50
21.1555074630341515
 51
338.8444925369657881
  0
LINE
  5
1E9D6
  8
0
 10
4660.4002475866373061
 20
477.1085061390317037
 30
0.0
 11
4662.5706541205890971
 21
477.1085061390317037
 31
0.0
  0
LINE
  5
1E9D7
  8
0
 10
4660.3766475866368637
 20
477.1085061390317037
 30
0.0
 11
4659.3433578228359693
 21
477.1085061390317037
 31
0.0
  0
LINE
  5
1E9D8
  8
0
 10
4660.4002475866373061
 20
478.0555061390318201
 30
0.0
 11
4662.5699404035349289
 21
478.0555061390318201
 31
0.0
  0
LINE
  5
1E9D9
  8
0
 10
4660.3766475866368637
 20
478.0555061390318201
 30
0.0
 11
4659.3433578228359693
 21
478.0555061390318201
 31
0.0
  0
ARC
  5
1E9DA
  8
0
 10
4659.3433578228359693
 20
477.5820061390318187
 30
0.0
 40
0.4735000000000014
 50
90.0
 51
270.0
  0
LINE
  5
1E9DB
  8
0
 10
4662.6692218514363049
 20
477.9565072004066906
 30
0.0
 11
4662.6692218514363049
 21
477.20777688123178
 31
0.0
  0
LINE
  5
1E9DC
  8
0
 10
4662.5840797158371061
 20
477.1143537703985089
 30
0.0
 11
4662.5840797158371061
 21
478.0496380417650926
 31
0.0
  0
ARC
  5
1E9DD
  8
0
 10
4662.5698919534906963
 20
478.0354208534802751
 30
0.0
 40
0.0200853439873084
 50
45.059355200159132
 51
89.861790477325826
  0
LINE
  5
1E9DE
  8
0
 10
4662.5840797158371061
 20
478.0496380417650926
 30
0.0
 11
4662.6633663027359944
 21
477.9703505093316949
 31
0.0
  0
ARC
  5
1E9DF
  8
0
 10
4662.6492240824891269
 20
477.9562084579815178
 30
0.0
 40
0.0200000002486877
 50
0.8558658240885195
 51
44.9996578613316913
  0
LINE
  5
1E9E0
  8
0
 10
4660.4002475866373061
 20
478.0555061390318201
 30
0.0
 11
4660.4002475866373061
 21
477.1085061390317037
 31
0.0
  0
ARC
  5
1E9E1
  8
0
 10
4662.6492071864458921
 20
477.2077853084493881
 30
0.0
 40
0.0200146667641687
 50
315.0080100138338253
 51
359.9758754905089972
  0
LINE
  5
1E9E2
  8
0
 10
4662.6633616714370874
 20
477.1936347805317951
 30
0.0
 11
4662.5840797158371061
 21
477.1143537703985089
 31
0.0
  0
ARC
  5
1E9E3
  8
0
 10
4662.5699348754551465
 20
477.1284932050583052
 30
0.0
 40
0.0200000030476725
 50
272.0609296065973126
 51
315.0109504319215148
  0
ARC
  5
1E9E4
  8
0
 10
4660.3766439368118881
 20
478.0319020854898895
 30
0.0
 40
0.023604053824044
 50
0.3352238196774699
 51
89.9911405219468179
  0
ARC
  5
1E9E5
  8
0
 10
4660.3766475866368637
 20
477.132106139031805
 30
0.0
 40
0.0235999999999983
 50
270.0
 51
0.0
  0
ARC
  5
1E9E6
  8
0
 10
4659.3433578228359693
 20
477.5820061390318187
 30
0.0
 40
1.1939529885
 50
23.3646621316199301
 51
336.635337868380077
  0
ARC
  5
1E9E7
  8
0
 10
4659.3433578228359693
 20
477.5820061390318187
 30
0.0
 40
1.0056614174
 50
28.0884735255930593
 51
331.9115264744070259
  0
ARC
  5
1E9E8
  8
0
 10
4659.3433578228359693
 20
477.5820061390318187
 30
0.0
 40
0.9217406930000006
 50
30.9107315486916008
 51
329.089268451308385
  0
ARC
  5
1E9EA
  8
0
 10
4651.3433578228368788
 20
477.5820061390318187
 30
0.0
 40
1.311996062999998
 50
201.1555074630340982
 51
158.8444925369659018
  0
LINE
  5
1E9EB
  8
0
 10
4650.2864680590382704
 20
477.1085061390317037
 30
0.0
 11
4648.1160615250846604
 21
477.1085061390317037
 31
0.0
  0
LINE
  5
1E9EC
  8
0
 10
4650.3100680590368938
 20
477.1085061390317037
 30
0.0
 11
4651.3433578228368788
 21
477.1085061390317037
 31
0.0
  0
LINE
  5
1E9ED
  8
0
 10
4650.2864680590382704
 20
478.0555061390318201
 30
0.0
 11
4648.1167752421370096
 21
478.0555061390318201
 31
0.0
  0
LINE
  5
1E9EE
  8
0
 10
4650.3100680590368938
 20
478.0555061390318201
 30
0.0
 11
4651.3433578228368788
 21
478.0555061390318201
 31
0.0
  0
ARC
  5
1E9EF
  8
0
 10
4651.3433578228368788
 20
477.5820061390318187
 30
0.0
 40
0.4735000000000014
 50
270.0
 51
90.0
  0
LINE
  5
1E9F0
  8
0
 10
4648.0174937942374527
 20
477.9565072004066906
 30
0.0
 11
4648.0174937942374527
 21
477.20777688123178
 31
0.0
  0
LINE
  5
1E9F1
  8
0
 10
4648.1026359298366515
 20
477.1143537703985089
 30
0.0
 11
4648.1026359298366515
 21
478.0496380417650926
 31
0.0
  0
ARC
  5
1E9F2
  8
0
 10
4648.1168236921821517
 20
478.0354208534802751
 30
0.0
 40
0.0200853439873084
 50
90.138209522674174
 51
134.9406447998408112
  0
LINE
  5
1E9F3
  8
0
 10
4648.1026359298366515
 20
478.0496380417650926
 30
0.0
 11
4648.0233493429368536
 21
477.9703505093316949
 31
0.0
  0
ARC
  5
1E9F4
  8
0
 10
4648.0374915631864496
 20
477.9562084579815178
 30
0.0
 40
0.0200000002486877
 50
135.0003421386682874
 51
179.1441341759114891
  0
LINE
  5
1E9F5
  8
0
 10
4650.2864680590382704
 20
478.0555061390318201
 30
0.0
 11
4650.2864680590382704
 21
477.1085061390317037
 31
0.0
  0
ARC
  5
1E9F6
  8
0
 10
4648.0375084592269559
 20
477.2077853084493881
 30
0.0
 40
0.0200146667641687
 50
180.0241245094910028
 51
224.9919899861660895
  0
LINE
  5
1E9F7
  8
0
 10
4648.0233539742357607
 20
477.1936347805317951
 30
0.0
 11
4648.1026359298366515
 21
477.1143537703985089
 31
0.0
  0
ARC
  5
1E9F8
  8
0
 10
4648.116780770218611
 20
477.1284932050583052
 30
0.0
 40
0.0200000030476725
 50
224.9890495680785136
 51
267.9390703934026874
  0
ARC
  5
1E9F9
  8
0
 10
4650.3100717088627789
 20
478.0319020854898895
 30
0.0
 40
0.023604053824044
 50
90.0088594780531821
 51
179.664776180322491
  0
ARC
  5
1E9FA
  8
0
 10
4650.3100680590368938
 20
477.132106139031805
 30
0.0
 40
0.0235999999999983
 50
180.0
 51
270.0
  0
ARC
  5
1E9FB
  8
0
 10
4651.3433578228368788
 20
477.5820061390318187
 30
0.0
 40
1.1939529885
 50
203.3646621316198946
 51
156.6353378683799917
  0
ARC
  5
1E9FC
  8
0
 10
4651.3433578228368788
 20
477.5820061390318187
 30
0.0
 40
1.0056614174
 50
208.0884735255930025
 51
151.9115264744069123
  0
ARC
  5
1E9FD
  8
0
 10
4651.3433578228368788
 20
477.5820061390318187
 30
0.0
 40
0.9217406930000006
 50
210.9107315486915866
 51
149.0892684513084134
  0
ARC
  5
1E9FE
  8
0
 10
4655.1964039218728431
 20
471.05168087487408
 30
0.0
 40
0.4766189533429512
 50
179.9835657607339101
 51
201.260918543024701
  0
ARC
  5
1E9FF
  8
0
 10
4655.2384828901031142
 20
471.0679446245538884
 30
0.0
 40
0.5217314757438682
 50
201.2497529798978064
 51
221.7037408878358065
  0
ARC
  5
1EA00
  8
0
 10
4655.2987900300449837
 20
471.1216833898508867
 30
0.0
 40
0.6025077471580187
 50
221.7037408878358065
 51
240.4140780360519045
  0
ARC
  5
1EA01
  8
0
 10
4655.3433232028182829
 20
471.2099238652793929
 30
0.0
 40
0.7012470871143397
 50
240.809539344184401
 51
299.1899770931278795
  0
ARC
  5
1EA02
  8
0
 10
4655.4883083983540928
 20
471.0522335135106005
 30
0.0
 40
0.4786224399063423
 50
338.7614121018390279
 51
359.9502091989951964
  0
ARC
  5
1EA03
  8
0
 10
4655.4481641653555926
 20
471.0679446245538884
 30
0.0
 40
0.5217314757438682
 50
318.2962591121643072
 51
338.750247020102222
  0
ARC
  5
1EA04
  8
0
 10
4655.3878570254146325
 20
471.1216833898508867
 30
0.0
 40
0.6025077471580187
 50
299.5859219639481239
 51
318.2962591121643072
  0
ENDSEC
  0
EOF
