  0
SECTION
  2
HEADER
  9
$ACADVER
  1
AC1009
  9
$INSBASE
 10
4652.7570604875263598
 20
471.9142103828768882
 30
0.0
  9
$EXTMIN
 10
4645.3550487180646087
 20
471.9046614276408036
 30
-0.0015258207003583
  9
$EXTMAX
 10
4660.2877606262791232
 20
481.2674114686927851
 30
0.0000000349246037
  9
$LIMMIN
 10
0.0
 20
0.0
  9
$LIMMAX
 10
11.6929133858000007
 20
8.2677165353999982
  9
$ORTHOMODE
 70
     0
  9
$REGENMODE
 70
     1
  9
$FILLMODE
 70
     1
  9
$QTEXTMODE
 70
     0
  9
$MIRRTEXT
 70
     0
  9
$DRAGMODE
 70
     2
  9
$LTSCALE
 40
0.6431102362
  9
$OSMODE
 70
  4095
  9
$ATTMODE
 70
     1
  9
$TEXTSIZE
 40
0.2
  9
$TRACEWID
 40
0.05
  9
$TEXTSTYLE
  7
STANDARD
  9
$CLAYER
  8
0
  9
$CELTYPE
  6
BYLAYER
  9
$CECOLOR
 62
   256
  9
$DIMSCALE
 40
1.0
  9
$DIMASZ
 40
0.1875
  9
$DIMEXO
 40
0.0625
  9
$DIMDLI
 40
0.4443307087
  9
$DIMRND
 40
0.0
  9
$DIMDLE
 40
0.0
  9
$DIMEXE
 40
0.125
  9
$DIMTP
 40
0.01
  9
$DIMTM
 40
0.01
  9
$DIMTXT
 40
2.0
  9
$DIMCEN
 40
0.1052362205
  9
$DIMTSZ
 40
0.0
  9
$DIMTOL
 70
     1
  9
$DIMLIM
 70
     0
  9
$DIMTIH
 70
     1
  9
$DIMTOH
 70
     1
  9
$DIMSE1
 70
     0
  9
$DIMSE2
 70
     0
  9
$DIMTAD
 70
     0
  9
$DIMZIN
 70
     0
  9
$DIMBLK
  1

  9
$DIMASO
 70
     1
  9
$DIMSHO
 70
     1
  9
$DIMPOST
  1
\X
  9
$DIMAPOST
  1

  9
$DIMALT
 70
     1
  9
$DIMALTD
 70
     2
  9
$DIMALTF
 40
25.3999999999999986
  9
$DIMLFAC
 40
1.0
  9
$DIMTOFL
 70
     0
  9
$DIMTVP
 40
0.0
  9
$DIMTIX
 70
     0
  9
$DIMSOXD
 70
     0
  9
$DIMSAH
 70
     0
  9
$DIMBLK1
  1

  9
$DIMBLK2
  1

  9
$DIMSTYLE
  2
STANDARD
  9
$DIMCLRD
 70
     0
  9
$DIMCLRE
 70
     0
  9
$DIMCLRT
 70
     0
  9
$DIMTFAC
 40
1.0
  9
$DIMGAP
 40
0.09
  9
$LUNITS
 70
     2
  9
$LUPREC
 70
     4
  9
$SKETCHINC
 40
0.1
  9
$FILLETRAD
 40
0.0
  9
$AUNITS
 70
     0
  9
$AUPREC
 70
     0
  9
$MENU
  1
.
  9
$ELEVATION
 40
0.0
  9
$PELEVATION
 40
0.0
  9
$THICKNESS
 40
0.0
  9
$LIMCHECK
 70
     0
  9
$BLIPMODE
 70
     0
  9
$CHAMFERA
 40
0.0
  9
$CHAMFERB
 40
0.0
  9
$SKPOLY
 70
     0
  9
$TDCREATE
 40
2458060.468368056230247
  9
$TDUPDATE
 40
2459935.5898726847954094
  9
$TDINDWG
 40
1.5029284722
  9
$TDUSRTIMER
 40
1.5029284722
  9
$USRTIMER
 70
     1
  9
$ANGBASE
 50
0.0
  9
$ANGDIR
 70
     0
  9
$PDMODE
 70
     0
  9
$PDSIZE
 40
0.3125
  9
$PLINEWID
 40
0.0
  9
$COORDS
 70
     1
  9
$SPLFRAME
 70
     0
  9
$SPLINETYPE
 70
     6
  9
$SPLINESEGS
 70
     8
  9
$ATTDIA
 70
     1
  9
$ATTREQ
 70
     1
  9
$HANDLING
 70
     1
  9
$HANDSEED
  5
1FEA7
  9
$SURFTAB1
 70
     6
  9
$SURFTAB2
 70
     6
  9
$SURFTYPE
 70
     6
  9
$SURFU
 70
     6
  9
$SURFV
 70
     6
  9
$UCSNAME
  2

  9
$UCSORG
 10
0.0
 20
0.0
 30
0.0
  9
$UCSXDIR
 10
1.0
 20
0.0
 30
0.0
  9
$UCSYDIR
 10
0.0
 20
1.0
 30
0.0
  9
$PUCSNAME
  2

  9
$PUCSORG
 10
0.0
 20
0.0
 30
0.0
  9
$PUCSXDIR
 10
1.0
 20
0.0
 30
0.0
  9
$PUCSYDIR
 10
0.0
 20
1.0
 30
0.0
  9
$USERI1
 70
     0
  9
$USERI2
 70
     0
  9
$USERI3
 70
     0
  9
$USERI4
 70
     0
  9
$USERI5
 70
     0
  9
$USERR1
 40
0.0
  9
$USERR2
 40
0.0
  9
$USERR3
 40
0.0
  9
$USERR4
 40
0.0
  9
$USERR5
 40
0.0
  9
$WORLDVIEW
 70
     1
  9
$SHADEDGE
 70
     3
  9
$SHADEDIF
 70
    70
  9
$TILEMODE
 70
     1
  9
$MAXACTVP
 70
    64
  9
$PLIMCHECK
 70
     0
  9
$PEXTMIN
 10
1.0000000000000000E+20
 20
1.0000000000000000E+20
 30
1.0000000000000000E+20
  9
$PEXTMAX
 10
-1.0000000000000000E+20
 20
-1.0000000000000000E+20
 30
-1.0000000000000000E+20
  9
$PLIMMIN
 10
0.0
 20
0.0
  9
$PLIMMAX
 10
12.0
 20
9.0
  9
$UNITMODE
 70
     0
  9
$VISRETAIN
 70
     1
  9
$PLINEGEN
 70
     0
  9
$PSLTSCALE
 70
     1
  0
ENDSEC
  0
SECTION
  2
TABLES
  0
TABLE
  2
VPORT
 70
     1
  0
VPORT
  2
*ACTIVE
 70
     0
 10
0.0
 20
0.0
 11
1.0
 21
1.0
 12
741.4560482268598207
 22
344.0064313456277887
 13
0.0
 23
0.0
 14
1.0
 24
1.0
 15
0.0
 25
0.0
 16
0.0
 26
0.0
 36
60.4960186965801583
 17
3911.3653564453120453
 27
132.5796051025390057
 37
0.0
 40
9.434738417167523
 41
1.593589743589743
 42
50.0
 43
0.0
 44
0.0
 50
0.0
 51
0.0
 71
     0
 72
   100
 73
     1
 74
     1
 75
     0
 76
     0
 77
     0
 78
     0
  0
ENDTAB
  0
TABLE
  2
LTYPE
 70
     2
  0
LTYPE
  2
CONTINUOUS
 70
     0
  3
Solid line
 72
    65
 73
     0
 40
0.0
  0
LTYPE
  2
PHANTOM2
 70
     0
  3
___ _ _ ___ _ _ ___ _ _ ___ _ _
 72
    65
 73
     6
 40
1.25
 49
0.625
 49
-0.125
 49
0.125
 49
-0.125
 49
0.125
 49
-0.125
  0
ENDTAB
  0
TABLE
  2
LAYER
 70
     2
  0
LAYER
  2
0
 70
     0
 62
   255
  6
CONTINUOUS
  0
LAYER
  2
DEFPOINTS
 70
     0
 62
     7
  6
CONTINUOUS
  0
ENDTAB
  0
TABLE
  2
STYLE
 70
     1
  0
STYLE
  2
STANDARD
 70
     0
 40
0.0
 41
0.8
 50
0.0
 71
     0
 42
0.2
  3
txt
  4

  0
ENDTAB
  0
TABLE
  2
VIEW
 70
     0
  0
ENDTAB
  0
TABLE
  2
UCS
 70
     0
  0
ENDTAB
  0
TABLE
  2
APPID
 70
    11
  0
APPID
  2
ACAD
 70
     0
  0
APPID
  2
ACAD_MLEADERVER
 70
     0
  0
APPID
  2
ACAD_EXEMPT_FROM_CAD_STANDARDS
 70
     0
  0
APPID
  2
ACAD_NAV_VCDISPLAY
 70
     0
  0
APPID
  2
ACAECLAYERSTANDARD
 70
     0
  0
APPID
  2
ACCMTRANSPARENCY
 70
     0
  0
APPID
  2
ACAD_DSTYLE_DIMJAG
 70
     0
  0
APPID
  2
ACAD_DSTYLE_DIMTALN
 70
     0
  0
APPID
  2
ACDBATTR
 70
     0
  0
APPID
  2
ACADANNOTATIVE
 70
     0
  0
APPID
  2
DCO15
 70
     0
  0
ENDTAB
  0
TABLE
  2
DIMSTYLE
 70
     1
  0
DIMSTYLE
  2
STANDARD
 70
     0
  3

  4

  5

  6

  7

 40
1.0
 41
0.1875
 42
0.0625
 43
0.38
 44
0.125
 45
0.0
 46
0.0
 47
0.01
 48
0.01
140
0.15625
141
0.09
142
0.0
143
25.3999999999999986
144
1.0
145
0.0
146
1.0
147
0.09
 71
     1
 72
     0
 73
     1
 74
     1
 75
     0
 76
     0
 77
     0
 78
     4
170
     0
171
     2
172
     0
173
     0
174
     0
175
     0
176
     0
177
     0
178
     0
  0
ENDTAB
  0
ENDSEC
  0
SECTION
  2
BLOCKS
  0
BLOCK
  8
0
  2
$MODEL_SPACE
 70
     0
 10
0.0
 20
0.0
 30
0.0
  3
$MODEL_SPACE
  1

  0
ENDBLK
  5
21
  8
0
  0
BLOCK
 67
     1
  8
0
  2
$PAPER_SPACE
 70
     0
 10
0.0
 20
0.0
 30
0.0
  3
$PAPER_SPACE
  1

  0
ENDBLK
  5
1D
 67
     1
  8
0
  0
ENDSEC
  0
SECTION
  2
ENTITIES
  0
ATTDEF
  5
159BF
  8
DEFPOINTS
 10
4652.7517590793413547
 20
471.9128461542622972
 30
0.0
 40
0.001
  1
P24904-LV
  3

  2
MODELNUMBER
 70
     0
1001
ACDBATTR
1070
     0
1070
     1
  0
ATTDEF
  5
159C0
  8
DEFPOINTS
 10
4652.7517590793413547
 20
471.9111793138829967
 30
0.0
 40
0.001
  1
PURE PALETTA
  3

  2
TRADENAME
 70
     0
1001
ACDBATTR
1070
     0
1070
     1
  0
ATTDEF
  5
159C1
  8
DEFPOINTS
 10
4652.7517590793413547
 20
471.9095128209289101
 30
0.0
 40
0.001
  1
BATH FAUCET
  3

  2
PRODUCT
 70
     0
1001
ACDBATTR
1070
     0
1070
     1
  0
LINE
  5
1F86E
  8
0
 10
4653.1579575955283872
 20
480.3907838474768823
 30
0.0
 11
4652.3561633795216039
 21
480.3907838474768823
 31
0.0
  0
LINE
  5
1F86F
  8
0
 10
4653.2257724167257038
 20
480.3325872725769159
 30
0.0
 11
4652.2883485583242873
 21
480.3325872725769159
 31
0.0
  0
LINE
  5
1F870
  8
0
 10
4652.1848772913053836
 20
480.1996940836768886
 30
0.0
 11
4653.3292436837418791
 21
480.1996940836768886
 31
0.0
  0
LINE
  5
1F871
  8
0
 10
4652.117062731525948
 20
480.1414975087769221
 30
0.0
 11
4653.3970582435258621
 21
480.1414975087769221
 31
0.0
  0
ARC
  5
1F872
  8
0
 10
4652.3561666301238802
 20
480.3675554999509245
 30
0.0
 40
0.0232283477533954
 50
90.0080180370080427
 51
134.9999996031571925
  0
LINE
  5
1F873
  8
0
 10
4652.3397417080259402
 20
480.3839804222769203
 30
0.0
 11
4652.2883485583242873
 21
480.3325872725769159
 31
0.0
  0
ARC
  5
1F874
  8
0
 10
4652.3047734793854033
 20
480.316162351324806
 30
0.0
 40
0.0232283462593882
 50
134.9999996638127868
 51
180.0000001180588924
  0
LINE
  5
1F875
  8
0
 10
4652.2815451331252916
 20
480.316162351276887
 30
0.0
 11
4652.2815451331252916
 21
480.2229224300768919
 31
0.0
  0
ARC
  5
1F876
  8
0
 10
4652.2583167867960583
 20
480.2229224299061912
 30
0.0
 40
0.0232283463292893
 50
269.9999998255871105
 51
0.0000004210863056
  0
ARC
  5
1F877
  8
0
 10
4652.1848808034646936
 20
480.1764657359390185
 30
0.0
 40
0.0232283480034754
 50
90.0086632049528248
 51
134.9999994804643109
  0
LINE
  5
1F878
  8
0
 10
4652.1684558812257819
 20
480.1928906584769265
 30
0.0
 11
4652.117062731525948
 21
480.1414975087769221
 31
0.0
  0
ARC
  5
1F879
  8
0
 10
4652.1334876520277248
 20
480.1250725878967955
 30
0.0
 40
0.0232283456025576
 50
134.9999993415447079
 51
180.0000010358108966
  0
LINE
  5
1F87A
  8
0
 10
4652.1334876528253517
 20
479.1828166820769184
 30
0.0
 11
4652.1334876528253517
 21
478.0315480708454743
 31
0.0
  0
LINE
  5
1F87B
  8
0
 10
4653.3806333222255489
 20
479.1828166820769184
 30
0.0
 11
4653.3806333222255489
 21
478.0315480708454743
 31
0.0
  0
ARC
  5
1F87C
  8
0
 10
4652.7570604875263598
 20
479.1828166820769184
 30
0.0
 40
0.6235728347000001
 50
0.0
 51
180.0
  0
ARC
  5
1F87D
  8
0
 10
4652.7570604875263598
 20
477.2060345579837985
 30
0.0
 40
1.139919817263336
 50
69.4397034784819311
 51
110.5602965215179978
  0
ARC
  5
1F87E
  8
0
 10
4652.3175263546709175
 20
478.0315480708454743
 30
0.0
 40
0.1840387018460164
 50
132.9616296545650016
 51
227.0383703454349984
  0
ARC
  5
1F87F
  8
0
 10
4652.5301862092583178
 20
477.8266924408130762
 30
0.0
 40
0.4791513802369786
 50
111.2236749071028044
 51
134.8771207399564958
  0
ARC
  5
1F880
  8
0
 10
4652.7570604875263598
 20
478.6463799248198256
 30
0.0
 40
0.9719525347111181
 50
255.3302821755285947
 51
284.6697178244713768
  0
ARC
  5
1F881
  8
0
 10
4652.7575757750228149
 20
478.4742473231100917
 30
0.0
 40
0.8081636815476866
 50
225.5969391507856017
 51
238.7154547695508882
  0
ARC
  5
1F882
  8
0
 10
4652.643222990139293
 20
478.2334525703611234
 30
0.0
 40
0.5436852970152583
 50
235.835548836110803
 51
255.9156070376895968
  0
ARC
  5
1F883
  8
0
 10
4652.7570604875263598
 20
477.2528667070791926
 30
0.0
 40
0.9356032662931294
 50
69.2404521810254323
 51
110.7595478189745961
  0
ARC
  5
1F884
  8
0
 10
4652.3824644002907007
 20
477.9317881266035215
 30
0.0
 40
0.1387633405088143
 50
143.1142402306743975
 51
216.8857597693256025
  0
ARC
  5
1F885
  8
0
 10
4652.5389107250475718
 20
477.8111047066312267
 30
0.0
 40
0.33634142414497
 50
109.716789018326395
 51
142.6671953679511091
  0
ARC
  5
1F886
  8
0
 10
4652.4869181702852075
 20
478.0025423382886061
 30
0.0
 40
0.2648475429126007
 50
215.5651820603195006
 51
235.7617526984539893
  0
ARC
  5
1F887
  8
0
 10
4652.7570604875263598
 20
477.2576751738682788
 30
0.0
 40
0.9111060382184442
 50
72.734611240477264
 51
107.2653887595226934
  0
ARC
  5
1F888
  8
0
 10
4652.4089802306762067
 20
477.9367135447606074
 30
0.0
 40
0.1294181966833982
 50
139.8592479081117972
 51
220.1407520918882028
  0
ARC
  5
1F889
  8
0
 10
4652.4077413676450306
 20
477.9267184984672099
 30
0.0
 40
0.1351783194206311
 50
136.279810542485194
 51
223.7201894575123902
  0
ARC
  5
1F88A
  8
0
 10
4652.5597007155756728
 20
477.7940058717637726
 30
0.0
 40
0.3368487740240861
 50
116.2694208028238023
 51
137.82958375388489
  0
ARC
  5
1F88B
  8
0
 10
4652.6621173811399785
 20
477.5992215653674862
 30
0.0
 40
0.5568736153334505
 50
108.3669081746047027
 51
116.8486147210130071
  0
ARC
  5
1F88C
  8
0
 10
4652.6144776414594162
 20
478.1324852686088889
 30
0.0
 40
0.4268443755555987
 50
224.5027002144979917
 51
254.8268690747999017
  0
ARC
  5
1F88D
  8
0
 10
4652.7570604875263598
 20
478.5993671038307866
 30
0.0
 40
0.9148993781943593
 50
253.8616278269726934
 51
286.1383721730273919
  0
ARC
  5
1F88E
  8
0
 10
4652.7020331708263257
 20
478.3261881349649229
 30
0.0
 40
0.6238541059884123
 50
236.9345622918937124
 51
265.3280118127892138
  0
ARC
  5
1F88F
  8
0
 10
4652.4993588468823873
 20
477.9974079099046094
 30
0.0
 40
0.2379330448910223
 50
217.2822651496072979
 51
234.6389339055556889
  0
ARC
  5
1F890
  8
0
 10
4653.1965946203790736
 20
478.0315480708454743
 30
0.0
 40
0.1840387018460164
 50
312.9616296545648879
 51
47.0383703454350268
  0
ARC
  5
1F891
  8
0
 10
4652.9839347657916733
 20
477.8266924408130762
 30
0.0
 40
0.4791513802369786
 50
45.1228792600434403
 51
68.7763250928971956
  0
ARC
  5
1F892
  8
0
 10
4652.7565452000271762
 20
478.4742473231100917
 30
0.0
 40
0.8081636815476866
 50
301.2845452304491118
 51
314.4030608492143983
  0
ARC
  5
1F893
  8
0
 10
4652.8708979849134266
 20
478.2334525703611234
 30
0.0
 40
0.5436852970152583
 50
284.0843929623102895
 51
304.1644511638892254
  0
ARC
  5
1F894
  8
0
 10
4653.1316565747601999
 20
477.9317881266035215
 30
0.0
 40
0.1387633405088143
 50
323.1142402306743975
 51
36.8857597693255812
  0
ARC
  5
1F895
  8
0
 10
4652.9752102500033288
 20
477.8111047066312267
 30
0.0
 40
0.33634142414497
 50
37.3328046320488696
 51
70.2832109816735766
  0
ARC
  5
1F896
  8
0
 10
4653.0272028047647837
 20
478.0025423382886061
 30
0.0
 40
0.2648475429126007
 50
304.2382473015459823
 51
324.4348179396804994
  0
ARC
  5
1F897
  8
0
 10
4653.1051407443746939
 20
477.9367135447606074
 30
0.0
 40
0.1294181966833982
 50
319.8592479081117972
 51
40.1407520918882028
  0
ARC
  5
1F898
  8
0
 10
4653.1063796074049606
 20
477.9267184984672099
 30
0.0
 40
0.1351783194206311
 50
316.2798105424852793
 51
43.7201894575147492
  0
ARC
  5
1F899
  8
0
 10
4652.9544202594761373
 20
477.7940058717637726
 30
0.0
 40
0.3368487740240861
 50
42.1704162461151029
 51
63.7305791971762119
  0
ARC
  5
1F89A
  8
0
 10
4652.8520035939100126
 20
477.5992215653674862
 30
0.0
 40
0.5568736153334505
 50
63.151385278987
 51
71.6330918253952262
  0
ARC
  5
1F89B
  8
0
 10
4652.8996433335933034
 20
478.1324852686088889
 30
0.0
 40
0.4268443755555987
 50
285.173130925200212
 51
315.4972997855019798
  0
ARC
  5
1F89C
  8
0
 10
4653.0147621281694228
 20
477.9974079099046094
 30
0.0
 40
0.2379330448910223
 50
305.3610660944443111
 51
322.7177348503927874
  0
LINE
  5
1F89D
  8
0
 10
4651.8513271331848955
 20
472.5859662883768806
 30
0.0
 11
4653.6627938418660051
 21
472.5859662883768806
 31
0.0
  0
LINE
  5
1F89E
  8
0
 10
4651.7580295269253838
 20
472.5020455639768784
 30
0.0
 11
4653.7560914481246073
 21
472.5020455639768784
 31
0.0
  0
LINE
  5
1F89F
  8
0
 10
4651.5783242257957681
 20
472.3599662883768815
 30
0.0
 11
4653.935796749254223
 21
472.3599662883768815
 31
0.0
  0
LINE
  5
1F8A0
  8
0
 10
4651.4524743907250013
 20
472.2535136449769197
 30
0.0
 11
4654.0616465843258993
 21
472.2535136449769197
 31
0.0
  0
LINE
  5
1F8A1
  8
0
 10
4651.4677022196547114
 20
471.9142103828768882
 30
0.0
 11
4654.0464187553961892
 21
471.9142103828768882
 31
0.0
  0
ARC
  5
1F8A2
  8
0
 10
4651.8513271331848955
 20
472.5633284927773161
 30
0.0
 40
0.0226377955996497
 50
90.0000001508590373
 51
134.999999570383693
  0
LINE
  5
1F8A3
  8
0
 10
4651.8353197945252759
 20
472.5793358316768717
 30
0.0
 11
4651.7580295269253838
 21
472.5020455639768784
 31
0.0
  0
ARC
  5
1F8A4
  8
0
 10
4651.774036864795562
 20
472.4860382256021012
 30
0.0
 40
0.0226377946707058
 50
134.9999990977802042
 51
180.0000003168202909
  0
LINE
  5
1F8A5
  8
0
 10
4651.7513990701254443
 20
472.4860382254768751
 30
0.0
 11
4651.7513990701254443
 21
472.3826040836768811
 31
0.0
  0
ARC
  5
1F8A6
  8
0
 10
4651.7287612749960317
 20
472.3826040835061804
 30
0.0
 40
0.02263779512929
 50
269.9999998210536205
 51
0.0000004320620181
  0
ARC
  5
1F8A7
  8
0
 10
4651.5783242257957681
 20
472.3373284932357024
 30
0.0
 40
0.0226377951412649
 50
89.9999999250134266
 51
132.2736892208646111
  0
LINE
  5
1F8A8
  8
0
 10
4651.5630963968260403
 20
472.3540791049769041
 30
0.0
 11
4651.4524743907250013
 21
472.2535136449769197
 31
0.0
  0
ARC
  5
1F8A9
  8
0
 10
4651.467702219115381
 20
472.2367630334529167
 30
0.0
 40
0.0226377945901738
 50
132.2736885042693018
 51
180.0000009517733872
  0
LINE
  5
1F8AA
  8
0
 10
4651.4450644245252988
 20
472.2367630330770112
 30
0.0
 11
4651.4450644245252988
 21
471.9368481781768878
 31
0.0
  0
ARC
  5
1F8AB
  8
0
 10
4651.4677022196547114
 20
471.936848178006187
 30
0.0
 40
0.0226377951292873
 50
179.9999995679314111
 51
270.0000001789463795
  0
ARC
  5
1F8AC
  8
0
 10
4653.6627938418660051
 20
472.5633284927773161
 30
0.0
 40
0.0226377955996497
 50
45.0000004296162999
 51
89.9999998491409485
  0
LINE
  5
1F8AD
  8
0
 10
4653.6788011805247152
 20
472.5793358316768717
 30
0.0
 11
4653.7560914481246073
 21
472.5020455639768784
 31
0.0
  0
ARC
  5
1F8AE
  8
0
 10
4653.7400841102553386
 20
472.4860382256021012
 30
0.0
 40
0.0226377946707058
 50
359.9999996831796807
 51
45.0000009022198029
  0
LINE
  5
1F8AF
  8
0
 10
4653.7627219049245468
 20
472.4860382254768751
 30
0.0
 11
4653.7627219049245468
 21
472.3826040836768811
 31
0.0
  0
ARC
  5
1F8B0
  8
0
 10
4653.7853597000539594
 20
472.3826040835061804
 30
0.0
 40
0.02263779512929
 50
179.9999995679378912
 51
270.0000001789463795
  0
ARC
  5
1F8B1
  8
0
 10
4653.935796749254223
 20
472.3373284932357024
 30
0.0
 40
0.0226377951412649
 50
47.7263107791353605
 51
90.0000000749344764
  0
LINE
  5
1F8B2
  8
0
 10
4653.9510245782248603
 20
472.3540791049769041
 30
0.0
 11
4654.0616465843258993
 21
472.2535136449769197
 31
0.0
  0
ARC
  5
1F8B3
  8
0
 10
4654.0464187559346101
 20
472.2367630334529167
 30
0.0
 40
0.0226377945901738
 50
359.9999990482265844
 51
47.7263114957306627
  0
LINE
  5
1F8B4
  8
0
 10
4654.0690565505246923
 20
472.2367630330770112
 30
0.0
 11
4654.0690565505246923
 21
471.9368481781768878
 31
0.0
  0
ARC
  5
1F8B5
  8
0
 10
4654.0464187553961892
 20
471.936848178006187
 30
0.0
 40
0.0226377951292873
 50
269.9999998210536205
 51
0.0000004320685319
  0
ARC
  5
1F8B6
  8
0
 10
4653.1579543449261109
 20
480.3675554999509245
 30
0.0
 40
0.0232283477533933
 50
45.000000396842772
 51
89.9919819629919715
  0
LINE
  5
1F8B7
  8
0
 10
4653.1743792670258699
 20
480.3839804222769203
 30
0.0
 11
4653.2257724167257038
 21
480.3325872725769159
 31
0.0
  0
ARC
  5
1F8B8
  8
0
 10
4653.2093474956673163
 20
480.316162351324806
 30
0.0
 40
0.0232283462593882
 50
359.9999998819411076
 51
45.0000003361872132
  0
LINE
  5
1F8B9
  8
0
 10
4653.2325758419246995
 20
480.316162351276887
 30
0.0
 11
4653.2325758419246995
 21
480.2229224300768919
 31
0.0
  0
ARC
  5
1F8BA
  8
0
 10
4653.2558041882548423
 20
480.2229224299061912
 30
0.0
 40
0.0232283463292893
 50
179.9999995789137017
 51
270.0000001744128895
  0
ARC
  5
1F8BB
  8
0
 10
4653.329240171586207
 20
480.1764657359390185
 30
0.0
 40
0.0232283480034701
 50
45.0000005195333586
 51
89.991336801352503
  0
LINE
  5
1F8BC
  8
0
 10
4653.3456650938260282
 20
480.1928906584769265
 30
0.0
 11
4653.3970582435258621
 21
480.1414975087769221
 31
0.0
  0
ARC
  5
1F8BD
  8
0
 10
4653.3806333230231758
 20
480.1250725878967955
 30
0.0
 40
0.0232283456025576
 50
359.9999989641891034
 51
45.0000006584552779
  0
LINE
  5
1F8BE
  8
0
 10
4652.1102593064242683
 20
480.1250725878967955
 30
0.0
 11
4652.1102593064242683
 21
472.5859662883768806
 31
0.0
  0
LINE
  5
1F8BF
  8
0
 10
4653.4038616686257228
 20
480.1250725878967955
 30
0.0
 11
4653.4038616686257228
 21
472.5859662883768806
 31
0.0
  0
LINE
  5
1F8C1
  8
0
 10
4658.0464187553961892
 20
471.9142103828768882
 30
0.0
 11
4655.4677022196547114
 21
471.9142103828768882
 31
0.0
  0
LINE
  5
1F8C2
  8
0
 10
4657.7560914481246073
 20
472.5020455639768784
 30
0.0
 11
4655.7580295269253838
 21
472.5020455639768784
 31
0.0
  0
LINE
  5
1F8C3
  8
0
 10
4657.6627938418660051
 20
472.5859662883768806
 30
0.0
 11
4655.851327133183986
 21
472.5859662883768806
 31
0.0
  0
LINE
  5
1F8C4
  8
0
 10
4660.0829245161248764
 20
474.5630881684518272
 30
0.0
 11
4660.0829245161248764
 21
473.8143578492769734
 31
0.0
  0
LINE
  5
1F8C5
  8
0
 10
4659.9977823805247681
 20
473.7209347384435887
 30
0.0
 11
4659.9977823805247681
 21
474.6562190098101155
 31
0.0
  0
LINE
  5
1F8C6
  8
0
 10
4656.4229325377964415
 20
474.6620871070768999
 30
0.0
 11
4657.7903502513263447
 21
474.6620871070768999
 31
0.0
  0
LINE
  5
1F8C7
  8
0
 10
4657.8139502513258776
 20
474.6620871070768999
 30
0.0
 11
4659.9836430682253194
 21
474.6620871070768999
 31
0.0
  0
LINE
  5
1F8C8
  8
0
 10
4659.9843567852776687
 20
473.7150871070768972
 30
0.0
 11
4657.8139502513258776
 21
473.7150871070768972
 31
0.0
  0
LINE
  5
1F8C9
  8
0
 10
4657.7903502513263447
 20
473.7150871070768972
 30
0.0
 11
4657.3699325377956484
 21
473.7150871070768972
 31
0.0
  0
LINE
  5
1F8CA
  8
0
 10
4657.230560487524599
 20
472.6295662883949262
 30
0.0
 11
4657.230560487524599
 21
473.5757150568056772
 31
0.0
  0
LINE
  5
1F8CB
  8
0
 10
4656.2835604875253921
 20
474.5227150568056231
 30
0.0
 11
4656.2835604875253921
 21
472.6295662883949262
 31
0.0
  0
ARC
  5
1F8CC
  8
0
 10
4657.6627938418660051
 20
472.5633284927773161
 30
0.0
 40
0.0226377955996418
 50
45.0000004295748397
 51
89.9999998491409485
  0
LINE
  5
1F8CD
  8
0
 10
4657.6788011805256247
 20
472.5793358316768717
 30
0.0
 11
4657.7560914481246073
 21
472.5020455639768784
 31
0.0
  0
ARC
  5
1F8CE
  8
0
 10
4657.7400841102553386
 20
472.4860382256021012
 30
0.0
 40
0.0226377946707132
 50
359.9999996831895146
 51
45.000000902180652
  0
LINE
  5
1F8CF
  8
0
 10
4657.7627219049263658
 20
472.4860382254768751
 30
0.0
 11
4657.7627219049263658
 21
472.382198217876919
 31
0.0
  0
ARC
  5
1F8D0
  8
0
 10
4657.7853597005705524
 20
472.38219821792012
 30
0.0
 40
0.0226377956461389
 50
180.0000001091545982
 51
270.0712487050085997
  0
LINE
  5
1F8D1
  8
0
 10
4657.7853878512178198
 20
472.3595604397768852
 30
0.0
 11
4655.7287331238330808
 21
472.3595604397768852
 31
0.0
  0
ARC
  5
1F8D2
  8
0
 10
4657.9357865238098384
 20
472.3367369981572779
 30
0.0
 40
0.0226377947491361
 50
47.7293087627530497
 51
89.9293099574424843
  0
LINE
  5
1F8D3
  8
0
 10
4657.9510134760248548
 20
472.3534884063769255
 30
0.0
 11
4658.0616457077258019
 21
472.2529242228770272
 31
0.0
  0
ARC
  5
1F8D4
  8
0
 10
4658.0464187562256484
 20
472.236172814614406
 30
0.0
 40
0.0226377942994633
 50
359.9999988927589811
 51
47.7293101765947583
  0
LINE
  5
1F8D5
  8
0
 10
4658.0616457077258019
 20
472.2529242228770272
 30
0.0
 11
4655.4524752673260082
 21
472.2529242228770272
 31
0.0
  0
LINE
  5
1F8D6
  8
0
 10
4658.0690565505256018
 20
472.2361728141768822
 30
0.0
 11
4658.0690565505256018
 21
471.9368481781768878
 31
0.0
  0
ARC
  5
1F8D7
  8
0
 10
4658.0464187553961892
 20
471.936848178006187
 30
0.0
 40
0.0226377951292892
 50
269.9999998210536205
 51
0.000000432065275
  0
ARC
  5
1F8D8
  8
0
 10
4659.9835946181801773
 20
474.6420018215255254
 30
0.0
 40
0.0200853439873064
 50
45.059355200161427
 51
89.861790477325826
  0
LINE
  5
1F8D9
  8
0
 10
4659.9977823805247681
 20
474.6562190098101155
 30
0.0
 11
4660.0770689674245659
 21
474.5769314773768883
 31
0.0
  0
ARC
  5
1F8DA
  8
0
 10
4660.0629267471776984
 20
474.5627894260264839
 30
0.0
 40
0.020000000248699
 50
0.8558658241048021
 51
44.9996578613247777
  0
ARC
  5
1F8DB
  8
0
 10
4657.3699325377629066
 20
473.5757150568392717
 30
0.0
 40
0.139372050237621
 50
89.9999999861386897
 51
180.0000000138417136
  0
ARC
  5
1F8DC
  8
0
 10
4656.4229325377627902
 20
474.5227150568392744
 30
0.0
 40
0.1393720502376206
 50
89.9999999861386897
 51
180.0000000138385019
  0
ARC
  5
1F8DD
  8
0
 10
4657.7903502514272986
 20
474.6384871071776956
 30
0.0
 40
0.0235999998991883
 50
359.9999997552578748
 51
90.0000002447616509
  0
ARC
  5
1F8DE
  8
0
 10
4657.7903502513263447
 20
473.7386871070768279
 30
0.0
 40
0.0235999999998833
 50
269.999999999687418
 51
0.0000000002833493
  0
LINE
  5
1F8DF
  8
0
 10
4657.2069604874823199
 20
472.6059662883769192
 30
0.0
 11
4656.3071604875685807
 21
472.6059662883769192
 31
0.0
  0
ARC
  5
1F8E0
  8
0
 10
4657.2069604875259756
 20
472.6295662883769069
 30
0.0
 40
0.0235999999999972
 50
269.9999998944247181
 51
0.0000000000065138
  0
ARC
  5
1F8E1
  8
0
 10
4657.1630604875253994
 20
472.6219662883768819
 30
0.0
 40
0.0359999999999982
 50
206.3877999612288932
 51
270.0
  0
ARC
  5
1F8E2
  8
0
 10
4655.851327133183986
 20
472.5633284927773161
 30
0.0
 40
0.0226377955996418
 50
90.0000001508590373
 51
134.9999995704251035
  0
LINE
  5
1F8E3
  8
0
 10
4655.8353197945252759
 20
472.5793358316768717
 30
0.0
 11
4655.7580295269253838
 21
472.5020455639768784
 31
0.0
  0
ARC
  5
1F8E4
  8
0
 10
4655.774036864795562
 20
472.4860382256021012
 30
0.0
 40
0.0226377946707132
 50
134.9999990978193125
 51
180.0000003168105138
  0
LINE
  5
1F8E5
  8
0
 10
4655.7513990701254443
 20
472.4860382254768751
 30
0.0
 11
4655.7513990701254443
 21
472.382198217876919
 31
0.0
  0
ARC
  5
1F8E6
  8
0
 10
4655.7287612744794387
 20
472.38219821792012
 30
0.0
 40
0.0226377956461388
 50
269.9287512948350241
 51
359.9999998908454018
  0
ARC
  5
1F8E7
  8
0
 10
4655.5783333247800329
 20
472.336739905703098
 30
0.0
 40
0.022634885568848
 50
90.0672576627697055
 51
132.2735317678123863
  0
LINE
  5
1F8E8
  8
0
 10
4655.5631074990260458
 20
472.3534884063769255
 30
0.0
 11
4655.4524752673260082
 21
472.2529242228770272
 31
0.0
  0
ARC
  5
1F8E9
  8
0
 10
4655.4677022188252522
 20
472.236172814614406
 30
0.0
 40
0.0226377942994633
 50
132.2706898234052062
 51
180.0000011072409052
  0
LINE
  5
1F8EA
  8
0
 10
4655.4450644245252988
 20
472.2361728141768822
 30
0.0
 11
4655.4450644245252988
 21
471.9368481781768878
 31
0.0
  0
ARC
  5
1F8EB
  8
0
 10
4655.4677022196547114
 20
471.936848178006187
 30
0.0
 40
0.0226377951292892
 50
179.999999567934708
 51
270.0000001789463795
  0
ARC
  5
1F8EC
  8
0
 10
4656.3071604875258345
 20
472.6295662883769069
 30
0.0
 40
0.0235999999999974
 50
179.9999999999934914
 51
270.0000001055752819
  0
ARC
  5
1F8ED
  8
0
 10
4656.3510604875264107
 20
472.6219662883768819
 30
0.0
 40
0.0359999999999982
 50
270.0
 51
333.6122000387711068
  0
ARC
  5
1F8EE
  8
0
 10
4660.0629098511353732
 20
473.8143662764945816
 30
0.0
 40
0.0200146667641687
 50
315.0080100138338253
 51
359.9758754905089972
  0
LINE
  5
1F8EF
  8
0
 10
4660.0770643361256589
 20
473.8002157485768748
 30
0.0
 11
4659.9977823805247681
 21
473.7209347384435887
 31
0.0
  0
ARC
  5
1F8F0
  8
0
 10
4659.9836375401437181
 20
473.7350741731033281
 30
0.0
 40
0.0200000030476513
 50
272.0609296062323779
 51
315.0109504319697749
  0
LINE
  5
1F8F1
  8
0
 10
4655.7287331238330808
 20
472.3595604397768852
 30
0.0
 11
4655.5783067544252845
 21
472.3593747756768835
 31
0.0
  0
LINE
  5
1F8F2
  8
0
 10
4657.7853878512178198
 20
472.3595604397768852
 30
0.0
 11
4657.9358144537245607
 21
472.3593747756768835
 31
0.0
  0
LINE
  5
1F8F3
  8
0
 10
4652.286588060322174
 20
477.9787757162310982
 30
0.0
 11
4652.2865874240260382
 21
477.9383303962769105
 31
0.0
  0
ARC
  5
1F8F4
  8
0
 10
4652.411635255967667
 20
477.9376679102477965
 30
0.0
 40
0.1250489643184459
 50
154.629806644556794
 51
205.9243194926208105
  0
ARC
  5
1F8F5
  8
0
 10
4652.3050060747436873
 20
477.8858356195792112
 30
0.0
 40
0.0064894069458541
 50
205.9243194926179115
 51
281.6674146068381788
  0
ARC
  5
1F8F6
  8
0
 10
4652.3640452766476301
 20
477.9837074755936897
 30
0.0
 40
0.0067937945800205
 50
260.3029852161971007
 51
332.1052781440454282
  0
ARC
  5
1F8F7
  8
0
 10
4652.3646968127222863
 20
477.9829534888992839
 30
0.0
 40
0.005876343425825
 50
335.6328034641862246
 51
359.9095516097473251
  0
ARC
  5
1F8F8
  8
0
 10
4652.4605431782911182
 20
477.9376481890939203
 30
0.0
 40
0.1001390827932926
 50
154.6458171114954041
 51
179.6096639433268081
  0
ARC
  5
1F8F9
  8
0
 10
4652.4603882979072296
 20
477.937649244256022
 30
0.0
 40
0.0999841988156139
 50
179.6096639433268081
 51
206.0653546705833037
  0
LINE
  5
1F8FA
  8
0
 10
4652.2986462247254167
 20
478.0043558152996752
 30
0.0
 11
4652.2986462247254167
 21
477.9912470317768793
 31
0.0
  0
ARC
  5
1F8FB
  8
0
 10
4652.307036562169742
 20
477.9919296747482917
 30
0.0
 40
0.008418061764539
 50
184.6513742847799904
 51
265.1062375200306747
  0
LINE
  5
1F8FC
  8
0
 10
4652.3063184303246089
 20
477.9835423002768948
 30
0.0
 11
4652.3629009433252577
 21
477.9770107490768964
 31
0.0
  0
LINE
  5
1F8FD
  8
0
 10
4652.370573148825315
 20
478.0272683474768769
 30
0.0
 11
4652.370573148825315
 21
477.9829442123768786
 31
0.0
  0
LINE
  5
1F8FE
  8
0
 10
4652.370573148825315
 20
477.9877145863769101
 30
0.0
 11
4652.403530388024592
 21
477.9877145863769101
 31
0.0
  0
LINE
  5
1F8FF
  8
0
 10
4652.370573148825315
 20
478.0272683474768769
 30
0.0
 11
4652.3217649948255712
 21
478.0329024725768932
 31
0.0
  0
ARC
  5
1F900
  8
0
 10
4652.5399469505928209
 20
477.9391454503389127
 30
0.0
 40
0.1909270272264122
 50
121.5513840543240036
 51
152.5126500033721015
  0
LINE
  5
1F901
  8
0
 10
4652.3916692215771036
 20
478.0594236478768835
 30
0.0
 11
4652.403530388024592
 21
478.0594236478768835
 31
0.0
  0
LINE
  5
1F902
  8
0
 10
4652.403530388024592
 20
478.0594236478768835
 30
0.0
 11
4652.403530388024592
 21
478.0457854524768777
 31
0.0
  0
LINE
  5
1F903
  8
0
 10
4652.403530388024592
 20
478.0457854524768777
 30
0.0
 11
4652.381577004994142
 21
478.0457854524768777
 31
0.0
  0
ARC
  5
1F904
  8
0
 10
4652.5091619157974492
 20
478.0242168329384072
 30
0.0
 40
0.1113442386365102
 50
147.9172031493272925
 51
161.5668546536415988
  0
ARC
  5
1F905
  8
0
 10
4652.5302711933582032
 20
478.0002889206509735
 30
0.0
 40
0.1346594450626686
 50
131.5385765554098043
 51
160.2532304823396885
  0
ARC
  5
1F906
  8
0
 10
4652.4479103974081227
 20
478.1104940040250995
 30
0.0
 40
0.0116904738733557
 50
190.7650707950747062
 51
237.1507084133565968
  0
LINE
  5
1F907
  8
0
 10
4652.4415691202257221
 20
478.1006728338768994
 30
0.0
 11
4652.4811733556252875
 21
478.0794376624768915
 31
0.0
  0
ARC
  5
1F908
  8
0
 10
4652.4831572101902566
 20
478.0826360748613979
 30
0.0
 40
0.0037637110303527
 50
238.1902334382444053
 51
290.9145979639797019
  0
ARC
  5
1F909
  8
0
 10
4652.7217813571778606
 20
477.5485056202621763
 30
0.0
 40
0.5812521499476007
 50
98.0904711531419622
 51
114.0932655926164045
  0
ARC
  5
1F90A
  8
0
 10
4652.6397792473044319
 20
478.1247666167874968
 30
0.0
 40
0.00081848202265
 50
284.0477508073872741
 51
338.7317980905071977
  0
ARC
  5
1F90B
  8
0
 10
4652.6411006739108416
 20
478.1261949586659057
 30
0.0
 40
0.0026325439753868
 50
208.5422181443686043
 51
229.8218206442601002
  0
ARC
  5
1F90C
  8
0
 10
4652.6399790961759209
 20
478.1248667249125788
 30
0.0
 40
0.0008941132121576
 50
229.8218206442664098
 51
269.9244899607454045
  0
ARC
  5
1F90D
  8
0
 10
4652.6328440030501952
 20
478.1274715791017229
 30
0.0
 40
0.0082625690333658
 50
338.696536916697994
 51
3.6058445631719369
  0
LINE
  5
1F90E
  8
0
 10
4652.6410902148254536
 20
478.1613704260013833
 30
0.0
 11
4652.6410902148254536
 21
478.1279912312768943
 31
0.0
  0
LINE
  5
1F90F
  8
0
 10
4652.6387880754245998
 20
478.1249371128769212
 30
0.0
 11
4652.6218097973260228
 21
478.1527038354769275
 31
0.0
  0
ARC
  5
1F910
  8
0
 10
4652.6396447751048981
 20
478.1616362313880018
 30
0.0
 40
0.0199467824247994
 50
189.3165085838209905
 51
206.6033500227763966
  0
ARC
  5
1F911
  8
0
 10
4652.7570604873062621
 20
477.4850273235035729
 30
0.0
 40
0.6618042229024254
 50
79.9075642230645258
 51
100.0922468392150932
  0
LINE
  5
1F912
  8
0
 10
4652.4184778103253848
 20
478.0031118240768819
 30
0.0
 11
4652.4184778103253848
 21
477.9775402078769275
 31
0.0
  0
ARC
  5
1F913
  8
0
 10
4652.5121323533012401
 20
478.0019918664477814
 30
0.0
 40
0.0936612391822202
 50
148.7269104764087047
 51
179.3148673323507865
  0
ARC
  5
1F914
  8
0
 10
4652.5615550330721817
 20
477.9721059322832843
 30
0.0
 40
0.1514172994186994
 50
129.8467939420928019
 51
148.7695178271021916
  0
ARC
  5
1F915
  8
0
 10
4652.5279036886340691
 20
477.9795218142245972
 30
0.0
 40
0.1094438194112522
 50
181.0374627408689889
 51
217.6881349423912866
  0
LINE
  5
1F916
  8
0
 10
4652.3063184298252963
 20
477.8794802968769773
 30
0.0
 11
4652.3629009435253465
 21
477.8860118480769188
 31
0.0
  0
LINE
  5
1F917
  8
0
 10
4652.370573148825315
 20
477.9380407146769016
 30
0.0
 11
4652.370573148825315
 21
477.8937165797768785
 31
0.0
  0
ARC
  5
1F918
  8
0
 10
4652.3621828113227821
 20
477.8943992225594002
 30
0.0
 40
0.0084180618060493
 50
274.8937648946478021
 51
355.3486270281770771
  0
ARC
  5
1F919
  8
0
 10
4652.5729570871899341
 20
478.0545614879887921
 30
0.0
 40
0.2335301888864497
 50
209.9308075463453918
 51
248.2824031302353092
  0
ARC
  5
1F91A
  8
0
 10
4652.5753537998998581
 20
478.1259744801387228
 30
0.0
 40
0.3446976879829875
 50
224.9697750590648013
 51
246.1902594315737076
  0
LINE
  5
1F91B
  8
0
 10
4652.4865434214252673
 20
477.8376075124768931
 30
0.0
 11
4652.4361990543247884
 21
477.8106136504769097
 31
0.0
  0
LINE
  5
1F91C
  8
0
 10
4652.4361990543247884
 20
477.8106136504769097
 30
0.0
 11
4652.4361990543247884
 21
477.7662895157769185
 31
0.0
  0
LINE
  5
1F91D
  8
0
 10
4652.4865434214252673
 20
477.8376075124768931
 30
0.0
 11
4652.4865434214252673
 21
477.7932833774768824
 31
0.0
  0
LINE
  5
1F91E
  8
0
 10
4652.4415691200247238
 20
477.7623497631769283
 30
0.0
 11
4652.4811733554242892
 21
477.7835849346769237
 31
0.0
  0
ARC
  5
1F91F
  8
0
 10
4652.4746298572335945
 20
477.7935440301670269
 30
0.0
 40
0.0119164152139832
 50
303.3064106256352943
 51
358.7466457048769257
  0
ARC
  5
1F920
  8
0
 10
4652.7224257980069524
 20
478.3204140950480792
 30
0.0
 40
0.577500899556625
 50
245.8922646786882922
 51
261.9035079446280747
  0
ARC
  5
1F921
  8
0
 10
4652.7166255905767684
 20
478.3837842774306068
 30
0.0
 40
0.6812289842893328
 50
245.8799736962054112
 51
261.8983321338351971
  0
LINE
  5
1F922
  8
0
 10
4652.6387880755255537
 20
477.7380854843768816
 30
0.0
 11
4652.6218097972259784
 21
477.7103187613769251
 31
0.0
  0
ARC
  5
1F923
  8
0
 10
4652.6203003072296269
 20
477.7109647562862733
 30
0.0
 40
0.0016419103106489
 50
281.2260518919769083
 51
336.8312185220792117
  0
ARC
  5
1F924
  8
0
 10
4652.6161927241209924
 20
477.7485425995441801
 30
0.0
 40
0.024897814416857
 50
335.1653285465691283
 51
0.2921708029024728
  0
LINE
  5
1F925
  8
0
 10
4652.6410902148254536
 20
477.7929936961768931
 30
0.0
 11
4652.6410902148254536
 21
477.7486695614769019
 31
0.0
  0
ARC
  5
1F926
  8
0
 10
4652.7570604874754281
 20
478.5646359399764833
 30
0.0
 40
0.7803081804996143
 50
261.4529733285615976
 51
278.5470266714384024
  0
ARC
  5
1F927
  8
0
 10
4652.7570604870716124
 20
478.6775591677985062
 30
0.0
 40
0.9301411262335672
 50
262.8377062590699893
 51
277.1622937972317118
  0
ARC
  5
1F928
  8
0
 10
4652.4394762037181863
 20
477.7647509247418043
 30
0.0
 40
0.0029856523012223
 50
197.5277411171400104
 51
278.8441888295856756
  0
ARC
  5
1F929
  8
0
 10
4652.4392591499417904
 20
477.7665187429755065
 30
0.0
 40
0.004766167679414
 50
278.1550433331602221
 51
298.9901887135565062
  0
ARC
  5
1F92A
  8
0
 10
4652.4427756202221644
 20
477.7661930450216801
 30
0.0
 40
0.0065772734156727
 50
179.1595962379396099
 51
200.8528099582727862
  0
ARC
  5
1F92B
  8
0
 10
4652.7570604875263598
 20
478.6445329433390157
 30
0.0
 40
0.9460651731501148
 50
263.576589491633797
 51
276.4234105083663167
  0
ARC
  5
1F92C
  8
0
 10
4652.5152713553461581
 20
478.0256218169088243
 30
0.0
 40
0.1179957707049977
 50
198.7390949250500114
 51
217.3469360856946935
  0
ARC
  5
1F92D
  8
0
 10
4652.5334435637169008
 20
478.0632354362683145
 30
0.0
 40
0.1703103318671041
 50
206.3229866307505915
 51
233.5826133794788859
  0
LINE
  5
1F92E
  8
0
 10
4652.4385438565259392
 20
477.916333444939994
 30
0.0
 11
4652.4385438565259392
 21
477.8985540071769265
 31
0.0
  0
LINE
  5
1F92F
  8
0
 10
4652.4385438565259392
 20
477.8985540071769265
 30
0.0
 11
4652.448689335697054
 21
477.9036267467627113
 31
0.0
  0
ARC
  5
1F930
  8
0
 10
4652.630504821512659
 20
478.185843279141011
 30
0.0
 40
0.3455200976280346
 50
236.2499433929529005
 51
243.9734070365151979
  0
ARC
  5
1F931
  8
0
 10
4652.7570604875263598
 20
478.4461043892026737
 30
0.0
 40
0.6457295357257531
 50
259.5284021031591237
 51
280.4715978968408763
  0
ARC
  5
1F932
  8
0
 10
4652.7570604875263598
 20
478.413082312270376
 30
0.0
 40
0.6071527406935031
 50
256.6224538781094111
 51
283.3775461218905889
  0
ARC
  5
1F933
  8
0
 10
4652.6025334650767036
 20
478.0377626186427733
 30
0.0
 40
0.2041089127634202
 50
217.8180968383055927
 51
239.7919327299985923
  0
ARC
  5
1F934
  8
0
 10
4652.7124432255868669
 20
478.233427441697188
 30
0.0
 40
0.4285173959039832
 50
240.2549206482206046
 51
260.2264417816138007
  0
ARC
  5
1F935
  8
0
 10
4652.5257209190676804
 20
477.9639020127895037
 30
0.0
 40
0.0846029410428386
 50
145.4074637958254925
 51
214.5925362041745075
  0
ARC
  5
1F936
  8
0
 10
4652.5332057862669899
 20
477.9778793259526992
 30
0.0
 40
0.0922388044102427
 50
185.0341885722097004
 51
216.6314593165525082
  0
ARC
  5
1F937
  8
0
 10
4652.5892944071792954
 20
478.0054001261063945
 30
0.0
 40
0.1605089071325778
 50
213.903111213648998
 51
236.7034959799975127
  0
ARC
  5
1F938
  8
0
 10
4652.6965460910168986
 20
478.1721357542926967
 30
0.0
 40
0.3587564768368304
 50
237.0049949431383993
 51
257.1216129933750949
  0
ARC
  5
1F939
  8
0
 10
4652.757060261161314
 20
477.5080281213072908
 30
0.0
 40
0.6138464762550992
 50
78.6401917532897556
 51
101.3598082467102017
  0
ARC
  5
1F93A
  8
0
 10
4652.6060131499816634
 20
477.9067070161606239
 30
0.0
 40
0.1831781539784446
 50
117.0787442118862032
 51
144.9386903159631004
  0
ARC
  5
1F93B
  8
0
 10
4652.7134784399831915
 20
477.7096857646135959
 30
0.0
 40
0.4075661908374293
 50
100.9369951846693994
 51
117.9220003123041067
  0
ARC
  5
1F93C
  8
0
 10
4652.494281185597174
 20
478.016522655215681
 30
0.0
 40
0.0915484181368146
 50
164.2400605967146134
 51
215.3766052294639906
  0
ARC
  5
1F93D
  8
0
 10
4652.5305475947334344
 20
478.0021025313465088
 30
0.0
 40
0.1304303241185193
 50
131.7000572158698901
 51
162.4704281665964913
  0
ARC
  5
1F93E
  8
0
 10
4652.5907493030399564
 20
478.019560129925992
 30
0.0
 40
0.1632888044200754
 50
216.3206398867534119
 51
233.3414319587213015
  0
ARC
  5
1F93F
  8
0
 10
4652.7570604875027129
 20
478.426778062831886
 30
0.0
 40
0.6092494659549316
 50
257.2206860568554134
 51
282.7793139431445866
  0
ARC
  5
1F940
  8
0
 10
4652.6591282441586372
 20
478.1128050067084132
 30
0.0
 40
0.2789170690086737
 50
233.5093240578887901
 51
248.1662217608474919
  0
ARC
  5
1F941
  8
0
 10
4652.7339590824230982
 20
478.2995760406236059
 30
0.0
 40
0.4801211282747059
 50
248.1662217608474919
 51
256.5514979100091182
  0
LINE
  5
1F942
  8
0
 10
4652.5336352906251705
 20
478.0178786493560779
 30
0.0
 11
4652.5336352906251705
 21
478.0065213729769198
 31
0.0
  0
LINE
  5
1F943
  8
0
 10
4652.5572573378258312
 20
478.0255580205770229
 30
0.0
 11
4652.5572573378258312
 21
477.9925990485768921
 31
0.0
  0
ARC
  5
1F944
  8
0
 10
4652.5269856919594531
 20
478.0073078356069232
 30
0.0
 40
0.0066959454823001
 50
284.9583742200002803
 51
353.2548370748845059
  0
LINE
  5
1F945
  8
0
 10
4652.5808793851247174
 20
478.017878649276895
 30
0.0
 11
4652.5808793851247174
 21
478.0065213729769198
 31
0.0
  0
ARC
  5
1F946
  8
0
 10
4652.58765668691467
 20
478.0074184297536135
 30
0.0
 40
0.0068364120999805
 50
187.5399515570524045
 51
254.2468371480950964
  0
LINE
  5
1F947
  8
0
 10
4652.5287140308246308
 20
477.9999785179768992
 30
0.0
 11
4652.5545275140257218
 21
477.9925268071768869
 31
0.0
  0
LINE
  5
1F948
  8
0
 10
4652.5599871617250756
 20
477.9925268071768869
 30
0.0
 11
4652.585800645026211
 21
477.9999785179768992
 31
0.0
  0
ARC
  5
1F949
  8
0
 10
4652.5557650071723401
 20
477.9973777673610016
 30
0.0
 40
0.0050063164099097
 50
255.6889220987355884
 51
287.3428937126843721
  0
ARC
  5
1F94A
  8
0
 10
4652.5587498465183671
 20
477.9973844932840734
 30
0.0
 40
0.0050127899657327
 50
252.6780799925705026
 51
284.290104307074273
  0
LINE
  5
1F94B
  8
0
 10
4652.5907219047257968
 20
478.0178786493560779
 30
0.0
 11
4652.5907219047257968
 21
478.0065213729769198
 31
0.0
  0
LINE
  5
1F94C
  8
0
 10
4652.614343951925548
 20
478.0255580205770229
 30
0.0
 11
4652.614343951925548
 21
477.9925990485768921
 31
0.0
  0
ARC
  5
1F94D
  8
0
 10
4652.5840723060582604
 20
478.0073078356069232
 30
0.0
 40
0.0066959454823001
 50
284.9583742200002803
 51
353.2548370748845059
  0
LINE
  5
1F94E
  8
0
 10
4652.6379659992244342
 20
478.017878649276895
 30
0.0
 11
4652.6379659992244342
 21
478.0065213729769198
 31
0.0
  0
ARC
  5
1F94F
  8
0
 10
4652.6447433010143868
 20
478.0074184297536135
 30
0.0
 40
0.0068364120999805
 50
187.5399515570524045
 51
254.2468371480950964
  0
LINE
  5
1F950
  8
0
 10
4652.5858006449252571
 20
477.9999785179768992
 30
0.0
 11
4652.6116141281254386
 21
477.9925268071768869
 31
0.0
  0
LINE
  5
1F951
  8
0
 10
4652.6170737758247924
 20
477.9925268071768869
 30
0.0
 11
4652.6428872591250183
 21
477.9999785179768992
 31
0.0
  0
ARC
  5
1F952
  8
0
 10
4652.6128516212720569
 20
477.9973777673610016
 30
0.0
 40
0.0050063164099097
 50
255.6889220987355884
 51
287.3428937126843721
  0
ARC
  5
1F953
  8
0
 10
4652.6158364606180839
 20
477.9973844932840734
 30
0.0
 40
0.0050127899657327
 50
252.6780799925705026
 51
284.290104307074273
  0
LINE
  5
1F954
  8
0
 10
4652.5621785976263709
 20
477.9931594202560063
 30
0.0
 11
4652.5621785976263709
 21
477.9818021438769051
 31
0.0
  0
LINE
  5
1F955
  8
0
 10
4652.5858006448252127
 20
478.0008387914768946
 30
0.0
 11
4652.5858006448252127
 21
477.9678798194768774
 31
0.0
  0
ARC
  5
1F956
  8
0
 10
4652.5555289989579251
 20
477.9825886065069085
 30
0.0
 40
0.0066959454823001
 50
284.9583742200002803
 51
353.2548370748845059
  0
LINE
  5
1F957
  8
0
 10
4652.6094226921250083
 20
477.9931594201768803
 30
0.0
 11
4652.6094226921250083
 21
477.9818021438769051
 31
0.0
  0
ARC
  5
1F958
  8
0
 10
4652.6161999939140514
 20
477.9826992006535988
 30
0.0
 40
0.0068364120999805
 50
187.5399515570524045
 51
254.2468371480950964
  0
LINE
  5
1F959
  8
0
 10
4652.5572573378258312
 20
477.9752592888768845
 30
0.0
 11
4652.5830708210260127
 21
477.9678075780768722
 31
0.0
  0
LINE
  5
1F95A
  8
0
 10
4652.5885304687253665
 20
477.9678075780768722
 30
0.0
 11
4652.6143439520246829
 21
477.9752592888768845
 31
0.0
  0
ARC
  5
1F95B
  8
0
 10
4652.5843083141726311
 20
477.9726585382609869
 30
0.0
 40
0.0050063164099097
 50
255.6889220987355884
 51
287.3428937126843721
  0
ARC
  5
1F95C
  8
0
 10
4652.5872931535168391
 20
477.9726652641841156
 30
0.0
 40
0.0050127899657327
 50
252.6780799925705026
 51
284.290104307074273
  0
LINE
  5
1F95D
  8
0
 10
4652.5050919835257446
 20
477.9931594202560063
 30
0.0
 11
4652.5050919835257446
 21
477.9818021438769051
 31
0.0
  0
LINE
  5
1F95E
  8
0
 10
4652.5287140307245863
 20
478.0008387914768946
 30
0.0
 11
4652.5287140307245863
 21
477.9678798194768774
 31
0.0
  0
ARC
  5
1F95F
  8
0
 10
4652.4984423848582082
 20
477.9825886065069085
 30
0.0
 40
0.0066959454823001
 50
284.9583742200002803
 51
353.2548370748845059
  0
LINE
  5
1F960
  8
0
 10
4652.5523360780252915
 20
477.9931594201768803
 30
0.0
 11
4652.5523360780252915
 21
477.9818021438769051
 31
0.0
  0
ARC
  5
1F961
  8
0
 10
4652.5591133798143346
 20
477.9826992006535988
 30
0.0
 40
0.0068364120999805
 50
187.5399515570524045
 51
254.2468371480950964
  0
LINE
  5
1F962
  8
0
 10
4652.5001707237252049
 20
477.9752592888768845
 30
0.0
 11
4652.5259842069253864
 21
477.9678075780768722
 31
0.0
  0
LINE
  5
1F963
  8
0
 10
4652.5314438546256497
 20
477.9678075780768722
 30
0.0
 11
4652.5572573379249661
 21
477.9752592888768845
 31
0.0
  0
ARC
  5
1F964
  8
0
 10
4652.5272217000710953
 20
477.9726585382609869
 30
0.0
 40
0.0050063164099097
 50
255.6889220987355884
 51
287.3428937126843721
  0
ARC
  5
1F965
  8
0
 10
4652.5302065394171223
 20
477.9726652641841156
 30
0.0
 40
0.0050127899657327
 50
252.6780799925705026
 51
284.290104307074273
  0
LINE
  5
1F966
  8
0
 10
4652.4765486764254092
 20
477.9684401912559792
 30
0.0
 11
4652.4765486764254092
 21
477.957082914876878
 31
0.0
  0
LINE
  5
1F967
  8
0
 10
4652.5001707236251605
 20
477.9761195624769243
 30
0.0
 11
4652.5001707236251605
 21
477.9431605904769071
 31
0.0
  0
ARC
  5
1F968
  8
0
 10
4652.4698990777578729
 20
477.9578693775069951
 30
0.0
 40
0.0066959454823001
 50
284.9583742200002803
 51
353.2548370748845059
  0
LINE
  5
1F969
  8
0
 10
4652.5237927709258656
 20
477.9684401911770237
 30
0.0
 11
4652.5237927709258656
 21
477.957082914876878
 31
0.0
  0
ARC
  5
1F96A
  8
0
 10
4652.5305700727149087
 20
477.9579799716535149
 30
0.0
 40
0.0068364120999805
 50
187.5399515570524045
 51
254.2468371480950964
  0
LINE
  5
1F96B
  8
0
 10
4652.471627416625779
 20
477.9505400598769143
 30
0.0
 11
4652.4974408998259605
 21
477.943088349076902
 31
0.0
  0
LINE
  5
1F96C
  8
0
 10
4652.5029005475253143
 20
477.943088349076902
 30
0.0
 11
4652.5287140308246308
 21
477.9505400598769143
 31
0.0
  0
ARC
  5
1F96D
  8
0
 10
4652.4986783929716694
 20
477.9479393092610735
 30
0.0
 40
0.0050063164099097
 50
255.6889220987355884
 51
287.3428937126843721
  0
ARC
  5
1F96E
  8
0
 10
4652.5016632323167869
 20
477.9479460351840885
 30
0.0
 40
0.0050127899657327
 50
252.6780799925705026
 51
284.290104307074273
  0
LINE
  5
1F96F
  8
0
 10
4652.5336352905260355
 20
477.9684401912559792
 30
0.0
 11
4652.5336352905260355
 21
477.957082914876878
 31
0.0
  0
LINE
  5
1F970
  8
0
 10
4652.5572573377257868
 20
477.9761195624769243
 30
0.0
 11
4652.5572573377257868
 21
477.9431605904769071
 31
0.0
  0
ARC
  5
1F971
  8
0
 10
4652.5269856918575897
 20
477.9578693775069951
 30
0.0
 40
0.0066959454823001
 50
284.9583742200002803
 51
353.2548370748845059
  0
LINE
  5
1F972
  8
0
 10
4652.5808793850255825
 20
477.9684401911770237
 30
0.0
 11
4652.5808793850255825
 21
477.957082914876878
 31
0.0
  0
ARC
  5
1F973
  8
0
 10
4652.5876566868137161
 20
477.9579799716535149
 30
0.0
 40
0.0068364120999805
 50
187.5399515570524045
 51
254.2468371480950964
  0
LINE
  5
1F974
  8
0
 10
4652.5287140307245863
 20
477.9505400598769143
 30
0.0
 11
4652.5545275139256773
 21
477.943088349076902
 31
0.0
  0
LINE
  5
1F975
  8
0
 10
4652.5599871616259406
 20
477.943088349076902
 30
0.0
 11
4652.5858006449252571
 21
477.9505400598769143
 31
0.0
  0
ARC
  5
1F976
  8
0
 10
4652.5557650070722957
 20
477.9479393092610735
 30
0.0
 40
0.0050063164099097
 50
255.6889220987355884
 51
287.3428937126843721
  0
ARC
  5
1F977
  8
0
 10
4652.5587498464174132
 20
477.9479460351840885
 30
0.0
 40
0.0050127899657327
 50
252.6780799925705026
 51
284.290104307074273
  0
LINE
  5
1F978
  8
0
 10
4652.4667634005254513
 20
477.9161769672768969
 30
0.0
 11
4652.4916544156258169
 21
477.9233623844768886
 31
0.0
  0
LINE
  5
1F979
  8
0
 10
4652.5050919835257446
 20
477.943720962256009
 30
0.0
 11
4652.5050919835257446
 21
477.9323636858769078
 31
0.0
  0
LINE
  5
1F97A
  8
0
 10
4652.5287140307245863
 20
477.9514003334768972
 30
0.0
 11
4652.5287140307245863
 21
477.91844136147688
 31
0.0
  0
ARC
  5
1F97B
  8
0
 10
4652.4984423848582082
 20
477.9331501485069111
 30
0.0
 40
0.0066959454823001
 50
284.9583742200002803
 51
353.2548370748845059
  0
LINE
  5
1F97C
  8
0
 10
4652.5523360780252915
 20
477.9437209621768829
 30
0.0
 11
4652.5523360780252915
 21
477.9323636858769078
 31
0.0
  0
ARC
  5
1F97D
  8
0
 10
4652.5591133798143346
 20
477.9332607426534878
 30
0.0
 40
0.0068364120999805
 50
187.5399515570524045
 51
254.2468371480950964
  0
LINE
  5
1F97E
  8
0
 10
4652.5001707237252049
 20
477.9258208308768872
 30
0.0
 11
4652.5259842069253864
 21
477.9183691200768749
 31
0.0
  0
LINE
  5
1F97F
  8
0
 10
4652.5314438546256497
 20
477.9183691200768749
 30
0.0
 11
4652.5572573379249661
 21
477.9258208308768872
 31
0.0
  0
ARC
  5
1F980
  8
0
 10
4652.5272217000710953
 20
477.9232200802609896
 30
0.0
 40
0.0050063164099097
 50
255.6889220987355884
 51
287.3428937126843721
  0
ARC
  5
1F981
  8
0
 10
4652.5302065394171223
 20
477.9232268061841182
 30
0.0
 40
0.0050127899657327
 50
252.6780799925705026
 51
284.290104307074273
  0
LINE
  5
1F982
  8
0
 10
4652.5336352905260355
 20
477.9190017331559943
 30
0.0
 11
4652.5336352905260355
 21
477.9076444567770068
 31
0.0
  0
LINE
  5
1F983
  8
0
 10
4652.5572573377257868
 20
477.9266811043768826
 30
0.0
 11
4652.5572573377257868
 21
477.8937221323769222
 31
0.0
  0
ARC
  5
1F984
  8
0
 10
4652.5269856918575897
 20
477.9084309194068965
 30
0.0
 40
0.0066959454823001
 50
284.9583742200002803
 51
353.2548370748845059
  0
LINE
  5
1F985
  8
0
 10
4652.5808793850255825
 20
477.9190017330769251
 30
0.0
 11
4652.5808793850255825
 21
477.9076444567770068
 31
0.0
  0
ARC
  5
1F986
  8
0
 10
4652.5876566868137161
 20
477.9085415135534731
 30
0.0
 40
0.0068364120999805
 50
187.5399515570524045
 51
254.2468371480950964
  0
LINE
  5
1F987
  8
0
 10
4652.5287140307245863
 20
477.9011016017768725
 30
0.0
 11
4652.5545275139256773
 21
477.8936498909769739
 31
0.0
  0
LINE
  5
1F988
  8
0
 10
4652.5599871616259406
 20
477.8936498909769739
 30
0.0
 11
4652.5858006449252571
 21
477.9011016017768725
 31
0.0
  0
ARC
  5
1F989
  8
0
 10
4652.5557650070722957
 20
477.8985008511609749
 30
0.0
 40
0.0050063164099097
 50
255.6889220987355884
 51
287.3428937126843721
  0
ARC
  5
1F98A
  8
0
 10
4652.5587498464174132
 20
477.8985075770841036
 30
0.0
 40
0.0050127899657327
 50
252.6780799925705026
 51
284.290104307074273
  0
LINE
  5
1F98B
  8
0
 10
4652.5621785976263709
 20
477.8942825041560809
 30
0.0
 11
4652.5621785976263709
 21
477.8829252277769228
 31
0.0
  0
LINE
  5
1F98C
  8
0
 10
4652.5858006448252127
 20
477.9019618753769123
 30
0.0
 11
4652.5858006448252127
 21
477.8690029033768951
 31
0.0
  0
ARC
  5
1F98D
  8
0
 10
4652.5555289989579251
 20
477.8837116904069262
 30
0.0
 40
0.0066959454823001
 50
284.9583742200002803
 51
353.2548370748845059
  0
LINE
  5
1F98E
  8
0
 10
4652.6094226921250083
 20
477.894282504076898
 30
0.0
 11
4652.6094226921250083
 21
477.8829252277769228
 31
0.0
  0
ARC
  5
1F98F
  8
0
 10
4652.6161999939140514
 20
477.8838222845536166
 30
0.0
 40
0.0068364120999805
 50
187.5399515570524045
 51
254.2468371480950964
  0
LINE
  5
1F990
  8
0
 10
4652.5572573378258312
 20
477.8763823727770159
 30
0.0
 11
4652.5830708210260127
 21
477.86893066197689
 31
0.0
  0
LINE
  5
1F991
  8
0
 10
4652.5885304687253665
 20
477.86893066197689
 30
0.0
 11
4652.6143439520246829
 21
477.8763823727770159
 31
0.0
  0
ARC
  5
1F992
  8
0
 10
4652.5843083141726311
 20
477.8737816221610046
 30
0.0
 40
0.0050063164099097
 50
255.6889220987355884
 51
287.3428937126843721
  0
ARC
  5
1F993
  8
0
 10
4652.5872931535168391
 20
477.8737883480840765
 30
0.0
 40
0.0050127899657327
 50
252.6780799925705026
 51
284.290104307074273
  0
LINE
  5
1F994
  8
0
 10
4652.5907219047257968
 20
477.9190017331559943
 30
0.0
 11
4652.5907219047257968
 21
477.9076444567770068
 31
0.0
  0
LINE
  5
1F995
  8
0
 10
4652.614343951925548
 20
477.9266811043768826
 30
0.0
 11
4652.614343951925548
 21
477.8937221323769222
 31
0.0
  0
ARC
  5
1F996
  8
0
 10
4652.5840723060582604
 20
477.9084309194068965
 30
0.0
 40
0.0066959454823001
 50
284.9583742200002803
 51
353.2548370748845059
  0
LINE
  5
1F997
  8
0
 10
4652.6379659992244342
 20
477.9190017330769251
 30
0.0
 11
4652.6379659992244342
 21
477.9076444567770068
 31
0.0
  0
ARC
  5
1F998
  8
0
 10
4652.6447433010143868
 20
477.9085415135534731
 30
0.0
 40
0.0068364120999805
 50
187.5399515570524045
 51
254.2468371480950964
  0
LINE
  5
1F999
  8
0
 10
4652.5858006449252571
 20
477.9011016017768725
 30
0.0
 11
4652.6116141281254386
 21
477.8936498909769739
 31
0.0
  0
LINE
  5
1F99A
  8
0
 10
4652.6170737758247924
 20
477.8936498909769739
 30
0.0
 11
4652.6428872591250183
 21
477.9011016017768725
 31
0.0
  0
ARC
  5
1F99B
  8
0
 10
4652.6128516212720569
 20
477.8985008511609749
 30
0.0
 40
0.0050063164099097
 50
255.6889220987355884
 51
287.3428937126843721
  0
ARC
  5
1F99C
  8
0
 10
4652.6158364606180839
 20
477.8985075770841036
 30
0.0
 40
0.0050127899657327
 50
252.6780799925705026
 51
284.290104307074273
  0
LINE
  5
1F99D
  8
0
 10
4652.5621785976263709
 20
477.943720962256009
 30
0.0
 11
4652.5621785976263709
 21
477.9323636858769078
 31
0.0
  0
LINE
  5
1F99E
  8
0
 10
4652.5858006448252127
 20
477.9514003334768972
 30
0.0
 11
4652.5858006448252127
 21
477.91844136147688
 31
0.0
  0
ARC
  5
1F99F
  8
0
 10
4652.5555289989579251
 20
477.9331501485069111
 30
0.0
 40
0.0066959454823001
 50
284.9583742200002803
 51
353.2548370748845059
  0
LINE
  5
1F9A0
  8
0
 10
4652.6094226921250083
 20
477.9437209621768829
 30
0.0
 11
4652.6094226921250083
 21
477.9323636858769078
 31
0.0
  0
ARC
  5
1F9A1
  8
0
 10
4652.6161999939140514
 20
477.9332607426534878
 30
0.0
 40
0.0068364120999805
 50
187.5399515570524045
 51
254.2468371480950964
  0
LINE
  5
1F9A2
  8
0
 10
4652.5572573378258312
 20
477.9258208308768872
 30
0.0
 11
4652.5830708210260127
 21
477.9183691200768749
 31
0.0
  0
LINE
  5
1F9A3
  8
0
 10
4652.5885304687253665
 20
477.9183691200768749
 30
0.0
 11
4652.6143439520246829
 21
477.9258208308768872
 31
0.0
  0
ARC
  5
1F9A4
  8
0
 10
4652.5843083141726311
 20
477.9232200802609896
 30
0.0
 40
0.0050063164099097
 50
255.6889220987355884
 51
287.3428937126843721
  0
ARC
  5
1F9A5
  8
0
 10
4652.5872931535168391
 20
477.9232268061841182
 30
0.0
 40
0.0050127899657327
 50
252.6780799925705026
 51
284.290104307074273
  0
LINE
  5
1F9A6
  8
0
 10
4652.5907219047257968
 20
477.9684401912559792
 30
0.0
 11
4652.5907219047257968
 21
477.957082914876878
 31
0.0
  0
LINE
  5
1F9A7
  8
0
 10
4652.614343951925548
 20
477.9761195624769243
 30
0.0
 11
4652.614343951925548
 21
477.9431605904769071
 31
0.0
  0
ARC
  5
1F9A8
  8
0
 10
4652.5840723060582604
 20
477.9578693775069951
 30
0.0
 40
0.0066959454823001
 50
284.9583742200002803
 51
353.2548370748845059
  0
LINE
  5
1F9A9
  8
0
 10
4652.6379659992244342
 20
477.9684401911770237
 30
0.0
 11
4652.6379659992244342
 21
477.957082914876878
 31
0.0
  0
ARC
  5
1F9AA
  8
0
 10
4652.6447433010143868
 20
477.9579799716535149
 30
0.0
 40
0.0068364120999805
 50
187.5399515570524045
 51
254.2468371480950964
  0
LINE
  5
1F9AB
  8
0
 10
4652.5858006449252571
 20
477.9505400598769143
 30
0.0
 11
4652.6116141281254386
 21
477.943088349076902
 31
0.0
  0
LINE
  5
1F9AC
  8
0
 10
4652.6170737758247924
 20
477.943088349076902
 30
0.0
 11
4652.6428872591250183
 21
477.9505400598769143
 31
0.0
  0
ARC
  5
1F9AD
  8
0
 10
4652.6128516212720569
 20
477.9479393092610735
 30
0.0
 40
0.0050063164099097
 50
255.6889220987355884
 51
287.3428937126843721
  0
ARC
  5
1F9AE
  8
0
 10
4652.6158364606180839
 20
477.9479460351840885
 30
0.0
 40
0.0050127899657327
 50
252.6780799925705026
 51
284.290104307074273
  0
LINE
  5
1F9AF
  8
0
 10
4652.6192652118252227
 20
477.943720962256009
 30
0.0
 11
4652.6192652118252227
 21
477.9323636858769078
 31
0.0
  0
LINE
  5
1F9B0
  8
0
 10
4652.6428872590258834
 20
477.9514003334768972
 30
0.0
 11
4652.6428872590258834
 21
477.91844136147688
 31
0.0
  0
ARC
  5
1F9B1
  8
0
 10
4652.6126156131585958
 20
477.9331501485069111
 30
0.0
 40
0.0066959454823001
 50
284.9583742200002803
 51
353.2548370748845059
  0
LINE
  5
1F9B2
  8
0
 10
4652.6665093063247696
 20
477.9437209621768829
 30
0.0
 11
4652.6665093063247696
 21
477.9323636858769078
 31
0.0
  0
ARC
  5
1F9B3
  8
0
 10
4652.6732866081147222
 20
477.9332607426534878
 30
0.0
 40
0.0068364120999805
 50
187.5399515570524045
 51
254.2468371480950964
  0
LINE
  5
1F9B4
  8
0
 10
4652.6143439520246829
 20
477.9258208308768872
 30
0.0
 11
4652.6401574352248645
 21
477.9183691200768749
 31
0.0
  0
LINE
  5
1F9B5
  8
0
 10
4652.6456170829260373
 20
477.9183691200768749
 30
0.0
 11
4652.6714305662253537
 21
477.9258208308768872
 31
0.0
  0
ARC
  5
1F9B6
  8
0
 10
4652.6413949283723923
 20
477.9232200802609896
 30
0.0
 40
0.0050063164099097
 50
255.6889220987355884
 51
287.3428937126843721
  0
ARC
  5
1F9B7
  8
0
 10
4652.6443797677166003
 20
477.9232268061841182
 30
0.0
 40
0.0050127899657327
 50
252.6780799925705026
 51
284.290104307074273
  0
LINE
  5
1F9B8
  8
0
 10
4652.5907219047257968
 20
477.9684401912559792
 30
0.0
 11
4652.5907219047257968
 21
477.957082914876878
 31
0.0
  0
LINE
  5
1F9B9
  8
0
 10
4652.614343951925548
 20
477.9761195624769243
 30
0.0
 11
4652.614343951925548
 21
477.9431605904769071
 31
0.0
  0
ARC
  5
1F9BA
  8
0
 10
4652.5840723060582604
 20
477.9578693775069951
 30
0.0
 40
0.0066959454823001
 50
284.9583742200002803
 51
353.2548370748845059
  0
LINE
  5
1F9BB
  8
0
 10
4652.6379659992244342
 20
477.9684401911770237
 30
0.0
 11
4652.6379659992244342
 21
477.957082914876878
 31
0.0
  0
ARC
  5
1F9BC
  8
0
 10
4652.6447433010143868
 20
477.9579799716535149
 30
0.0
 40
0.0068364120999805
 50
187.5399515570524045
 51
254.2468371480950964
  0
LINE
  5
1F9BD
  8
0
 10
4652.5858006449252571
 20
477.9505400598769143
 30
0.0
 11
4652.6116141281254386
 21
477.943088349076902
 31
0.0
  0
LINE
  5
1F9BE
  8
0
 10
4652.6170737758247924
 20
477.943088349076902
 30
0.0
 11
4652.6428872591250183
 21
477.9505400598769143
 31
0.0
  0
ARC
  5
1F9BF
  8
0
 10
4652.6128516212720569
 20
477.9479393092610735
 30
0.0
 40
0.0050063164099097
 50
255.6889220987355884
 51
287.3428937126843721
  0
ARC
  5
1F9C0
  8
0
 10
4652.6158364606180839
 20
477.9479460351840885
 30
0.0
 40
0.0050127899657327
 50
252.6780799925705026
 51
284.290104307074273
  0
LINE
  5
1F9C1
  8
0
 10
4652.6192652118252227
 20
477.9931594202560063
 30
0.0
 11
4652.6192652118252227
 21
477.9818021438769051
 31
0.0
  0
LINE
  5
1F9C2
  8
0
 10
4652.6428872590258834
 20
478.0008387914768946
 30
0.0
 11
4652.6428872590258834
 21
477.9678798194768774
 31
0.0
  0
ARC
  5
1F9C3
  8
0
 10
4652.6126156131585958
 20
477.9825886065069085
 30
0.0
 40
0.0066959454823001
 50
284.9583742200002803
 51
353.2548370748845059
  0
LINE
  5
1F9C4
  8
0
 10
4652.6665093063247696
 20
477.9931594201768803
 30
0.0
 11
4652.6665093063247696
 21
477.9818021438769051
 31
0.0
  0
ARC
  5
1F9C5
  8
0
 10
4652.6732866081147222
 20
477.9826992006535988
 30
0.0
 40
0.0068364120999805
 50
187.5399515570524045
 51
254.2468371480950964
  0
LINE
  5
1F9C6
  8
0
 10
4652.6143439520246829
 20
477.9752592888768845
 30
0.0
 11
4652.6401574352248645
 21
477.9678075780768722
 31
0.0
  0
LINE
  5
1F9C7
  8
0
 10
4652.6456170829260373
 20
477.9678075780768722
 30
0.0
 11
4652.6714305662253537
 21
477.9752592888768845
 31
0.0
  0
ARC
  5
1F9C8
  8
0
 10
4652.6413949283723923
 20
477.9726585382609869
 30
0.0
 40
0.0050063164099097
 50
255.6889220987355884
 51
287.3428937126843721
  0
ARC
  5
1F9C9
  8
0
 10
4652.6443797677166003
 20
477.9726652641841156
 30
0.0
 40
0.0050127899657327
 50
252.6780799925705026
 51
284.290104307074273
  0
LINE
  5
1F9CA
  8
0
 10
4652.6478085189246485
 20
478.0178786493560779
 30
0.0
 11
4652.6478085189246485
 21
478.0065213729769198
 31
0.0
  0
LINE
  5
1F9CB
  8
0
 10
4652.6714305661253093
 20
478.0255580205770229
 30
0.0
 11
4652.6714305661253093
 21
477.9925990485768921
 31
0.0
  0
ARC
  5
1F9CC
  8
0
 10
4652.6411589202589312
 20
478.0073078356069232
 30
0.0
 40
0.0066959454823001
 50
284.9583742200002803
 51
353.2548370748845059
  0
LINE
  5
1F9CD
  8
0
 10
4652.6950526134260144
 20
478.017878649276895
 30
0.0
 11
4652.6950526134260144
 21
478.0065213729769198
 31
0.0
  0
ARC
  5
1F9CE
  8
0
 10
4652.7018299152150576
 20
478.0074184297536135
 30
0.0
 40
0.0068364120999805
 50
187.5399515570524045
 51
254.2468371480950964
  0
LINE
  5
1F9CF
  8
0
 10
4652.6428872591250183
 20
477.9999785179768992
 30
0.0
 11
4652.6687007423251998
 21
477.9925268071768869
 31
0.0
  0
LINE
  5
1F9D0
  8
0
 10
4652.6741603900245536
 20
477.9925268071768869
 30
0.0
 11
4652.6999738733256891
 21
477.9999785179768992
 31
0.0
  0
ARC
  5
1F9D1
  8
0
 10
4652.6699382354718182
 20
477.9973777673610016
 30
0.0
 40
0.0050063164099097
 50
255.6889220987355884
 51
287.3428937126843721
  0
ARC
  5
1F9D2
  8
0
 10
4652.6729230748160262
 20
477.9973844932840734
 30
0.0
 40
0.0050127899657327
 50
252.6780799925705026
 51
284.290104307074273
  0
LINE
  5
1F9D3
  8
0
 10
4652.6192652118252227
 20
478.042597878356105
 30
0.0
 11
4652.6192652118252227
 21
478.03124060197689
 31
0.0
  0
LINE
  5
1F9D4
  8
0
 10
4652.6428872590258834
 20
478.0502772495768795
 30
0.0
 11
4652.6428872590258834
 21
478.0173182775769192
 31
0.0
  0
ARC
  5
1F9D5
  8
0
 10
4652.6126156131585958
 20
478.0320270646068934
 30
0.0
 40
0.0066959454823001
 50
284.9583742200002803
 51
353.2548370748845059
  0
LINE
  5
1F9D6
  8
0
 10
4652.6665093063247696
 20
478.0425978782769221
 30
0.0
 11
4652.6665093063247696
 21
478.03124060197689
 31
0.0
  0
ARC
  5
1F9D7
  8
0
 10
4652.6732866081147222
 20
478.0321376587535838
 30
0.0
 40
0.0068364120999805
 50
187.5399515570524045
 51
254.2468371480950964
  0
LINE
  5
1F9D8
  8
0
 10
4652.6143439520246829
 20
478.0246977469769263
 30
0.0
 11
4652.6401574352248645
 21
478.017246036176914
 31
0.0
  0
LINE
  5
1F9D9
  8
0
 10
4652.6456170829260373
 20
478.017246036176914
 30
0.0
 11
4652.6714305662253537
 21
478.0246977469769263
 31
0.0
  0
ARC
  5
1F9DA
  8
0
 10
4652.6413949283723923
 20
478.0220969963609718
 30
0.0
 40
0.0050063164099097
 50
255.6889220987355884
 51
287.3428937126843721
  0
ARC
  5
1F9DB
  8
0
 10
4652.6443797677166003
 20
478.0221037222841005
 30
0.0
 40
0.0050127899657327
 50
252.6780799925705026
 51
284.290104307074273
  0
LINE
  5
1F9DC
  8
0
 10
4652.5621785976263709
 20
478.042597878356105
 30
0.0
 11
4652.5621785976263709
 21
478.03124060197689
 31
0.0
  0
LINE
  5
1F9DD
  8
0
 10
4652.5858006448252127
 20
478.0502772495768795
 30
0.0
 11
4652.5858006448252127
 21
478.0173182775769192
 31
0.0
  0
ARC
  5
1F9DE
  8
0
 10
4652.5555289989579251
 20
478.0320270646068934
 30
0.0
 40
0.0066959454823001
 50
284.9583742200002803
 51
353.2548370748845059
  0
LINE
  5
1F9DF
  8
0
 10
4652.6094226921250083
 20
478.0425978782769221
 30
0.0
 11
4652.6094226921250083
 21
478.03124060197689
 31
0.0
  0
ARC
  5
1F9E0
  8
0
 10
4652.6161999939140514
 20
478.0321376587535838
 30
0.0
 40
0.0068364120999805
 50
187.5399515570524045
 51
254.2468371480950964
  0
LINE
  5
1F9E1
  8
0
 10
4652.5572573378258312
 20
478.0246977469769263
 30
0.0
 11
4652.5830708210260127
 21
478.017246036176914
 31
0.0
  0
LINE
  5
1F9E2
  8
0
 10
4652.5885304687253665
 20
478.017246036176914
 30
0.0
 11
4652.6143439520246829
 21
478.0246977469769263
 31
0.0
  0
ARC
  5
1F9E3
  8
0
 10
4652.5843083141726311
 20
478.0220969963609718
 30
0.0
 40
0.0050063164099097
 50
255.6889220987355884
 51
287.3428937126843721
  0
ARC
  5
1F9E4
  8
0
 10
4652.5872931535168391
 20
478.0221037222841005
 30
0.0
 40
0.0050127899657327
 50
252.6780799925705026
 51
284.290104307074273
  0
LINE
  5
1F9E5
  8
0
 10
4652.5050919835257446
 20
478.042597878356105
 30
0.0
 11
4652.5050919835257446
 21
478.03124060197689
 31
0.0
  0
LINE
  5
1F9E6
  8
0
 10
4652.5287140307245863
 20
478.0502772495768795
 30
0.0
 11
4652.5287140307245863
 21
478.0173182775769192
 31
0.0
  0
ARC
  5
1F9E7
  8
0
 10
4652.4984423848582082
 20
478.0320270646068934
 30
0.0
 40
0.0066959454823001
 50
284.9583742200002803
 51
353.2548370748845059
  0
LINE
  5
1F9E8
  8
0
 10
4652.5523360780252915
 20
478.0425978782769221
 30
0.0
 11
4652.5523360780252915
 21
478.03124060197689
 31
0.0
  0
ARC
  5
1F9E9
  8
0
 10
4652.5591133798143346
 20
478.0321376587535838
 30
0.0
 40
0.0068364120999805
 50
187.5399515570524045
 51
254.2468371480950964
  0
LINE
  5
1F9EA
  8
0
 10
4652.5001707237252049
 20
478.0246977469769263
 30
0.0
 11
4652.5259842069253864
 21
478.017246036176914
 31
0.0
  0
LINE
  5
1F9EB
  8
0
 10
4652.5314438546256497
 20
478.017246036176914
 30
0.0
 11
4652.5572573379249661
 21
478.0246977469769263
 31
0.0
  0
ARC
  5
1F9EC
  8
0
 10
4652.5272217000710953
 20
478.0220969963609718
 30
0.0
 40
0.0050063164099097
 50
255.6889220987355884
 51
287.3428937126843721
  0
ARC
  5
1F9ED
  8
0
 10
4652.5302065394171223
 20
478.0221037222841005
 30
0.0
 40
0.0050127899657327
 50
252.6780799925705026
 51
284.290104307074273
  0
LINE
  5
1F9EE
  8
0
 10
4652.4765486764254092
 20
478.0178786493560779
 30
0.0
 11
4652.4765486764254092
 21
478.0065213729769198
 31
0.0
  0
LINE
  5
1F9EF
  8
0
 10
4652.5001707236251605
 20
478.0255580205770229
 30
0.0
 11
4652.5001707236251605
 21
477.9925990485768921
 31
0.0
  0
ARC
  5
1F9F0
  8
0
 10
4652.4698990777578729
 20
478.0073078356069232
 30
0.0
 40
0.0066959454823001
 50
284.9583742200002803
 51
353.2548370748845059
  0
LINE
  5
1F9F1
  8
0
 10
4652.5237927709258656
 20
478.017878649276895
 30
0.0
 11
4652.5237927709258656
 21
478.0065213729769198
 31
0.0
  0
ARC
  5
1F9F2
  8
0
 10
4652.5305700727149087
 20
478.0074184297536135
 30
0.0
 40
0.0068364120999805
 50
187.5399515570524045
 51
254.2468371480950964
  0
LINE
  5
1F9F3
  8
0
 10
4652.471627416625779
 20
477.9999785179768992
 30
0.0
 11
4652.4974408998259605
 21
477.9925268071768869
 31
0.0
  0
LINE
  5
1F9F4
  8
0
 10
4652.5029005475253143
 20
477.9925268071768869
 30
0.0
 11
4652.5287140308246308
 21
477.9999785179768992
 31
0.0
  0
ARC
  5
1F9F5
  8
0
 10
4652.4986783929716694
 20
477.9973777673610016
 30
0.0
 40
0.0050063164099097
 50
255.6889220987355884
 51
287.3428937126843721
  0
ARC
  5
1F9F6
  8
0
 10
4652.5016632323167869
 20
477.9973844932840734
 30
0.0
 40
0.0050127899657327
 50
252.6780799925705026
 51
284.290104307074273
  0
LINE
  5
1F9F7
  8
0
 10
4652.4716274165257346
 20
478.0008387914768946
 30
0.0
 11
4652.4716274165257346
 21
477.9678798194768774
 31
0.0
  0
LINE
  5
1F9F8
  8
0
 10
4652.4952494638246208
 20
477.9931594201768803
 30
0.0
 11
4652.4952494638246208
 21
477.9818021438769051
 31
0.0
  0
ARC
  5
1F9F9
  8
0
 10
4652.5020267656136639
 20
477.9826992006535988
 30
0.0
 40
0.0068364120999805
 50
187.5399515570524045
 51
254.2468371480950964
  0
LINE
  5
1F9FA
  8
0
 10
4652.4419295803681962
 20
477.975592572739572
 30
0.0
 11
4652.4688975927247157
 21
477.9678075780768722
 31
0.0
  0
LINE
  5
1F9FB
  8
0
 10
4652.4743572404258884
 20
477.9678075780768722
 30
0.0
 11
4652.5001707237252049
 21
477.9752592888768845
 31
0.0
  0
ARC
  5
1F9FC
  8
0
 10
4652.4701350858722435
 20
477.9726585382609869
 30
0.0
 40
0.0050063164099097
 50
255.6889220987355884
 51
287.3428937126843721
  0
ARC
  5
1F9FD
  8
0
 10
4652.473119925217361
 20
477.9726652641841156
 30
0.0
 40
0.0050127899657327
 50
252.6780799925705026
 51
284.290104307074273
  0
LINE
  5
1F9FE
  8
0
 10
4652.5336352905260355
 20
478.0673171074560059
 30
0.0
 11
4652.5336352905260355
 21
478.0559598310770184
 31
0.0
  0
LINE
  5
1F9FF
  8
0
 10
4652.5572573377257868
 20
478.0749964786768942
 30
0.0
 11
4652.5572573377257868
 21
478.042037506676877
 31
0.0
  0
ARC
  5
1FA00
  8
0
 10
4652.5269856918575897
 20
478.0567462937069081
 30
0.0
 40
0.0066959454823001
 50
284.9583742200002803
 51
353.2548370748845059
  0
LINE
  5
1FA01
  8
0
 10
4652.5808793850255825
 20
478.0673171073768799
 30
0.0
 11
4652.5808793850255825
 21
478.0559598310770184
 31
0.0
  0
ARC
  5
1FA02
  8
0
 10
4652.5876566868137161
 20
478.0568568878534847
 30
0.0
 40
0.0068364120999805
 50
187.5399515570524045
 51
254.2468371480950964
  0
LINE
  5
1FA03
  8
0
 10
4652.5287140307245863
 20
478.0494169760768841
 30
0.0
 11
4652.5545275139256773
 21
478.0419652652768718
 31
0.0
  0
LINE
  5
1FA04
  8
0
 10
4652.5599871616259406
 20
478.0419652652768718
 30
0.0
 11
4652.5858006449252571
 21
478.0494169760768841
 31
0.0
  0
ARC
  5
1FA05
  8
0
 10
4652.5557650070722957
 20
478.0468162254609865
 30
0.0
 40
0.0050063164099097
 50
255.6889220987355884
 51
287.3428937126843721
  0
ARC
  5
1FA06
  8
0
 10
4652.5587498464174132
 20
478.0468229513841152
 30
0.0
 40
0.0050127899657327
 50
252.6780799925705026
 51
284.290104307074273
  0
LINE
  5
1FA07
  8
0
 10
4652.5907219047257968
 20
478.0673171074560059
 30
0.0
 11
4652.5907219047257968
 21
478.0559598310770184
 31
0.0
  0
LINE
  5
1FA08
  8
0
 10
4652.614343951925548
 20
478.0749964786768942
 30
0.0
 11
4652.614343951925548
 21
478.042037506676877
 31
0.0
  0
ARC
  5
1FA09
  8
0
 10
4652.5840723060582604
 20
478.0567462937069081
 30
0.0
 40
0.0066959454823001
 50
284.9583742200002803
 51
353.2548370748845059
  0
LINE
  5
1FA0A
  8
0
 10
4652.6379659992244342
 20
478.0673171073768799
 30
0.0
 11
4652.6379659992244342
 21
478.0559598310770184
 31
0.0
  0
ARC
  5
1FA0B
  8
0
 10
4652.6447433010143868
 20
478.0568568878534847
 30
0.0
 40
0.0068364120999805
 50
187.5399515570524045
 51
254.2468371480950964
  0
LINE
  5
1FA0C
  8
0
 10
4652.5858006449252571
 20
478.0494169760768841
 30
0.0
 11
4652.6116141281254386
 21
478.0419652652768718
 31
0.0
  0
LINE
  5
1FA0D
  8
0
 10
4652.6170737758247924
 20
478.0419652652768718
 30
0.0
 11
4652.6428872591250183
 21
478.0494169760768841
 31
0.0
  0
ARC
  5
1FA0E
  8
0
 10
4652.6128516212720569
 20
478.0468162254609865
 30
0.0
 40
0.0050063164099097
 50
255.6889220987355884
 51
287.3428937126843721
  0
ARC
  5
1FA0F
  8
0
 10
4652.6158364606180839
 20
478.0468229513841152
 30
0.0
 40
0.0050127899657327
 50
252.6780799925705026
 51
284.290104307074273
  0
LINE
  5
1FA10
  8
0
 10
4652.5621785976263709
 20
478.0881280423997737
 30
0.0
 11
4652.5621785976263709
 21
478.080679060076875
 31
0.0
  0
LINE
  5
1FA11
  8
0
 10
4652.5858006448252127
 20
478.0967368988804083
 30
0.0
 11
4652.5858006448252127
 21
478.0667567356769041
 31
0.0
  0
ARC
  5
1FA12
  8
0
 10
4652.5555289989579251
 20
478.081465522706992
 30
0.0
 40
0.0066959454823001
 50
284.9583742200002803
 51
353.2548370748845059
  0
LINE
  5
1FA13
  8
0
 10
4652.6094226921250083
 20
478.092036336376907
 30
0.0
 11
4652.6094226921250083
 21
478.080679060076875
 31
0.0
  0
ARC
  5
1FA14
  8
0
 10
4652.6161999939140514
 20
478.0815761168535118
 30
0.0
 40
0.0068364120999805
 50
187.5399515570524045
 51
254.2468371480950964
  0
LINE
  5
1FA15
  8
0
 10
4652.5572573378258312
 20
478.0741362050769112
 30
0.0
 11
4652.5830708210260127
 21
478.0666844942770126
 31
0.0
  0
LINE
  5
1FA16
  8
0
 10
4652.5885304687253665
 20
478.0666844942770126
 30
0.0
 11
4652.6143439520246829
 21
478.0741362050769112
 31
0.0
  0
ARC
  5
1FA17
  8
0
 10
4652.5843083141726311
 20
478.0715354544610136
 30
0.0
 40
0.0050063164099097
 50
255.6889220987355884
 51
287.3428937126843721
  0
ARC
  5
1FA18
  8
0
 10
4652.5872931535168391
 20
478.0715421803840854
 30
0.0
 40
0.0050127899657327
 50
252.6780799925705026
 51
284.290104307074273
  0
LINE
  5
1FA19
  8
0
 10
4652.6192652118252227
 20
478.0920363364559762
 30
0.0
 11
4652.6192652118252227
 21
478.080679060076875
 31
0.0
  0
LINE
  5
1FA1A
  8
0
 10
4652.6428872590258834
 20
478.0997157076769213
 30
0.0
 11
4652.6428872590258834
 21
478.0667567356769041
 31
0.0
  0
ARC
  5
1FA1B
  8
0
 10
4652.6126156131585958
 20
478.081465522706992
 30
0.0
 40
0.0066959454823001
 50
284.9583742200002803
 51
353.2548370748845059
  0
LINE
  5
1FA1C
  8
0
 10
4652.6665093063247696
 20
478.092036336376907
 30
0.0
 11
4652.6665093063247696
 21
478.080679060076875
 31
0.0
  0
ARC
  5
1FA1D
  8
0
 10
4652.6732866081147222
 20
478.0815761168535118
 30
0.0
 40
0.0068364120999805
 50
187.5399515570524045
 51
254.2468371480950964
  0
LINE
  5
1FA1E
  8
0
 10
4652.6143439520246829
 20
478.0741362050769112
 30
0.0
 11
4652.6401574352248645
 21
478.0666844942770126
 31
0.0
  0
LINE
  5
1FA1F
  8
0
 10
4652.6456170829260373
 20
478.0666844942770126
 30
0.0
 11
4652.6714305662253537
 21
478.0741362050769112
 31
0.0
  0
ARC
  5
1FA20
  8
0
 10
4652.6413949283723923
 20
478.0715354544610136
 30
0.0
 40
0.0050063164099097
 50
255.6889220987355884
 51
287.3428937126843721
  0
ARC
  5
1FA21
  8
0
 10
4652.6443797677166003
 20
478.0715421803840854
 30
0.0
 40
0.0050127899657327
 50
252.6780799925705026
 51
284.290104307074273
  0
LINE
  5
1FA22
  8
0
 10
4652.6763518260258934
 20
478.0920363364559762
 30
0.0
 11
4652.6763518260258934
 21
478.080679060076875
 31
0.0
  0
LINE
  5
1FA23
  8
0
 10
4652.6999738732247351
 20
478.0997157076769213
 30
0.0
 11
4652.6999738732247351
 21
478.0667567356769041
 31
0.0
  0
ARC
  5
1FA24
  8
0
 10
4652.6697022273592665
 20
478.081465522706992
 30
0.0
 40
0.0066959454823001
 50
284.9583742200002803
 51
353.2548370748845059
  0
LINE
  5
1FA25
  8
0
 10
4652.7235959205263498
 20
478.092036336376907
 30
0.0
 11
4652.7235959205263498
 21
478.080679060076875
 31
0.0
  0
ARC
  5
1FA26
  8
0
 10
4652.7303732223135739
 20
478.0815761168535118
 30
0.0
 40
0.0068364120999805
 50
187.5399515570524045
 51
254.2468371480950964
  0
LINE
  5
1FA27
  8
0
 10
4652.6714305662253537
 20
478.0741362050769112
 30
0.0
 11
4652.6972440494246257
 21
478.0666844942770126
 31
0.0
  0
LINE
  5
1FA28
  8
0
 10
4652.7027036971257985
 20
478.0666844942770126
 30
0.0
 11
4652.7285171804260244
 21
478.0741362050769112
 31
0.0
  0
ARC
  5
1FA29
  8
0
 10
4652.6984815425721536
 20
478.0715354544610136
 30
0.0
 40
0.0050063164099097
 50
255.6889220987355884
 51
287.3428937126843721
  0
ARC
  5
1FA2A
  8
0
 10
4652.7014663819172711
 20
478.0715421803840854
 30
0.0
 40
0.0050127899657327
 50
252.6780799925705026
 51
284.290104307074273
  0
LINE
  5
1FA2B
  8
0
 10
4652.6478085189246485
 20
478.0673171074560059
 30
0.0
 11
4652.6478085189246485
 21
478.0559598310770184
 31
0.0
  0
LINE
  5
1FA2C
  8
0
 10
4652.6714305661253093
 20
478.0749964786768942
 30
0.0
 11
4652.6714305661253093
 21
478.042037506676877
 31
0.0
  0
ARC
  5
1FA2D
  8
0
 10
4652.6411589202589312
 20
478.0567462937069081
 30
0.0
 40
0.0066959454823001
 50
284.9583742200002803
 51
353.2548370748845059
  0
LINE
  5
1FA2E
  8
0
 10
4652.6950526134260144
 20
478.0673171073768799
 30
0.0
 11
4652.6950526134260144
 21
478.0559598310770184
 31
0.0
  0
ARC
  5
1FA2F
  8
0
 10
4652.7018299152150576
 20
478.0568568878534847
 30
0.0
 40
0.0068364120999805
 50
187.5399515570524045
 51
254.2468371480950964
  0
LINE
  5
1FA30
  8
0
 10
4652.6428872591250183
 20
478.0494169760768841
 30
0.0
 11
4652.6687007423251998
 21
478.0419652652768718
 31
0.0
  0
LINE
  5
1FA31
  8
0
 10
4652.6741603900245536
 20
478.0419652652768718
 30
0.0
 11
4652.6999738733256891
 21
478.0494169760768841
 31
0.0
  0
ARC
  5
1FA32
  8
0
 10
4652.6699382354718182
 20
478.0468162254609865
 30
0.0
 40
0.0050063164099097
 50
255.6889220987355884
 51
287.3428937126843721
  0
ARC
  5
1FA33
  8
0
 10
4652.6729230748160262
 20
478.0468229513841152
 30
0.0
 40
0.0050127899657327
 50
252.6780799925705026
 51
284.290104307074273
  0
LINE
  5
1FA34
  8
0
 10
4652.6763518260258934
 20
478.042597878356105
 30
0.0
 11
4652.6763518260258934
 21
478.03124060197689
 31
0.0
  0
LINE
  5
1FA35
  8
0
 10
4652.6999738732247351
 20
478.0502772495768795
 30
0.0
 11
4652.6999738732247351
 21
478.0173182775769192
 31
0.0
  0
ARC
  5
1FA36
  8
0
 10
4652.6697022273592665
 20
478.0320270646068934
 30
0.0
 40
0.0066959454823001
 50
284.9583742200002803
 51
353.2548370748845059
  0
LINE
  5
1FA37
  8
0
 10
4652.7235959205263498
 20
478.0425978782769221
 30
0.0
 11
4652.7235959205263498
 21
478.03124060197689
 31
0.0
  0
ARC
  5
1FA38
  8
0
 10
4652.7303732223135739
 20
478.0321376587535838
 30
0.0
 40
0.0068364120999805
 50
187.5399515570524045
 51
254.2468371480950964
  0
LINE
  5
1FA39
  8
0
 10
4652.6714305662253537
 20
478.0246977469769263
 30
0.0
 11
4652.6972440494246257
 21
478.017246036176914
 31
0.0
  0
LINE
  5
1FA3A
  8
0
 10
4652.7027036971257985
 20
478.017246036176914
 30
0.0
 11
4652.7285171804260244
 21
478.0246977469769263
 31
0.0
  0
ARC
  5
1FA3B
  8
0
 10
4652.6984815425721536
 20
478.0220969963609718
 30
0.0
 40
0.0050063164099097
 50
255.6889220987355884
 51
287.3428937126843721
  0
ARC
  5
1FA3C
  8
0
 10
4652.7014663819172711
 20
478.0221037222841005
 30
0.0
 40
0.0050127899657327
 50
252.6780799925705026
 51
284.290104307074273
  0
LINE
  5
1FA3D
  8
0
 10
4652.7048951331253193
 20
478.0673171074560059
 30
0.0
 11
4652.7048951331253193
 21
478.0559598310770184
 31
0.0
  0
LINE
  5
1FA3E
  8
0
 10
4652.72851718032598
 20
478.0749964786768942
 30
0.0
 11
4652.72851718032598
 21
478.042037506676877
 31
0.0
  0
ARC
  5
1FA3F
  8
0
 10
4652.6982455344577829
 20
478.0567462937069081
 30
0.0
 40
0.0066959454823001
 50
284.9583742200002803
 51
353.2548370748845059
  0
LINE
  5
1FA40
  8
0
 10
4652.7521392276248662
 20
478.0673171073768799
 30
0.0
 11
4652.7521392276248662
 21
478.0559598310770184
 31
0.0
  0
ARC
  5
1FA41
  8
0
 10
4652.7589165294148188
 20
478.0568568878534847
 30
0.0
 40
0.0068364120999805
 50
187.5399515570524045
 51
254.2468371480950964
  0
LINE
  5
1FA42
  8
0
 10
4652.6999738733256891
 20
478.0494169760768841
 30
0.0
 11
4652.7257873565249611
 21
478.0419652652768718
 31
0.0
  0
LINE
  5
1FA43
  8
0
 10
4652.7312470042252244
 20
478.0419652652768718
 30
0.0
 11
4652.7570604875263598
 21
478.0494169760768841
 31
0.0
  0
ARC
  5
1FA44
  8
0
 10
4652.7270248496733984
 20
478.0468162254609865
 30
0.0
 40
0.0050063164099097
 50
255.6889220987355884
 51
287.3428937126843721
  0
ARC
  5
1FA45
  8
0
 10
4652.7300096890176064
 20
478.0468229513841152
 30
0.0
 40
0.0050127899657327
 50
252.6780799925705026
 51
284.290104307074273
  0
LINE
  5
1FA46
  8
0
 10
4652.7048951331253193
 20
478.1167555655559909
 30
0.0
 11
4652.7048951331253193
 21
478.1053982891768896
 31
0.0
  0
LINE
  5
1FA47
  8
0
 10
4652.72851718032598
 20
478.1212106299840912
 30
0.0
 11
4652.72851718032598
 21
478.0914759647769188
 31
0.0
  0
ARC
  5
1FA48
  8
0
 10
4652.6982455344577829
 20
478.106184751806893
 30
0.0
 40
0.0066959454823001
 50
284.9583742200002803
 51
353.2548370748845059
  0
LINE
  5
1FA49
  8
0
 10
4652.7521392276248662
 20
478.1167555654769217
 30
0.0
 11
4652.7521392276248662
 21
478.1053982891768896
 31
0.0
  0
ARC
  5
1FA4A
  8
0
 10
4652.7589165294148188
 20
478.1062953459535265
 30
0.0
 40
0.0068364120999805
 50
187.5399515570524045
 51
254.2468371480950964
  0
LINE
  5
1FA4B
  8
0
 10
4652.6999738733256891
 20
478.0988554341769259
 30
0.0
 11
4652.7257873565249611
 21
478.0914037233769136
 31
0.0
  0
LINE
  5
1FA4C
  8
0
 10
4652.7312470042252244
 20
478.0914037233769136
 30
0.0
 11
4652.7570604875263598
 21
478.0988554341769259
 31
0.0
  0
ARC
  5
1FA4D
  8
0
 10
4652.7270248496733984
 20
478.0962546835610283
 30
0.0
 40
0.0050063164099097
 50
255.6889220987355884
 51
287.3428937126843721
  0
ARC
  5
1FA4E
  8
0
 10
4652.7300096890176064
 20
478.0962614094841001
 30
0.0
 40
0.0050127899657327
 50
252.6780799925705026
 51
284.290104307074273
  0
LINE
  5
1FA4F
  8
0
 10
4652.6478085189246485
 20
478.1120741073291924
 30
0.0
 11
4652.6478085189246485
 21
478.1053982891768896
 31
0.0
  0
LINE
  5
1FA50
  8
0
 10
4652.6714305661253093
 20
478.1158727163632989
 30
0.0
 11
4652.6714305661253093
 21
478.0914759647769188
 31
0.0
  0
ARC
  5
1FA51
  8
0
 10
4652.6411589202589312
 20
478.106184751806893
 30
0.0
 40
0.0066959454823001
 50
284.9583742200002803
 51
353.2548370748845059
  0
LINE
  5
1FA52
  8
0
 10
4652.6950526134260144
 20
478.1167555654769217
 30
0.0
 11
4652.6950526134260144
 21
478.1053982891768896
 31
0.0
  0
ARC
  5
1FA53
  8
0
 10
4652.7018299152150576
 20
478.1062953459535265
 30
0.0
 40
0.0068364120999805
 50
187.5399515570524045
 51
254.2468371480950964
  0
LINE
  5
1FA54
  8
0
 10
4652.6428872591250183
 20
478.0988554341769259
 30
0.0
 11
4652.6687007423251998
 21
478.0914037233769136
 31
0.0
  0
LINE
  5
1FA55
  8
0
 10
4652.6741603900245536
 20
478.0914037233769136
 30
0.0
 11
4652.6999738733256891
 21
478.0988554341769259
 31
0.0
  0
ARC
  5
1FA56
  8
0
 10
4652.6699382354718182
 20
478.0962546835610283
 30
0.0
 40
0.0050063164099097
 50
255.6889220987355884
 51
287.3428937126843721
  0
ARC
  5
1FA57
  8
0
 10
4652.6729230748160262
 20
478.0962614094841001
 30
0.0
 40
0.0050127899657327
 50
252.6780799925705026
 51
284.290104307074273
  0
LINE
  5
1FA58
  8
0
 10
4652.614343951925548
 20
478.1050116468817919
 30
0.0
 11
4652.614343951925548
 21
478.0914759647769188
 31
0.0
  0
LINE
  5
1FA59
  8
0
 10
4652.6379659992244342
 20
478.110210861997075
 30
0.0
 11
4652.6379659992244342
 21
478.1053982891768896
 31
0.0
  0
ARC
  5
1FA5A
  8
0
 10
4652.6447433010143868
 20
478.1062953459535265
 30
0.0
 40
0.0068364120999805
 50
187.5399515570524045
 51
254.2468371480950964
  0
LINE
  5
1FA5B
  8
0
 10
4652.5892531796898766
 20
478.0978587732304845
 30
0.0
 11
4652.6116141281254386
 21
478.0914037233769136
 31
0.0
  0
LINE
  5
1FA5C
  8
0
 10
4652.6170737758247924
 20
478.0914037233769136
 30
0.0
 11
4652.6428872591250183
 21
478.0988554341769259
 31
0.0
  0
ARC
  5
1FA5D
  8
0
 10
4652.6128516212720569
 20
478.0962546835610283
 30
0.0
 40
0.0050063164099097
 50
255.6889220987355884
 51
287.3428937126843721
  0
ARC
  5
1FA5E
  8
0
 10
4652.6158364606180839
 20
478.0962614094841001
 30
0.0
 40
0.0050127899657327
 50
252.6780799925705026
 51
284.290104307074273
  0
LINE
  5
1FA5F
  8
0
 10
4652.6763518260258934
 20
477.9931594202560063
 30
0.0
 11
4652.6763518260258934
 21
477.9818021438769051
 31
0.0
  0
LINE
  5
1FA60
  8
0
 10
4652.6999738732247351
 20
478.0008387914768946
 30
0.0
 11
4652.6999738732247351
 21
477.9678798194768774
 31
0.0
  0
ARC
  5
1FA61
  8
0
 10
4652.6697022273592665
 20
477.9825886065069085
 30
0.0
 40
0.0066959454823001
 50
284.9583742200002803
 51
353.2548370748845059
  0
LINE
  5
1FA62
  8
0
 10
4652.7235959205263498
 20
477.9931594201768803
 30
0.0
 11
4652.7235959205263498
 21
477.9818021438769051
 31
0.0
  0
ARC
  5
1FA63
  8
0
 10
4652.7303732223135739
 20
477.9826992006535988
 30
0.0
 40
0.0068364120999805
 50
187.5399515570524045
 51
254.2468371480950964
  0
LINE
  5
1FA64
  8
0
 10
4652.6714305662253537
 20
477.9752592888768845
 30
0.0
 11
4652.6972440494246257
 21
477.9678075780768722
 31
0.0
  0
LINE
  5
1FA65
  8
0
 10
4652.7027036971257985
 20
477.9678075780768722
 30
0.0
 11
4652.7285171804260244
 21
477.9752592888768845
 31
0.0
  0
ARC
  5
1FA66
  8
0
 10
4652.6984815425721536
 20
477.9726585382609869
 30
0.0
 40
0.0050063164099097
 50
255.6889220987355884
 51
287.3428937126843721
  0
ARC
  5
1FA67
  8
0
 10
4652.7014663819172711
 20
477.9726652641841156
 30
0.0
 40
0.0050127899657327
 50
252.6780799925705026
 51
284.290104307074273
  0
LINE
  5
1FA68
  8
0
 10
4652.6478085189246485
 20
477.9684401912559792
 30
0.0
 11
4652.6478085189246485
 21
477.957082914876878
 31
0.0
  0
LINE
  5
1FA69
  8
0
 10
4652.6714305661253093
 20
477.9761195624769243
 30
0.0
 11
4652.6714305661253093
 21
477.9431605904769071
 31
0.0
  0
ARC
  5
1FA6A
  8
0
 10
4652.6411589202589312
 20
477.9578693775069951
 30
0.0
 40
0.0066959454823001
 50
284.9583742200002803
 51
353.2548370748845059
  0
LINE
  5
1FA6B
  8
0
 10
4652.6950526134260144
 20
477.9684401911770237
 30
0.0
 11
4652.6950526134260144
 21
477.957082914876878
 31
0.0
  0
ARC
  5
1FA6C
  8
0
 10
4652.7018299152150576
 20
477.9579799716535149
 30
0.0
 40
0.0068364120999805
 50
187.5399515570524045
 51
254.2468371480950964
  0
LINE
  5
1FA6D
  8
0
 10
4652.6428872591250183
 20
477.9505400598769143
 30
0.0
 11
4652.6687007423251998
 21
477.943088349076902
 31
0.0
  0
LINE
  5
1FA6E
  8
0
 10
4652.6741603900245536
 20
477.943088349076902
 30
0.0
 11
4652.6999738733256891
 21
477.9505400598769143
 31
0.0
  0
ARC
  5
1FA6F
  8
0
 10
4652.6699382354718182
 20
477.9479393092610735
 30
0.0
 40
0.0050063164099097
 50
255.6889220987355884
 51
287.3428937126843721
  0
ARC
  5
1FA70
  8
0
 10
4652.6729230748160262
 20
477.9479460351840885
 30
0.0
 40
0.0050127899657327
 50
252.6780799925705026
 51
284.290104307074273
  0
LINE
  5
1FA71
  8
0
 10
4652.6763518260258934
 20
477.943720962256009
 30
0.0
 11
4652.6763518260258934
 21
477.9323636858769078
 31
0.0
  0
LINE
  5
1FA72
  8
0
 10
4652.6999738732247351
 20
477.9514003334768972
 30
0.0
 11
4652.6999738732247351
 21
477.91844136147688
 31
0.0
  0
ARC
  5
1FA73
  8
0
 10
4652.6697022273592665
 20
477.9331501485069111
 30
0.0
 40
0.0066959454823001
 50
284.9583742200002803
 51
353.2548370748845059
  0
LINE
  5
1FA74
  8
0
 10
4652.7235959205263498
 20
477.9437209621768829
 30
0.0
 11
4652.7235959205263498
 21
477.9323636858769078
 31
0.0
  0
ARC
  5
1FA75
  8
0
 10
4652.7303732223135739
 20
477.9332607426534878
 30
0.0
 40
0.0068364120999805
 50
187.5399515570524045
 51
254.2468371480950964
  0
LINE
  5
1FA76
  8
0
 10
4652.6714305662253537
 20
477.9258208308768872
 30
0.0
 11
4652.6972440494246257
 21
477.9183691200768749
 31
0.0
  0
LINE
  5
1FA77
  8
0
 10
4652.7027036971257985
 20
477.9183691200768749
 30
0.0
 11
4652.7285171804260244
 21
477.9258208308768872
 31
0.0
  0
ARC
  5
1FA78
  8
0
 10
4652.6984815425721536
 20
477.9232200802609896
 30
0.0
 40
0.0050063164099097
 50
255.6889220987355884
 51
287.3428937126843721
  0
ARC
  5
1FA79
  8
0
 10
4652.7014663819172711
 20
477.9232268061841182
 30
0.0
 40
0.0050127899657327
 50
252.6780799925705026
 51
284.290104307074273
  0
LINE
  5
1FA7A
  8
0
 10
4652.6478085189246485
 20
477.9190017331559943
 30
0.0
 11
4652.6478085189246485
 21
477.9076444567770068
 31
0.0
  0
LINE
  5
1FA7B
  8
0
 10
4652.6714305661253093
 20
477.9266811043768826
 30
0.0
 11
4652.6714305661253093
 21
477.8937221323769222
 31
0.0
  0
ARC
  5
1FA7C
  8
0
 10
4652.6411589202589312
 20
477.9084309194068965
 30
0.0
 40
0.0066959454823001
 50
284.9583742200002803
 51
353.2548370748845059
  0
LINE
  5
1FA7D
  8
0
 10
4652.6950526134260144
 20
477.9190017330769251
 30
0.0
 11
4652.6950526134260144
 21
477.9076444567770068
 31
0.0
  0
ARC
  5
1FA7E
  8
0
 10
4652.7018299152150576
 20
477.9085415135534731
 30
0.0
 40
0.0068364120999805
 50
187.5399515570524045
 51
254.2468371480950964
  0
LINE
  5
1FA7F
  8
0
 10
4652.6428872591250183
 20
477.9011016017768725
 30
0.0
 11
4652.6687007423251998
 21
477.8936498909769739
 31
0.0
  0
LINE
  5
1FA80
  8
0
 10
4652.6741603900245536
 20
477.8936498909769739
 30
0.0
 11
4652.6999738733256891
 21
477.9011016017768725
 31
0.0
  0
ARC
  5
1FA81
  8
0
 10
4652.6699382354718182
 20
477.8985008511609749
 30
0.0
 40
0.0050063164099097
 50
255.6889220987355884
 51
287.3428937126843721
  0
ARC
  5
1FA82
  8
0
 10
4652.6729230748160262
 20
477.8985075770841036
 30
0.0
 40
0.0050127899657327
 50
252.6780799925705026
 51
284.290104307074273
  0
LINE
  5
1FA83
  8
0
 10
4652.6192652118252227
 20
477.8942825041560809
 30
0.0
 11
4652.6192652118252227
 21
477.8829252277769228
 31
0.0
  0
LINE
  5
1FA84
  8
0
 10
4652.6428872590258834
 20
477.9019618753769123
 30
0.0
 11
4652.6428872590258834
 21
477.8690029033768951
 31
0.0
  0
ARC
  5
1FA85
  8
0
 10
4652.6126156131585958
 20
477.8837116904069262
 30
0.0
 40
0.0066959454823001
 50
284.9583742200002803
 51
353.2548370748845059
  0
LINE
  5
1FA86
  8
0
 10
4652.6665093063247696
 20
477.894282504076898
 30
0.0
 11
4652.6665093063247696
 21
477.8829252277769228
 31
0.0
  0
ARC
  5
1FA87
  8
0
 10
4652.6732866081147222
 20
477.8838222845536166
 30
0.0
 40
0.0068364120999805
 50
187.5399515570524045
 51
254.2468371480950964
  0
LINE
  5
1FA88
  8
0
 10
4652.6143439520246829
 20
477.8763823727770159
 30
0.0
 11
4652.6401574352248645
 21
477.86893066197689
 31
0.0
  0
LINE
  5
1FA89
  8
0
 10
4652.6456170829260373
 20
477.86893066197689
 30
0.0
 11
4652.6714305662253537
 21
477.8763823727770159
 31
0.0
  0
ARC
  5
1FA8A
  8
0
 10
4652.6413949283723923
 20
477.8737816221610046
 30
0.0
 40
0.0050063164099097
 50
255.6889220987355884
 51
287.3428937126843721
  0
ARC
  5
1FA8B
  8
0
 10
4652.6443797677166003
 20
477.8737883480840765
 30
0.0
 40
0.0050127899657327
 50
252.6780799925705026
 51
284.290104307074273
  0
LINE
  5
1FA8C
  8
0
 10
4652.6478085189246485
 20
477.8695632750561231
 30
0.0
 11
4652.6478085189246485
 21
477.8582059986769082
 31
0.0
  0
LINE
  5
1FA8D
  8
0
 10
4652.6714305661253093
 20
477.8772426462770113
 30
0.0
 11
4652.6714305661253093
 21
477.8442836742768804
 31
0.0
  0
ARC
  5
1FA8E
  8
0
 10
4652.6411589202589312
 20
477.8589924613069115
 30
0.0
 40
0.0066959454823001
 50
284.9583742200002803
 51
353.2548370748845059
  0
LINE
  5
1FA8F
  8
0
 10
4652.6950526134260144
 20
477.8695632749768833
 30
0.0
 11
4652.6950526134260144
 21
477.8582059986769082
 31
0.0
  0
ARC
  5
1FA90
  8
0
 10
4652.7018299152150576
 20
477.8591030554536019
 30
0.0
 40
0.0068364120999805
 50
187.5399515570524045
 51
254.2468371480950964
  0
LINE
  5
1FA91
  8
0
 10
4652.6428872591250183
 20
477.8516631436768876
 30
0.0
 11
4652.6687007423251998
 21
477.8442114328768753
 31
0.0
  0
LINE
  5
1FA92
  8
0
 10
4652.6741603900245536
 20
477.8442114328768753
 30
0.0
 11
4652.6999738733256891
 21
477.8516631436768876
 31
0.0
  0
ARC
  5
1FA93
  8
0
 10
4652.6699382354718182
 20
477.84906239306099
 30
0.0
 40
0.0050063164099097
 50
255.6889220987355884
 51
287.3428937126843721
  0
ARC
  5
1FA94
  8
0
 10
4652.6729230748160262
 20
477.8490691189841186
 30
0.0
 40
0.0050127899657327
 50
252.6780799925705026
 51
284.290104307074273
  0
LINE
  5
1FA95
  8
0
 10
4652.6763518260258934
 20
477.8942825041560809
 30
0.0
 11
4652.6763518260258934
 21
477.8829252277769228
 31
0.0
  0
LINE
  5
1FA96
  8
0
 10
4652.6999738732247351
 20
477.9019618753769123
 30
0.0
 11
4652.6999738732247351
 21
477.8690029033768951
 31
0.0
  0
ARC
  5
1FA97
  8
0
 10
4652.6697022273592665
 20
477.8837116904069262
 30
0.0
 40
0.0066959454823001
 50
284.9583742200002803
 51
353.2548370748845059
  0
LINE
  5
1FA98
  8
0
 10
4652.7235959205263498
 20
477.894282504076898
 30
0.0
 11
4652.7235959205263498
 21
477.8829252277769228
 31
0.0
  0
ARC
  5
1FA99
  8
0
 10
4652.7303732223135739
 20
477.8838222845536166
 30
0.0
 40
0.0068364120999805
 50
187.5399515570524045
 51
254.2468371480950964
  0
LINE
  5
1FA9A
  8
0
 10
4652.6714305662253537
 20
477.8763823727770159
 30
0.0
 11
4652.6972440494246257
 21
477.86893066197689
 31
0.0
  0
LINE
  5
1FA9B
  8
0
 10
4652.7027036971257985
 20
477.86893066197689
 30
0.0
 11
4652.7285171804260244
 21
477.8763823727770159
 31
0.0
  0
ARC
  5
1FA9C
  8
0
 10
4652.6984815425721536
 20
477.8737816221610046
 30
0.0
 40
0.0050063164099097
 50
255.6889220987355884
 51
287.3428937126843721
  0
ARC
  5
1FA9D
  8
0
 10
4652.7014663819172711
 20
477.8737883480840765
 30
0.0
 40
0.0050127899657327
 50
252.6780799925705026
 51
284.290104307074273
  0
LINE
  5
1FA9E
  8
0
 10
4652.7048951331253193
 20
477.8695632750561231
 30
0.0
 11
4652.7048951331253193
 21
477.8582059986769082
 31
0.0
  0
LINE
  5
1FA9F
  8
0
 10
4652.72851718032598
 20
477.8772426462770113
 30
0.0
 11
4652.72851718032598
 21
477.8442836742768804
 31
0.0
  0
ARC
  5
1FAA0
  8
0
 10
4652.6982455344577829
 20
477.8589924613069115
 30
0.0
 40
0.0066959454823001
 50
284.9583742200002803
 51
353.2548370748845059
  0
LINE
  5
1FAA1
  8
0
 10
4652.7521392276248662
 20
477.8695632749768833
 30
0.0
 11
4652.7521392276248662
 21
477.8582059986769082
 31
0.0
  0
ARC
  5
1FAA2
  8
0
 10
4652.7589165294148188
 20
477.8591030554536019
 30
0.0
 40
0.0068364120999805
 50
187.5399515570524045
 51
254.2468371480950964
  0
LINE
  5
1FAA3
  8
0
 10
4652.6999738733256891
 20
477.8516631436768876
 30
0.0
 11
4652.7257873565249611
 21
477.8442114328768753
 31
0.0
  0
LINE
  5
1FAA4
  8
0
 10
4652.7312470042252244
 20
477.8442114328768753
 30
0.0
 11
4652.7570604875263598
 21
477.8516631436768876
 31
0.0
  0
ARC
  5
1FAA5
  8
0
 10
4652.7270248496733984
 20
477.84906239306099
 30
0.0
 40
0.0050063164099097
 50
255.6889220987355884
 51
287.3428937126843721
  0
ARC
  5
1FAA6
  8
0
 10
4652.7300096890176064
 20
477.8490691189841186
 30
0.0
 40
0.0050127899657327
 50
252.6780799925705026
 51
284.290104307074273
  0
LINE
  5
1FAA7
  8
0
 10
4652.7334384401247007
 20
477.8942825041560809
 30
0.0
 11
4652.7334384401247007
 21
477.8829252277769228
 31
0.0
  0
LINE
  5
1FAA8
  8
0
 10
4652.7570604873253615
 20
477.9019618753769123
 30
0.0
 11
4652.7570604873253615
 21
477.8690029033768951
 31
0.0
  0
ARC
  5
1FAA9
  8
0
 10
4652.7267888414580739
 20
477.8837116904069262
 30
0.0
 40
0.0066959454823001
 50
284.9583742200002803
 51
353.2548370748845059
  0
LINE
  5
1FAAA
  8
0
 10
4652.72851718032598
 20
477.8763823727770159
 30
0.0
 11
4652.754330663525252
 21
477.86893066197689
 31
0.0
  0
ARC
  5
1FAAB
  8
0
 10
4652.7555681566727799
 20
477.8737816221610046
 30
0.0
 40
0.0050063164099097
 50
255.6889220987355884
 51
287.3428937126843721
  0
LINE
  5
1FAAC
  8
0
 10
4652.7048951331253193
 20
477.9190017331559943
 30
0.0
 11
4652.7048951331253193
 21
477.9076444567770068
 31
0.0
  0
LINE
  5
1FAAD
  8
0
 10
4652.72851718032598
 20
477.9266811043768826
 30
0.0
 11
4652.72851718032598
 21
477.8937221323769222
 31
0.0
  0
ARC
  5
1FAAE
  8
0
 10
4652.6982455344577829
 20
477.9084309194068965
 30
0.0
 40
0.0066959454823001
 50
284.9583742200002803
 51
353.2548370748845059
  0
LINE
  5
1FAAF
  8
0
 10
4652.7521392276248662
 20
477.9190017330769251
 30
0.0
 11
4652.7521392276248662
 21
477.9076444567770068
 31
0.0
  0
ARC
  5
1FAB0
  8
0
 10
4652.7589165294148188
 20
477.9085415135534731
 30
0.0
 40
0.0068364120999805
 50
187.5399515570524045
 51
254.2468371480950964
  0
LINE
  5
1FAB1
  8
0
 10
4652.6999738733256891
 20
477.9011016017768725
 30
0.0
 11
4652.7257873565249611
 21
477.8936498909769739
 31
0.0
  0
LINE
  5
1FAB2
  8
0
 10
4652.7312470042252244
 20
477.8936498909769739
 30
0.0
 11
4652.7570604875263598
 21
477.9011016017768725
 31
0.0
  0
ARC
  5
1FAB3
  8
0
 10
4652.7270248496733984
 20
477.8985008511609749
 30
0.0
 40
0.0050063164099097
 50
255.6889220987355884
 51
287.3428937126843721
  0
ARC
  5
1FAB4
  8
0
 10
4652.7300096890176064
 20
477.8985075770841036
 30
0.0
 40
0.0050127899657327
 50
252.6780799925705026
 51
284.290104307074273
  0
LINE
  5
1FAB5
  8
0
 10
4652.7334384401247007
 20
477.943720962256009
 30
0.0
 11
4652.7334384401247007
 21
477.9323636858769078
 31
0.0
  0
LINE
  5
1FAB6
  8
0
 10
4652.7570604873253615
 20
477.9514003334768972
 30
0.0
 11
4652.7570604873253615
 21
477.91844136147688
 31
0.0
  0
ARC
  5
1FAB7
  8
0
 10
4652.7267888414580739
 20
477.9331501485069111
 30
0.0
 40
0.0066959454823001
 50
284.9583742200002803
 51
353.2548370748845059
  0
LINE
  5
1FAB8
  8
0
 10
4652.72851718032598
 20
477.9258208308768872
 30
0.0
 11
4652.754330663525252
 21
477.9183691200768749
 31
0.0
  0
ARC
  5
1FAB9
  8
0
 10
4652.7555681566727799
 20
477.9232200802609896
 30
0.0
 40
0.0050063164099097
 50
255.6889220987355884
 51
287.3428937126843721
  0
LINE
  5
1FABA
  8
0
 10
4652.7048951331253193
 20
477.9684401912559792
 30
0.0
 11
4652.7048951331253193
 21
477.957082914876878
 31
0.0
  0
LINE
  5
1FABB
  8
0
 10
4652.72851718032598
 20
477.9761195624769243
 30
0.0
 11
4652.72851718032598
 21
477.9431605904769071
 31
0.0
  0
ARC
  5
1FABC
  8
0
 10
4652.6982455344577829
 20
477.9578693775069951
 30
0.0
 40
0.0066959454823001
 50
284.9583742200002803
 51
353.2548370748845059
  0
LINE
  5
1FABD
  8
0
 10
4652.7521392276248662
 20
477.9684401911770237
 30
0.0
 11
4652.7521392276248662
 21
477.957082914876878
 31
0.0
  0
ARC
  5
1FABE
  8
0
 10
4652.7589165294148188
 20
477.9579799716535149
 30
0.0
 40
0.0068364120999805
 50
187.5399515570524045
 51
254.2468371480950964
  0
LINE
  5
1FABF
  8
0
 10
4652.6999738733256891
 20
477.9505400598769143
 30
0.0
 11
4652.7257873565249611
 21
477.943088349076902
 31
0.0
  0
LINE
  5
1FAC0
  8
0
 10
4652.7312470042252244
 20
477.943088349076902
 30
0.0
 11
4652.7570604875263598
 21
477.9505400598769143
 31
0.0
  0
ARC
  5
1FAC1
  8
0
 10
4652.7270248496733984
 20
477.9479393092610735
 30
0.0
 40
0.0050063164099097
 50
255.6889220987355884
 51
287.3428937126843721
  0
ARC
  5
1FAC2
  8
0
 10
4652.7300096890176064
 20
477.9479460351840885
 30
0.0
 40
0.0050127899657327
 50
252.6780799925705026
 51
284.290104307074273
  0
LINE
  5
1FAC3
  8
0
 10
4652.7048951331253193
 20
478.0178786493560779
 30
0.0
 11
4652.7048951331253193
 21
478.0065213729769198
 31
0.0
  0
LINE
  5
1FAC4
  8
0
 10
4652.72851718032598
 20
478.0255580205770229
 30
0.0
 11
4652.72851718032598
 21
477.9925990485768921
 31
0.0
  0
ARC
  5
1FAC5
  8
0
 10
4652.6982455344577829
 20
478.0073078356069232
 30
0.0
 40
0.0066959454823001
 50
284.9583742200002803
 51
353.2548370748845059
  0
LINE
  5
1FAC6
  8
0
 10
4652.7521392276248662
 20
478.017878649276895
 30
0.0
 11
4652.7521392276248662
 21
478.0065213729769198
 31
0.0
  0
ARC
  5
1FAC7
  8
0
 10
4652.7589165294148188
 20
478.0074184297536135
 30
0.0
 40
0.0068364120999805
 50
187.5399515570524045
 51
254.2468371480950964
  0
LINE
  5
1FAC8
  8
0
 10
4652.6999738733256891
 20
477.9999785179768992
 30
0.0
 11
4652.7257873565249611
 21
477.9925268071768869
 31
0.0
  0
ARC
  5
1FAC9
  8
0
 10
4652.7270248496733984
 20
477.9973777673610016
 30
0.0
 40
0.0050063164099097
 50
255.6889220987355884
 51
287.3428937126843721
  0
LINE
  5
1FACA
  8
0
 10
4652.7334384402247451
 20
478.042597878356105
 30
0.0
 11
4652.7334384402247451
 21
478.03124060197689
 31
0.0
  0
LINE
  5
1FACB
  8
0
 10
4652.7570604874254059
 20
478.0502772495768795
 30
0.0
 11
4652.7570604874254059
 21
478.0173182775769192
 31
0.0
  0
ARC
  5
1FACC
  8
0
 10
4652.7267888415572088
 20
478.0320270646068934
 30
0.0
 40
0.0066959454823001
 50
284.9583742200002803
 51
353.2548370748845059
  0
LINE
  5
1FACD
  8
0
 10
4652.7285171804260244
 20
478.0246977469769263
 30
0.0
 11
4652.7543306636252964
 21
478.017246036176914
 31
0.0
  0
ARC
  5
1FACE
  8
0
 10
4652.7555681567728243
 20
478.0220969963609718
 30
0.0
 40
0.0050063164099097
 50
255.6889220987355884
 51
287.3428937126843721
  0
LINE
  5
1FACF
  8
0
 10
4652.7334384402247451
 20
478.0920363364559762
 30
0.0
 11
4652.7334384402247451
 21
478.080679060076875
 31
0.0
  0
LINE
  5
1FAD0
  8
0
 10
4652.7570604874254059
 20
478.0997157076769213
 30
0.0
 11
4652.7570604874254059
 21
478.0667567356769041
 31
0.0
  0
ARC
  5
1FAD1
  8
0
 10
4652.7267888415572088
 20
478.081465522706992
 30
0.0
 40
0.0066959454823001
 50
284.9583742200002803
 51
353.2548370748845059
  0
LINE
  5
1FAD2
  8
0
 10
4652.7285171804260244
 20
478.0741362050769112
 30
0.0
 11
4652.7543306636252964
 21
478.0666844942770126
 31
0.0
  0
ARC
  5
1FAD3
  8
0
 10
4652.7555681567728243
 20
478.0715354544610136
 30
0.0
 40
0.0050063164099097
 50
255.6889220987355884
 51
287.3428937126843721
  0
LINE
  5
1FAD4
  8
0
 10
4652.6999738732247351
 20
478.1192143782889161
 30
0.0
 11
4652.6999738732247351
 21
478.116195193776889
 31
0.0
  0
LINE
  5
1FAD5
  8
0
 10
4652.6900340202946609
 20
478.1182043085239002
 30
0.0
 11
4652.6972440494246257
 21
478.1161229523768839
 31
0.0
  0
LINE
  5
1FAD6
  8
0
 10
4652.7027036971257985
 20
478.1161229523768839
 30
0.0
 11
4652.7184083561523948
 21
478.1206564969559736
 31
0.0
  0
ARC
  5
1FAD7
  8
0
 10
4652.6984815425721536
 20
478.1209739125609985
 30
0.0
 40
0.0050063164099097
 50
255.6889220987355884
 51
287.3428937126843721
  0
ARC
  5
1FAD8
  8
0
 10
4652.7014663819172711
 20
478.1209806384841272
 30
0.0
 40
0.0050127899657327
 50
252.6780799925705026
 51
284.290104307074273
  0
LINE
  5
1FAD9
  8
0
 10
4652.7570604874254059
 20
478.121874597562396
 30
0.0
 11
4652.7570604874254059
 21
478.116195193776889
 31
0.0
  0
LINE
  5
1FADA
  8
0
 10
4652.7356947991347624
 20
478.1215026631124942
 30
0.0
 11
4652.7543306636252964
 21
478.1161229523768839
 31
0.0
  0
ARC
  5
1FADB
  8
0
 10
4652.7555681567728243
 20
478.1209739125609985
 30
0.0
 40
0.0050063164099097
 50
255.6889220987355884
 51
287.3428937126843721
  0
LINE
  5
1FADC
  8
0
 10
4652.5287140307245863
 20
478.0729657021067851
 30
0.0
 11
4652.5287140307245863
 21
478.0667567356769041
 31
0.0
  0
LINE
  5
1FADD
  8
0
 10
4652.5199718298454172
 20
478.0684201180544051
 30
0.0
 11
4652.5259842069253864
 21
478.0666844942770126
 31
0.0
  0
LINE
  5
1FADE
  8
0
 10
4652.5314438546256497
 20
478.0666844942770126
 30
0.0
 11
4652.5572573379249661
 21
478.0741362050769112
 31
0.0
  0
ARC
  5
1FADF
  8
0
 10
4652.5272217000710953
 20
478.0715354544610136
 30
0.0
 40
0.0050063164099097
 50
255.6889220987355884
 51
287.3428937126843721
  0
ARC
  5
1FAE0
  8
0
 10
4652.5302065394171223
 20
478.0715421803840854
 30
0.0
 40
0.0050127899657327
 50
252.6780799925705026
 51
284.290104307074273
  0
LINE
  5
1FAE1
  8
0
 10
4652.5001707236251605
 20
478.0562115875887912
 30
0.0
 11
4652.5001707236251605
 21
478.042037506676877
 31
0.0
  0
LINE
  5
1FAE2
  8
0
 10
4652.4861502449630279
 20
478.045224596616606
 30
0.0
 11
4652.4974408998259605
 21
478.0419652652768718
 31
0.0
  0
LINE
  5
1FAE3
  8
0
 10
4652.5029005475253143
 20
478.0419652652768718
 30
0.0
 11
4652.5287140308246308
 21
478.0494169760768841
 31
0.0
  0
ARC
  5
1FAE4
  8
0
 10
4652.4986783929716694
 20
478.0468162254609865
 30
0.0
 40
0.0050063164099097
 50
255.6889220987355884
 51
287.3428937126843721
  0
ARC
  5
1FAE5
  8
0
 10
4652.5016632323167869
 20
478.0468229513841152
 30
0.0
 40
0.0050127899657327
 50
252.6780799925705026
 51
284.290104307074273
  0
LINE
  5
1FAE6
  8
0
 10
4652.4716274165257346
 20
478.0311847681419977
 30
0.0
 11
4652.4716274165257346
 21
478.0173182776770204
 31
0.0
  0
LINE
  5
1FAE7
  8
0
 10
4652.4615716442258417
 20
478.019360855464015
 30
0.0
 11
4652.4688975927247157
 21
478.0172460362769016
 31
0.0
  0
LINE
  5
1FAE8
  8
0
 10
4652.4743572404258884
 20
478.0172460362769016
 30
0.0
 11
4652.5001707237252049
 21
478.0246977470770275
 31
0.0
  0
ARC
  5
1FAE9
  8
0
 10
4652.4701350858722435
 20
478.0220969964610163
 30
0.0
 40
0.0050063164099097
 50
255.6889220987355884
 51
287.3428937126843721
  0
ARC
  5
1FAEA
  8
0
 10
4652.473119925217361
 20
478.0221037223840881
 30
0.0
 40
0.0050127899657327
 50
252.6780799925705026
 51
284.290104307074273
  0
LINE
  5
1FAEB
  8
0
 10
4652.5237927709258656
 20
478.0673171073768799
 30
0.0
 11
4652.5237927709258656
 21
478.0559598310770184
 31
0.0
  0
ARC
  5
1FAEC
  8
0
 10
4652.5305700727149087
 20
478.0568568878534847
 30
0.0
 40
0.0068364120999805
 50
187.5399515570524045
 51
254.2468371480950964
  0
LINE
  5
1FAED
  8
0
 10
4652.4952494638246208
 20
478.0425978782769221
 30
0.0
 11
4652.4952494638246208
 21
478.03124060197689
 31
0.0
  0
ARC
  5
1FAEE
  8
0
 10
4652.5020267656136639
 20
478.0321376587535838
 30
0.0
 40
0.0068364120999805
 50
187.5399515570524045
 51
254.2468371480950964
  0
LINE
  5
1FAEF
  8
0
 10
4652.4667061567251949
 20
478.017878649276895
 30
0.0
 11
4652.4667061567251949
 21
478.0065213729769198
 31
0.0
  0
ARC
  5
1FAF0
  8
0
 10
4652.473483458514238
 20
478.0074184297536135
 30
0.0
 40
0.0068364120999805
 50
187.5399515570524045
 51
254.2468371480950964
  0
LINE
  5
1FAF1
  8
0
 10
4652.4461416938802358
 20
477.9926214234995996
 30
0.0
 11
4652.471627416625779
 21
477.9999785179768992
 31
0.0
  0
LINE
  5
1FAF2
  8
0
 10
4652.4667061567251949
 20
477.9684401911770237
 30
0.0
 11
4652.4667061567251949
 21
477.957082914876878
 31
0.0
  0
ARC
  5
1FAF3
  8
0
 10
4652.473483458514238
 20
477.9579799716535149
 30
0.0
 40
0.0068364120999805
 50
187.5399515570524045
 51
254.2468371480950964
  0
LINE
  5
1FAF4
  8
0
 10
4652.4475746400476055
 20
477.9435966213293909
 30
0.0
 11
4652.471627416625779
 21
477.9505400598769143
 31
0.0
  0
LINE
  5
1FAF5
  8
0
 10
4652.4952494638246208
 20
477.9437209620768954
 30
0.0
 11
4652.4952494638246208
 21
477.9323636857769202
 31
0.0
  0
ARC
  5
1FAF6
  8
0
 10
4652.5020267656136639
 20
477.9332607425536139
 30
0.0
 40
0.0068364120999805
 50
187.5399515570524045
 51
254.2468371480950964
  0
LINE
  5
1FAF7
  8
0
 10
4652.4743572404258884
 20
477.9183691199768873
 30
0.0
 11
4652.5001707237252049
 21
477.9258208307768996
 31
0.0
  0
LINE
  5
1FAF8
  8
0
 10
4652.5237927709258656
 20
477.9190017330769251
 30
0.0
 11
4652.5237927709258656
 21
477.9076444567770068
 31
0.0
  0
ARC
  5
1FAF9
  8
0
 10
4652.5305700727149087
 20
477.9085415135534731
 30
0.0
 40
0.0068364120999805
 50
187.5399515570524045
 51
254.2468371480950964
  0
LINE
  5
1FAFA
  8
0
 10
4652.4957283741259744
 20
477.8915794628769049
 30
0.0
 11
4652.5287140308246308
 21
477.9011016017768725
 31
0.0
  0
LINE
  5
1FAFB
  8
0
 10
4652.5523360780252915
 20
477.8942825039769104
 30
0.0
 11
4652.5523360780252915
 21
477.8829252276768784
 31
0.0
  0
ARC
  5
1FAFC
  8
0
 10
4652.5591133798143346
 20
477.8838222844535721
 30
0.0
 40
0.0068364120999805
 50
187.5399515570524045
 51
254.2468371480950964
  0
LINE
  5
1FAFD
  8
0
 10
4652.5336780830612042
 20
477.8695756280743012
 30
0.0
 11
4652.5572573379249661
 21
477.8763823726769147
 31
0.0
  0
LINE
  5
1FAFE
  8
0
 10
4652.6379659993253881
 20
477.8695632749768833
 30
0.0
 11
4652.6379659993253881
 21
477.8582059986769082
 31
0.0
  0
ARC
  5
1FAFF
  8
0
 10
4652.6447433011144312
 20
477.8591030554536019
 30
0.0
 40
0.0068364120999805
 50
187.5399515570524045
 51
254.2468371480950964
  0
LINE
  5
1FB00
  8
0
 10
4652.6100876891259759
 20
477.842194723376906
 30
0.0
 11
4652.6428872592259722
 21
477.8516631436768876
 31
0.0
  0
LINE
  5
1FB01
  8
0
 10
4652.601610073224947
 20
477.8727064185769109
 30
0.0
 11
4652.601610073224947
 21
477.8480169400768887
 31
0.0
  0
ARC
  5
1FB02
  8
0
 10
4652.6089371585158005
 20
477.8472477635152131
 30
0.0
 40
0.0051823677331645
 50
253.1240486209485141
 51
282.8270397607157065
  0
ARC
  5
1FB03
  8
0
 10
4652.6097564846850219
 20
477.8514125535184007
 30
0.0
 40
0.0094152510306433
 50
223.6681698736641977
 51
255.7112236514174981
  0
ARC
  5
1FB04
  8
0
 10
4652.605862055606849
 20
477.848005988608918
 30
0.0
 40
0.0042519964851659
 50
179.8524284790341028
 51
226.6999350452813928
  0
LINE
  5
1FB05
  8
0
 10
4652.5907219048249317
 20
477.8695632750909112
 30
0.0
 11
4652.5907219048249317
 21
477.850855942476926
 31
0.0
  0
LINE
  5
1FB06
  8
0
 10
4652.5808793851247174
 20
477.8695632750769278
 30
0.0
 11
4652.5808793851247174
 21
477.8539495539769177
 31
0.0
  0
ARC
  5
1FB07
  8
0
 10
4652.5875812286376458
 20
477.8550000359680894
 30
0.0
 40
0.0067836729637027
 50
188.9083553185456026
 51
269.195908059238775
  0
ARC
  5
1FB08
  8
0
 10
4652.5879661332637625
 20
477.8509317168087023
 30
0.0
 40
0.0027568131319709
 50
259.9706991425811111
 51
358.4249580749562938
  0
LINE
  5
1FB09
  8
0
 10
4652.5572573378258312
 20
477.8772426463768852
 30
0.0
 11
4652.5572573379249661
 21
477.8763823727770159
 31
0.0
  0
LINE
  5
1FB0A
  8
0
 10
4652.5275901697259542
 20
477.9007771709768804
 30
0.0
 11
4652.5275901697259542
 21
477.8760876924769718
 31
0.0
  0
ARC
  5
1FB0B
  8
0
 10
4652.5350128786940331
 20
477.8766642602918751
 30
0.0
 40
0.0074450680912849
 50
184.4415997343963909
 51
238.9079594248611045
  0
ARC
  5
1FB0C
  8
0
 10
4652.5337326888538882
 20
477.8745413986325161
 30
0.0
 40
0.0049660707837506
 50
238.9079594248611045
 51
269.3699731243946758
  0
LINE
  5
1FB0D
  8
0
 10
4652.5287140308246308
 20
477.9019618753769123
 30
0.0
 11
4652.5287140308246308
 21
477.9011016017768725
 31
0.0
  0
LINE
  5
1FB0E
  8
0
 10
4652.4908926340258404
 20
477.9231424770769081
 30
0.0
 11
4652.4908926340258404
 21
477.8984529985768859
 31
0.0
  0
ARC
  5
1FB0F
  8
0
 10
4652.4955611088607839
 20
477.8934524482447728
 30
0.0
 40
0.0018804392722854
 50
228.9283497306961976
 51
275.1032100685478099
  0
ARC
  5
1FB10
  8
0
 10
4652.5059095603637616
 20
477.9053269564643074
 30
0.0
 40
0.0176314517465297
 50
221.7825087222553861
 51
228.9283497306961976
  0
ARC
  5
1FB11
  8
0
 10
4652.4982437692788153
 20
477.8984771580758206
 30
0.0
 40
0.0073511749545216
 50
180.1883018455741876
 51
221.7825087222553861
  0
LINE
  5
1FB12
  8
0
 10
4652.5001707237252049
 20
477.926681104476927
 30
0.0
 11
4652.5001707237252049
 21
477.9258208308768872
 31
0.0
  0
LINE
  5
1FB13
  8
0
 10
4652.4631083472258979
 20
477.9480808162768994
 30
0.0
 11
4652.4631083472258979
 21
477.9233913378769216
 31
0.0
  0
ARC
  5
1FB14
  8
0
 10
4652.4728180578158572
 20
477.9235677694974243
 30
0.0
 40
0.0097113133958579
 50
181.0409862175011995
 51
213.3141965903265032
  0
ARC
  5
1FB15
  8
0
 10
4652.4706830494324095
 20
477.9221645737309245
 30
0.0
 40
0.0071564710997256
 50
213.3141965903238031
 51
236.7901585550530115
  0
LINE
  5
1FB16
  8
0
 10
4652.4443131794259898
 20
477.974904486976925
 30
0.0
 11
4652.4443131794259898
 21
477.9532601974560748
 31
0.0
  0
LINE
  5
1FB17
  8
0
 10
4652.6763518260258934
 20
477.8448440459620201
 30
0.0
 11
4652.6763518260258934
 21
477.8328395460770253
 31
0.0
  0
LINE
  5
1FB18
  8
0
 10
4652.6665093064257235
 20
477.8448440459770268
 30
0.0
 11
4652.6665093064257235
 21
477.8341980258769013
 31
0.0
  0
ARC
  5
1FB19
  8
0
 10
4652.6717051631503637
 20
477.8348351693671248
 30
0.0
 40
0.0052347759195093
 50
186.9910103817568938
 51
266.9930958926656785
  0
ARC
  5
1FB1A
  8
0
 10
4652.6721495835572568
 20
477.8338755140599119
 30
0.0
 40
0.0043280563098996
 50
260.437150996552873
 51
346.1511695380482934
  0
LINE
  5
1FB1B
  8
0
 10
4652.7334384402247451
 20
477.8448440459620201
 30
0.0
 11
4652.7334384402247451
 21
477.8281316519768893
 31
0.0
  0
LINE
  5
1FB1C
  8
0
 10
4652.7235959205263498
 20
477.8448440459770268
 30
0.0
 11
4652.7235959205263498
 21
477.8285698768768839
 31
0.0
  0
ARC
  5
1FB1D
  8
0
 10
4652.7282343378483347
 20
477.8290882520694254
 30
0.0
 40
0.0046672934447445
 50
186.3767395255200938
 51
273.4743094134831267
  0
ARC
  5
1FB1E
  8
0
 10
4652.7292567038903144
 20
477.8285684788576759
 30
0.0
 40
0.0042044900406831
 50
259.8696046085544822
 51
354.0364744577622105
  0
LINE
  5
1FB1F
  8
0
 10
4652.7285171804260244
 20
477.9925990484769045
 30
0.0
 11
4652.7570604875263598
 21
478.0008387915768822
 31
0.0
  0
LINE
  5
1FB20
  8
0
 10
4652.72851718032598
 20
477.9752592888768845
 30
0.0
 11
4652.7543306637253409
 21
477.967807578176803
 31
0.0
  0
ARC
  5
1FB21
  8
0
 10
4652.7555679133911326
 20
477.9726677455133768
 30
0.0
 40
0.005015178289522
 50
255.7176181797684933
 51
287.3141934366818759
  0
ARC
  5
1FB22
  8
0
 10
4653.0147621281694228
 20
477.9974079099046094
 30
0.0
 40
0.2379330448910223
 50
305.3610660944443111
 51
322.7177348503927874
  0
LINE
  5
1FB23
  8
0
 10
4653.2275329147287266
 20
477.9787757162310982
 30
0.0
 11
4653.2275335510248624
 21
477.9383303962769105
 31
0.0
  0
ARC
  5
1FB24
  8
0
 10
4653.1024857190841431
 20
477.9376679102477965
 30
0.0
 40
0.1250489643184459
 50
334.0756805073791043
 51
25.3701933554431989
  0
ARC
  5
1FB25
  8
0
 10
4653.2091149003063038
 20
477.8858356195792112
 30
0.0
 40
0.0064894069458541
 50
258.332585393110719
 51
334.075680507382117
  0
ARC
  5
1FB26
  8
0
 10
4653.150075698402361
 20
477.9837074755936897
 30
0.0
 40
0.0067937945800205
 50
207.8947218559544865
 51
279.697014783803013
  0
ARC
  5
1FB27
  8
0
 10
4653.1494241623304333
 20
477.9829534888992839
 30
0.0
 40
0.005876343425825
 50
180.0904483902527033
 51
204.3671965358138038
  0
ARC
  5
1FB28
  8
0
 10
4653.0535777967597824
 20
477.9376481890939203
 30
0.0
 40
0.1001390827932926
 50
0.3903360566732144
 51
25.3541828885046101
  0
ARC
  5
1FB29
  8
0
 10
4653.0537326771427615
 20
477.937649244256022
 30
0.0
 40
0.0999841988156139
 50
333.9346453294166963
 51
0.3903360566732144
  0
LINE
  5
1FB2A
  8
0
 10
4653.2154747503245744
 20
478.0043558152996752
 30
0.0
 11
4653.2154747503245744
 21
477.9912470317768793
 31
0.0
  0
ARC
  5
1FB2B
  8
0
 10
4653.2070844128802491
 20
477.9919296747482917
 30
0.0
 40
0.008418061764539
 50
274.8937624799693253
 51
355.3486257152198959
  0
LINE
  5
1FB2C
  8
0
 10
4653.2078025447253822
 20
477.9835423002768948
 30
0.0
 11
4653.1512200317256429
 21
477.9770107490768964
 31
0.0
  0
LINE
  5
1FB2D
  8
0
 10
4653.1435478262255856
 20
478.0272683474768769
 30
0.0
 11
4653.1435478262255856
 21
477.9829442123768786
 31
0.0
  0
LINE
  5
1FB2E
  8
0
 10
4653.1435478262255856
 20
477.9877145863769101
 30
0.0
 11
4653.1105905870253991
 21
477.9877145863769101
 31
0.0
  0
LINE
  5
1FB2F
  8
0
 10
4653.1435478262255856
 20
478.0272683474768769
 30
0.0
 11
4653.1923559802253294
 21
478.0329024725768932
 31
0.0
  0
ARC
  5
1FB30
  8
0
 10
4652.9741740244571702
 20
477.9391454503389127
 30
0.0
 40
0.1909270272264122
 50
27.4873499966278487
 51
58.4486159456760035
  0
LINE
  5
1FB31
  8
0
 10
4653.122451753473797
 20
478.0594236478768835
 30
0.0
 11
4653.1105905870253991
 21
478.0594236478768835
 31
0.0
  0
LINE
  5
1FB32
  8
0
 10
4653.1105905870253991
 20
478.0594236478768835
 30
0.0
 11
4653.1105905870253991
 21
478.0457854524768777
 31
0.0
  0
LINE
  5
1FB33
  8
0
 10
4653.1105905870253991
 20
478.0457854524768777
 30
0.0
 11
4653.132543970057668
 21
478.0457854524768777
 31
0.0
  0
ARC
  5
1FB34
  8
0
 10
4653.0049590592534514
 20
478.0242168329384072
 30
0.0
 40
0.1113442386365102
 50
18.4331453463584296
 51
32.0827968506726506
  0
ARC
  5
1FB35
  8
0
 10
4652.9838497816917879
 20
478.0002889206509735
 30
0.0
 40
0.1346594450626686
 50
19.7467695176602511
 51
48.4614234445901602
  0
ARC
  5
1FB36
  8
0
 10
4653.0662105776436874
 20
478.1104940040250995
 30
0.0
 40
0.0116904738733557
 50
302.8492915866432895
 51
349.2349292049253222
  0
LINE
  5
1FB37
  8
0
 10
4653.0725518548251785
 20
478.1006728338768994
 30
0.0
 11
4653.0329476194247036
 21
478.0794376624768915
 31
0.0
  0
ARC
  5
1FB38
  8
0
 10
4653.0309637648597345
 20
478.0826360748613979
 30
0.0
 40
0.0037637110303527
 50
249.0854020360202128
 51
301.8097665617556231
  0
ARC
  5
1FB39
  8
0
 10
4652.7923396178721305
 20
477.5485056202621763
 30
0.0
 40
0.5812521499476007
 50
65.9067344073836239
 51
81.9095288468580378
  0
ARC
  5
1FB3A
  8
0
 10
4652.8743417277482877
 20
478.1247666167874968
 30
0.0
 40
0.00081848202265
 50
201.2682019094928876
 51
255.9522491926126975
  0
ARC
  5
1FB3B
  8
0
 10
4652.8730203011391495
 20
478.1261949586659057
 30
0.0
 40
0.0026325439753868
 50
310.1781793557399283
 51
331.4577818556285251
  0
ARC
  5
1FB3C
  8
0
 10
4652.8741418788740702
 20
478.1248667249125788
 30
0.0
 40
0.0008941132121576
 50
270.0755100392545955
 51
310.1781793557336186
  0
ARC
  5
1FB3D
  8
0
 10
4652.8812769720016149
 20
478.1274715791017229
 30
0.0
 40
0.0082625690333658
 50
176.3941554368281004
 51
201.3034630833020913
  0
LINE
  5
1FB3E
  8
0
 10
4652.873030760225447
 20
478.1613704260013833
 30
0.0
 11
4652.873030760225447
 21
478.1279912312768943
 31
0.0
  0
LINE
  5
1FB3F
  8
0
 10
4652.8753328996253913
 20
478.1249371128769212
 30
0.0
 11
4652.8923111777248778
 21
478.1527038354769275
 31
0.0
  0
ARC
  5
1FB40
  8
0
 10
4652.8744761999460025
 20
478.1616362313880018
 30
0.0
 40
0.0199467824247994
 50
333.3966499772236034
 51
350.6834914161789811
  0
LINE
  5
1FB41
  8
0
 10
4653.0956431647246063
 20
478.0031118240768819
 30
0.0
 11
4653.0956431647246063
 21
477.9775402078769275
 31
0.0
  0
ARC
  5
1FB42
  8
0
 10
4653.001988621748751
 20
478.0019918664477814
 30
0.0
 40
0.0936612391822202
 50
0.6851326676491415
 51
31.2730895235912705
  0
ARC
  5
1FB43
  8
0
 10
4652.9525659419787189
 20
477.9721059322832843
 30
0.0
 40
0.1514172994186994
 50
31.230482172897819
 51
50.153206057907127
  0
ARC
  5
1FB44
  8
0
 10
4652.9862172864168315
 20
477.9795218142245972
 30
0.0
 40
0.1094438194112522
 50
322.3118650576087134
 51
358.9625372591310111
  0
LINE
  5
1FB45
  8
0
 10
4653.2078025452246948
 20
477.8794802968769773
 30
0.0
 11
4653.1512200315246446
 21
477.8860118480769188
 31
0.0
  0
LINE
  5
1FB46
  8
0
 10
4653.1435478262255856
 20
477.9380407146769016
 30
0.0
 11
4653.1435478262255856
 21
477.8937165797768785
 31
0.0
  0
ARC
  5
1FB47
  8
0
 10
4653.1519381637281185
 20
477.8943992225594002
 30
0.0
 40
0.0084180618060493
 50
184.6513729718228092
 51
265.1062351053520842
  0
ARC
  5
1FB48
  8
0
 10
4652.9411638878609665
 20
478.0545614879887921
 30
0.0
 40
0.2335301888864497
 50
291.7175968697645771
 51
330.0691924536545798
  0
ARC
  5
1FB49
  8
0
 10
4652.9387671751510425
 20
478.1259744801387228
 30
0.0
 40
0.3446976879829875
 50
293.8097405684263208
 51
315.0302249409352271
  0
LINE
  5
1FB4A
  8
0
 10
4653.0275775536256333
 20
477.8376075124768931
 30
0.0
 11
4653.0779219207252027
 21
477.8106136504769097
 31
0.0
  0
LINE
  5
1FB4B
  8
0
 10
4653.0779219207252027
 20
477.8106136504769097
 30
0.0
 11
4653.0779219207252027
 21
477.7662895157769185
 31
0.0
  0
LINE
  5
1FB4C
  8
0
 10
4653.0275775536256333
 20
477.8376075124768931
 30
0.0
 11
4653.0275775536256333
 21
477.7932833774768824
 31
0.0
  0
LINE
  5
1FB4D
  8
0
 10
4653.0725518550252673
 20
477.7623497631769283
 30
0.0
 11
4653.0329476196247924
 21
477.7835849346769237
 31
0.0
  0
ARC
  5
1FB4E
  8
0
 10
4653.0394911178163966
 20
477.7935440301670269
 30
0.0
 40
0.0119164152139832
 50
181.253354295122989
 51
236.693589374364592
  0
ARC
  5
1FB4F
  8
0
 10
4652.7916951770448577
 20
478.3204140950480792
 30
0.0
 40
0.577500899556625
 50
278.0964920553719253
 51
294.1077353213116794
  0
ARC
  5
1FB50
  8
0
 10
4652.7974953844732227
 20
478.3837842774306068
 30
0.0
 40
0.6812289842893328
 50
278.1016678661646893
 51
294.1200263037944751
  0
LINE
  5
1FB51
  8
0
 10
4652.8753328995253469
 20
477.7380854843768816
 30
0.0
 11
4652.8923111778258317
 21
477.7103187613769251
 31
0.0
  0
ARC
  5
1FB52
  8
0
 10
4652.8938206678203642
 20
477.7109647562862733
 30
0.0
 40
0.0016419103106489
 50
203.1687814779207883
 51
258.773948108022978
  0
ARC
  5
1FB53
  8
0
 10
4652.8979282509308177
 20
477.7485425995441801
 30
0.0
 40
0.024897814416857
 50
179.7078291970975101
 51
204.8346714534309001
  0
LINE
  5
1FB54
  8
0
 10
4652.873030760225447
 20
477.7929936961768931
 30
0.0
 11
4652.873030760225447
 21
477.7486695614769019
 31
0.0
  0
ARC
  5
1FB55
  8
0
 10
4653.0746447713318048
 20
477.7647509247418043
 30
0.0
 40
0.0029856523012223
 50
261.1558111704143244
 51
342.4722588828599896
  0
ARC
  5
1FB56
  8
0
 10
4653.0748618251091102
 20
477.7665187429755065
 30
0.0
 40
0.004766167679414
 50
241.0098112864434938
 51
261.8449566668397779
  0
ARC
  5
1FB57
  8
0
 10
4653.0713453548287362
 20
477.7661930450216801
 30
0.0
 40
0.0065772734156727
 50
339.1471900417271854
 51
0.8404037620604
  0
ARC
  5
1FB58
  8
0
 10
4652.9988496197047425
 20
478.0256218169088243
 30
0.0
 40
0.1179957707049977
 50
322.6530639143052781
 51
341.2609050749499033
  0
ARC
  5
1FB59
  8
0
 10
4652.9806774113339998
 20
478.0632354362683145
 30
0.0
 40
0.1703103318671041
 50
306.417386620520972
 51
333.6770133692493232
  0
LINE
  5
1FB5A
  8
0
 10
4653.0755771185258709
 20
477.916333444939994
 30
0.0
 11
4653.0755771185258709
 21
477.8985540071769265
 31
0.0
  0
LINE
  5
1FB5B
  8
0
 10
4653.0755771185258709
 20
477.8985540071769265
 30
0.0
 11
4653.0654316393538465
 21
477.9036267467627113
 31
0.0
  0
ARC
  5
1FB5C
  8
0
 10
4652.8836161535373321
 20
478.185843279141011
 30
0.0
 40
0.3455200976280346
 50
296.0265929634846884
 51
303.7500566070470995
  0
ARC
  5
1FB5D
  8
0
 10
4652.9115875099751065
 20
478.0377626186427733
 30
0.0
 40
0.2041089127634202
 50
300.2080672700013793
 51
322.1819031616943221
  0
ARC
  5
1FB5E
  8
0
 10
4652.8016777494640337
 20
478.233427441697188
 30
0.0
 40
0.4285173959039832
 50
279.773558218386313
 51
299.7450793517793954
  0
ARC
  5
1FB5F
  8
0
 10
4652.9884000559823107
 20
477.9639020127895037
 30
0.0
 40
0.0846029410428386
 50
325.4074637958254925
 51
34.5925362041745075
  0
ARC
  5
1FB60
  8
0
 10
4652.9809151887830012
 20
477.9778793259526992
 30
0.0
 40
0.0922388044102427
 50
323.3685406834475202
 51
354.9658114277901859
  0
ARC
  5
1FB61
  8
0
 10
4652.9248265678706957
 20
478.0054001261063945
 30
0.0
 40
0.1605089071325778
 50
303.2965040200024873
 51
326.0968887863509735
  0
ARC
  5
1FB62
  8
0
 10
4652.817574884034002
 20
478.1721357542926967
 30
0.0
 40
0.3587564768368304
 50
282.8783870066250188
 51
302.995005056861487
  0
ARC
  5
1FB63
  8
0
 10
4652.9081078250683277
 20
477.9067070161606239
 30
0.0
 40
0.1831781539784446
 50
35.061309684036857
 51
62.9212557881137684
  0
ARC
  5
1FB64
  8
0
 10
4652.8006425350658901
 20
477.7096857646135959
 30
0.0
 40
0.4075661908374293
 50
62.0779996876498998
 51
79.0630048153305438
  0
ARC
  5
1FB65
  8
0
 10
4653.0198397894537266
 20
478.016522655215681
 30
0.0
 40
0.0915484181368146
 50
324.623394770535981
 51
15.7599394032854292
  0
ARC
  5
1FB66
  8
0
 10
4652.9835733803165567
 20
478.0021025313465088
 30
0.0
 40
0.1304303241185193
 50
17.5295718334034696
 51
48.2999427841300601
  0
ARC
  5
1FB67
  8
0
 10
4652.9233716720091252
 20
478.019560129925992
 30
0.0
 40
0.1632888044200754
 50
306.6585680412787838
 51
323.6793601132466165
  0
ARC
  5
1FB68
  8
0
 10
4652.8549927308931728
 20
478.1128050067084132
 30
0.0
 40
0.2789170690086737
 50
291.833778239151286
 51
306.4906759421111815
  0
ARC
  5
1FB69
  8
0
 10
4652.7801618926278024
 20
478.2995760406236059
 30
0.0
 40
0.4801211282747059
 50
283.4485020899908818
 51
291.833778239151286
  0
LINE
  5
1FB6A
  8
0
 10
4652.9804856844257301
 20
478.0178786493560779
 30
0.0
 11
4652.9804856844257301
 21
478.0065213729769198
 31
0.0
  0
LINE
  5
1FB6B
  8
0
 10
4652.9568636372259789
 20
478.0255580205770229
 30
0.0
 11
4652.9568636372259789
 21
477.9925990485768921
 31
0.0
  0
ARC
  5
1FB6C
  8
0
 10
4652.987135283092357
 20
478.0073078356069232
 30
0.0
 40
0.0066959454823001
 50
186.7451629251156078
 51
255.041625779999606
  0
LINE
  5
1FB6D
  8
0
 10
4652.9332415899252737
 20
478.017878649276895
 30
0.0
 11
4652.9332415899252737
 21
478.0065213729769198
 31
0.0
  0
ARC
  5
1FB6E
  8
0
 10
4652.9264642881362306
 20
478.0074184297536135
 30
0.0
 40
0.0068364120999805
 50
285.7531628519049036
 51
352.4600484429475955
  0
LINE
  5
1FB6F
  8
0
 10
4652.9854069442253603
 20
477.9999785179768992
 30
0.0
 11
4652.9595934610251788
 21
477.9925268071768869
 31
0.0
  0
LINE
  5
1FB70
  8
0
 10
4652.954133813325825
 20
477.9925268071768869
 30
0.0
 11
4652.9283203300246896
 21
477.9999785179768992
 31
0.0
  0
ARC
  5
1FB71
  8
0
 10
4652.958355967877651
 20
477.9973777673610016
 30
0.0
 40
0.0050063164099097
 50
252.6571062873155995
 51
284.3110779012644116
  0
ARC
  5
1FB72
  8
0
 10
4652.955371128533443
 20
477.9973844932840734
 30
0.0
 40
0.0050127899657327
 50
255.7098956929256985
 51
287.3219200074295259
  0
LINE
  5
1FB73
  8
0
 10
4652.9233990703260133
 20
478.0178786493560779
 30
0.0
 11
4652.9233990703260133
 21
478.0065213729769198
 31
0.0
  0
LINE
  5
1FB74
  8
0
 10
4652.8997770231253526
 20
478.0255580205770229
 30
0.0
 11
4652.8997770231253526
 21
477.9925990485768921
 31
0.0
  0
ARC
  5
1FB75
  8
0
 10
4652.9300486689917307
 20
478.0073078356069232
 30
0.0
 40
0.0066959454823001
 50
186.7451629251156078
 51
255.041625779999606
  0
LINE
  5
1FB76
  8
0
 10
4652.8761549758246474
 20
478.017878649276895
 30
0.0
 11
4652.8761549758246474
 21
478.0065213729769198
 31
0.0
  0
ARC
  5
1FB77
  8
0
 10
4652.8693776740356043
 20
478.0074184297536135
 30
0.0
 40
0.0068364120999805
 50
285.7531628519049036
 51
352.4600484429475955
  0
LINE
  5
1FB78
  8
0
 10
4652.928320330124734
 20
477.9999785179768992
 30
0.0
 11
4652.9025068469245525
 21
477.9925268071768869
 31
0.0
  0
LINE
  5
1FB79
  8
0
 10
4652.8970471992251987
 20
477.9925268071768869
 30
0.0
 11
4652.8712337159258823
 21
477.9999785179768992
 31
0.0
  0
ARC
  5
1FB7A
  8
0
 10
4652.9012693537788437
 20
477.9973777673610016
 30
0.0
 40
0.0050063164099097
 50
252.6571062873155995
 51
284.3110779012644116
  0
ARC
  5
1FB7B
  8
0
 10
4652.8982845144337261
 20
477.9973844932840734
 30
0.0
 40
0.0050127899657327
 50
255.7098956929256985
 51
287.3219200074295259
  0
LINE
  5
1FB7C
  8
0
 10
4652.9519423774254392
 20
477.9931594202560063
 30
0.0
 11
4652.9519423774254392
 21
477.9818021438769051
 31
0.0
  0
LINE
  5
1FB7D
  8
0
 10
4652.9283203302247784
 20
478.0008387914768946
 30
0.0
 11
4652.9283203302247784
 21
477.9678798194768774
 31
0.0
  0
ARC
  5
1FB7E
  8
0
 10
4652.9585919760929755
 20
477.9825886065069085
 30
0.0
 40
0.0066959454823001
 50
186.7451629251156078
 51
255.041625779999606
  0
LINE
  5
1FB7F
  8
0
 10
4652.9046982829258923
 20
477.9931594201768803
 30
0.0
 11
4652.9046982829258923
 21
477.9818021438769051
 31
0.0
  0
ARC
  5
1FB80
  8
0
 10
4652.8979209811359397
 20
477.9826992006535988
 30
0.0
 40
0.0068364120999805
 50
285.7531628519049036
 51
352.4600484429475955
  0
LINE
  5
1FB81
  8
0
 10
4652.9568636372259789
 20
477.9752592888768845
 30
0.0
 11
4652.9310501540257974
 21
477.9678075780768722
 31
0.0
  0
LINE
  5
1FB82
  8
0
 10
4652.9255905063264436
 20
477.9678075780768722
 30
0.0
 11
4652.8997770230262176
 21
477.9752592888768845
 31
0.0
  0
ARC
  5
1FB83
  8
0
 10
4652.929812660879179
 20
477.9726585382609869
 30
0.0
 40
0.0050063164099097
 50
252.6571062873155995
 51
284.3110779012644116
  0
ARC
  5
1FB84
  8
0
 10
4652.926827821533152
 20
477.9726652641841156
 30
0.0
 40
0.0050127899657327
 50
255.7098956929256985
 51
287.3219200074295259
  0
LINE
  5
1FB85
  8
0
 10
4653.009028991525156
 20
477.9931594202560063
 30
0.0
 11
4653.009028991525156
 21
477.9818021438769051
 31
0.0
  0
LINE
  5
1FB86
  8
0
 10
4652.9854069443254048
 20
478.0008387914768946
 30
0.0
 11
4652.9854069443254048
 21
477.9678798194768774
 31
0.0
  0
ARC
  5
1FB87
  8
0
 10
4653.0156785901917829
 20
477.9825886065069085
 30
0.0
 40
0.0066959454823001
 50
186.7451629251156078
 51
255.041625779999606
  0
LINE
  5
1FB88
  8
0
 10
4652.9617848970246996
 20
477.9931594201768803
 30
0.0
 11
4652.9617848970246996
 21
477.9818021438769051
 31
0.0
  0
ARC
  5
1FB89
  8
0
 10
4652.9550075952356565
 20
477.9826992006535988
 30
0.0
 40
0.0068364120999805
 50
285.7531628519049036
 51
352.4600484429475955
  0
LINE
  5
1FB8A
  8
0
 10
4653.0139502513256957
 20
477.9752592888768845
 30
0.0
 11
4652.9881367681246047
 21
477.9678075780768722
 31
0.0
  0
LINE
  5
1FB8B
  8
0
 10
4652.9826771204261604
 20
477.9678075780768722
 30
0.0
 11
4652.956863637125025
 21
477.9752592888768845
 31
0.0
  0
ARC
  5
1FB8C
  8
0
 10
4652.9868992749788958
 20
477.9726585382609869
 30
0.0
 40
0.0050063164099097
 50
252.6571062873155995
 51
284.3110779012644116
  0
ARC
  5
1FB8D
  8
0
 10
4652.9839144356328688
 20
477.9726652641841156
 30
0.0
 40
0.0050127899657327
 50
255.7098956929256985
 51
287.3219200074295259
  0
LINE
  5
1FB8E
  8
0
 10
4653.0375722986245819
 20
477.9684401912559792
 30
0.0
 11
4653.0375722986245819
 21
477.957082914876878
 31
0.0
  0
LINE
  5
1FB8F
  8
0
 10
4653.0139502514257401
 20
477.9761195624769243
 30
0.0
 11
4653.0139502514257401
 21
477.9431605904769071
 31
0.0
  0
ARC
  5
1FB90
  8
0
 10
4653.0442218972921182
 20
477.9578693775069951
 30
0.0
 40
0.0066959454823001
 50
186.7451629251156078
 51
255.041625779999606
  0
LINE
  5
1FB91
  8
0
 10
4652.9903282041259445
 20
477.9684401911770237
 30
0.0
 11
4652.9903282041259445
 21
477.957082914876878
 31
0.0
  0
ARC
  5
1FB92
  8
0
 10
4652.9835509023359919
 20
477.9579799716535149
 30
0.0
 40
0.0068364120999805
 50
285.7531628519049036
 51
352.4600484429475955
  0
LINE
  5
1FB93
  8
0
 10
4653.0424935584260311
 20
477.9505400598769143
 30
0.0
 11
4653.0166800752258496
 21
477.943088349076902
 31
0.0
  0
LINE
  5
1FB94
  8
0
 10
4653.0112204275246768
 20
477.943088349076902
 30
0.0
 11
4652.9854069442253603
 21
477.9505400598769143
 31
0.0
  0
ARC
  5
1FB95
  8
0
 10
4653.0154425820792312
 20
477.9479393092610735
 30
0.0
 40
0.0050063164099097
 50
252.6571062873155995
 51
284.3110779012644116
  0
ARC
  5
1FB96
  8
0
 10
4653.0124577427341137
 20
477.9479460351840885
 30
0.0
 40
0.0050127899657327
 50
255.7098956929256985
 51
287.3219200074295259
  0
LINE
  5
1FB97
  8
0
 10
4652.9804856845248651
 20
477.9684401912559792
 30
0.0
 11
4652.9804856845248651
 21
477.957082914876878
 31
0.0
  0
LINE
  5
1FB98
  8
0
 10
4652.9568636373260233
 20
477.9761195624769243
 30
0.0
 11
4652.9568636373260233
 21
477.9431605904769071
 31
0.0
  0
ARC
  5
1FB99
  8
0
 10
4652.9871352831933109
 20
477.9578693775069951
 30
0.0
 40
0.0066959454823001
 50
186.7451629251156078
 51
255.041625779999606
  0
LINE
  5
1FB9A
  8
0
 10
4652.9332415900262276
 20
477.9684401911770237
 30
0.0
 11
4652.9332415900262276
 21
477.957082914876878
 31
0.0
  0
ARC
  5
1FB9B
  8
0
 10
4652.926464288236275
 20
477.9579799716535149
 30
0.0
 40
0.0068364120999805
 50
285.7531628519049036
 51
352.4600484429475955
  0
LINE
  5
1FB9C
  8
0
 10
4652.9854069443254048
 20
477.9505400598769143
 30
0.0
 11
4652.9595934611252233
 21
477.943088349076902
 31
0.0
  0
LINE
  5
1FB9D
  8
0
 10
4652.9541338134258694
 20
477.943088349076902
 30
0.0
 11
4652.928320330124734
 21
477.9505400598769143
 31
0.0
  0
ARC
  5
1FB9E
  8
0
 10
4652.9583559679776954
 20
477.9479393092610735
 30
0.0
 40
0.0050063164099097
 50
252.6571062873155995
 51
284.3110779012644116
  0
ARC
  5
1FB9F
  8
0
 10
4652.9553711286325779
 20
477.9479460351840885
 30
0.0
 40
0.0050127899657327
 50
255.7098956929256985
 51
287.3219200074295259
  0
LINE
  5
1FBA0
  8
0
 10
4653.0473575745254493
 20
477.9161769672768969
 30
0.0
 11
4653.0224665594259932
 21
477.9233623844768886
 31
0.0
  0
LINE
  5
1FBA1
  8
0
 10
4653.009028991525156
 20
477.943720962256009
 30
0.0
 11
4653.009028991525156
 21
477.9323636858769078
 31
0.0
  0
LINE
  5
1FBA2
  8
0
 10
4652.9854069443254048
 20
477.9514003334768972
 30
0.0
 11
4652.9854069443254048
 21
477.91844136147688
 31
0.0
  0
ARC
  5
1FBA3
  8
0
 10
4653.0156785901917829
 20
477.9331501485069111
 30
0.0
 40
0.0066959454823001
 50
186.7451629251156078
 51
255.041625779999606
  0
LINE
  5
1FBA4
  8
0
 10
4652.9617848970246996
 20
477.9437209621768829
 30
0.0
 11
4652.9617848970246996
 21
477.9323636858769078
 31
0.0
  0
ARC
  5
1FBA5
  8
0
 10
4652.9550075952356565
 20
477.9332607426534878
 30
0.0
 40
0.0068364120999805
 50
285.7531628519049036
 51
352.4600484429475955
  0
LINE
  5
1FBA6
  8
0
 10
4653.0139502513256957
 20
477.9258208308768872
 30
0.0
 11
4652.9881367681246047
 21
477.9183691200768749
 31
0.0
  0
LINE
  5
1FBA7
  8
0
 10
4652.9826771204261604
 20
477.9183691200768749
 30
0.0
 11
4652.956863637125025
 21
477.9258208308768872
 31
0.0
  0
ARC
  5
1FBA8
  8
0
 10
4652.9868992749788958
 20
477.9232200802609896
 30
0.0
 40
0.0050063164099097
 50
252.6571062873155995
 51
284.3110779012644116
  0
ARC
  5
1FBA9
  8
0
 10
4652.9839144356328688
 20
477.9232268061841182
 30
0.0
 40
0.0050127899657327
 50
255.7098956929256985
 51
287.3219200074295259
  0
LINE
  5
1FBAA
  8
0
 10
4652.9804856845248651
 20
477.9190017331559943
 30
0.0
 11
4652.9804856845248651
 21
477.9076444567770068
 31
0.0
  0
LINE
  5
1FBAB
  8
0
 10
4652.9568636373260233
 20
477.9266811043768826
 30
0.0
 11
4652.9568636373260233
 21
477.8937221323769222
 31
0.0
  0
ARC
  5
1FBAC
  8
0
 10
4652.9871352831933109
 20
477.9084309194068965
 30
0.0
 40
0.0066959454823001
 50
186.7451629251156078
 51
255.041625779999606
  0
LINE
  5
1FBAD
  8
0
 10
4652.9332415900262276
 20
477.9190017330769251
 30
0.0
 11
4652.9332415900262276
 21
477.9076444567770068
 31
0.0
  0
ARC
  5
1FBAE
  8
0
 10
4652.926464288236275
 20
477.9085415135534731
 30
0.0
 40
0.0068364120999805
 50
285.7531628519049036
 51
352.4600484429475955
  0
LINE
  5
1FBAF
  8
0
 10
4652.9854069443254048
 20
477.9011016017768725
 30
0.0
 11
4652.9595934611252233
 21
477.8936498909769739
 31
0.0
  0
LINE
  5
1FBB0
  8
0
 10
4652.9541338134258694
 20
477.8936498909769739
 30
0.0
 11
4652.928320330124734
 21
477.9011016017768725
 31
0.0
  0
ARC
  5
1FBB1
  8
0
 10
4652.9583559679776954
 20
477.8985008511609749
 30
0.0
 40
0.0050063164099097
 50
252.6571062873155995
 51
284.3110779012644116
  0
ARC
  5
1FBB2
  8
0
 10
4652.9553711286325779
 20
477.8985075770841036
 30
0.0
 40
0.0050127899657327
 50
255.7098956929256985
 51
287.3219200074295259
  0
LINE
  5
1FBB3
  8
0
 10
4652.9519423774254392
 20
477.8942825041560809
 30
0.0
 11
4652.9519423774254392
 21
477.8829252277769228
 31
0.0
  0
LINE
  5
1FBB4
  8
0
 10
4652.9283203302247784
 20
477.9019618753769123
 30
0.0
 11
4652.9283203302247784
 21
477.8690029033768951
 31
0.0
  0
ARC
  5
1FBB5
  8
0
 10
4652.9585919760929755
 20
477.8837116904069262
 30
0.0
 40
0.0066959454823001
 50
186.7451629251156078
 51
255.041625779999606
  0
LINE
  5
1FBB6
  8
0
 10
4652.9046982829258923
 20
477.894282504076898
 30
0.0
 11
4652.9046982829258923
 21
477.8829252277769228
 31
0.0
  0
ARC
  5
1FBB7
  8
0
 10
4652.8979209811359397
 20
477.8838222845536166
 30
0.0
 40
0.0068364120999805
 50
285.7531628519049036
 51
352.4600484429475955
  0
LINE
  5
1FBB8
  8
0
 10
4652.9568636372259789
 20
477.8763823727770159
 30
0.0
 11
4652.9310501540257974
 21
477.86893066197689
 31
0.0
  0
LINE
  5
1FBB9
  8
0
 10
4652.9255905063264436
 20
477.86893066197689
 30
0.0
 11
4652.8997770230262176
 21
477.8763823727770159
 31
0.0
  0
ARC
  5
1FBBA
  8
0
 10
4652.929812660879179
 20
477.8737816221610046
 30
0.0
 40
0.0050063164099097
 50
252.6571062873155995
 51
284.3110779012644116
  0
ARC
  5
1FBBB
  8
0
 10
4652.926827821533152
 20
477.8737883480840765
 30
0.0
 40
0.0050127899657327
 50
255.7098956929256985
 51
287.3219200074295259
  0
LINE
  5
1FBBC
  8
0
 10
4652.9233990703260133
 20
477.9190017331559943
 30
0.0
 11
4652.9233990703260133
 21
477.9076444567770068
 31
0.0
  0
LINE
  5
1FBBD
  8
0
 10
4652.8997770231253526
 20
477.9266811043768826
 30
0.0
 11
4652.8997770231253526
 21
477.8937221323769222
 31
0.0
  0
ARC
  5
1FBBE
  8
0
 10
4652.9300486689917307
 20
477.9084309194068965
 30
0.0
 40
0.0066959454823001
 50
186.7451629251156078
 51
255.041625779999606
  0
LINE
  5
1FBBF
  8
0
 10
4652.8761549758246474
 20
477.9190017330769251
 30
0.0
 11
4652.8761549758246474
 21
477.9076444567770068
 31
0.0
  0
ARC
  5
1FBC0
  8
0
 10
4652.8693776740356043
 20
477.9085415135534731
 30
0.0
 40
0.0068364120999805
 50
285.7531628519049036
 51
352.4600484429475955
  0
LINE
  5
1FBC1
  8
0
 10
4652.928320330124734
 20
477.9011016017768725
 30
0.0
 11
4652.9025068469245525
 21
477.8936498909769739
 31
0.0
  0
LINE
  5
1FBC2
  8
0
 10
4652.8970471992251987
 20
477.8936498909769739
 30
0.0
 11
4652.8712337159258823
 21
477.9011016017768725
 31
0.0
  0
ARC
  5
1FBC3
  8
0
 10
4652.9012693537788437
 20
477.8985008511609749
 30
0.0
 40
0.0050063164099097
 50
252.6571062873155995
 51
284.3110779012644116
  0
ARC
  5
1FBC4
  8
0
 10
4652.8982845144337261
 20
477.8985075770841036
 30
0.0
 40
0.0050127899657327
 50
255.7098956929256985
 51
287.3219200074295259
  0
LINE
  5
1FBC5
  8
0
 10
4652.9519423774254392
 20
477.943720962256009
 30
0.0
 11
4652.9519423774254392
 21
477.9323636858769078
 31
0.0
  0
LINE
  5
1FBC6
  8
0
 10
4652.9283203302247784
 20
477.9514003334768972
 30
0.0
 11
4652.9283203302247784
 21
477.91844136147688
 31
0.0
  0
ARC
  5
1FBC7
  8
0
 10
4652.9585919760929755
 20
477.9331501485069111
 30
0.0
 40
0.0066959454823001
 50
186.7451629251156078
 51
255.041625779999606
  0
LINE
  5
1FBC8
  8
0
 10
4652.9046982829258923
 20
477.9437209621768829
 30
0.0
 11
4652.9046982829258923
 21
477.9323636858769078
 31
0.0
  0
ARC
  5
1FBC9
  8
0
 10
4652.8979209811359397
 20
477.9332607426534878
 30
0.0
 40
0.0068364120999805
 50
285.7531628519049036
 51
352.4600484429475955
  0
LINE
  5
1FBCA
  8
0
 10
4652.9568636372259789
 20
477.9258208308768872
 30
0.0
 11
4652.9310501540257974
 21
477.9183691200768749
 31
0.0
  0
LINE
  5
1FBCB
  8
0
 10
4652.9255905063264436
 20
477.9183691200768749
 30
0.0
 11
4652.8997770230262176
 21
477.9258208308768872
 31
0.0
  0
ARC
  5
1FBCC
  8
0
 10
4652.929812660879179
 20
477.9232200802609896
 30
0.0
 40
0.0050063164099097
 50
252.6571062873155995
 51
284.3110779012644116
  0
ARC
  5
1FBCD
  8
0
 10
4652.926827821533152
 20
477.9232268061841182
 30
0.0
 40
0.0050127899657327
 50
255.7098956929256985
 51
287.3219200074295259
  0
LINE
  5
1FBCE
  8
0
 10
4652.9233990703260133
 20
477.9684401912559792
 30
0.0
 11
4652.9233990703260133
 21
477.957082914876878
 31
0.0
  0
LINE
  5
1FBCF
  8
0
 10
4652.8997770231253526
 20
477.9761195624769243
 30
0.0
 11
4652.8997770231253526
 21
477.9431605904769071
 31
0.0
  0
ARC
  5
1FBD0
  8
0
 10
4652.9300486689917307
 20
477.9578693775069951
 30
0.0
 40
0.0066959454823001
 50
186.7451629251156078
 51
255.041625779999606
  0
LINE
  5
1FBD1
  8
0
 10
4652.8761549758246474
 20
477.9684401911770237
 30
0.0
 11
4652.8761549758246474
 21
477.957082914876878
 31
0.0
  0
ARC
  5
1FBD2
  8
0
 10
4652.8693776740356043
 20
477.9579799716535149
 30
0.0
 40
0.0068364120999805
 50
285.7531628519049036
 51
352.4600484429475955
  0
LINE
  5
1FBD3
  8
0
 10
4652.928320330124734
 20
477.9505400598769143
 30
0.0
 11
4652.9025068469245525
 21
477.943088349076902
 31
0.0
  0
LINE
  5
1FBD4
  8
0
 10
4652.8970471992251987
 20
477.943088349076902
 30
0.0
 11
4652.8712337159258823
 21
477.9505400598769143
 31
0.0
  0
ARC
  5
1FBD5
  8
0
 10
4652.9012693537788437
 20
477.9479393092610735
 30
0.0
 40
0.0050063164099097
 50
252.6571062873155995
 51
284.3110779012644116
  0
ARC
  5
1FBD6
  8
0
 10
4652.8982845144337261
 20
477.9479460351840885
 30
0.0
 40
0.0050127899657327
 50
255.7098956929256985
 51
287.3219200074295259
  0
LINE
  5
1FBD7
  8
0
 10
4652.8948557632247685
 20
477.943720962256009
 30
0.0
 11
4652.8948557632247685
 21
477.9323636858769078
 31
0.0
  0
LINE
  5
1FBD8
  8
0
 10
4652.8712337160259267
 20
477.9514003334768972
 30
0.0
 11
4652.8712337160259267
 21
477.91844136147688
 31
0.0
  0
ARC
  5
1FBD9
  8
0
 10
4652.9015053618923048
 20
477.9331501485069111
 30
0.0
 40
0.0066959454823001
 50
186.7451629251156078
 51
255.041625779999606
  0
LINE
  5
1FBDA
  8
0
 10
4652.847611668724312
 20
477.9437209621768829
 30
0.0
 11
4652.847611668724312
 21
477.9323636858769078
 31
0.0
  0
ARC
  5
1FBDB
  8
0
 10
4652.8408343669361784
 20
477.9332607426534878
 30
0.0
 40
0.0068364120999805
 50
285.7531628519049036
 51
352.4600484429475955
  0
LINE
  5
1FBDC
  8
0
 10
4652.8997770230262176
 20
477.9258208308768872
 30
0.0
 11
4652.8739635398260361
 21
477.9183691200768749
 31
0.0
  0
LINE
  5
1FBDD
  8
0
 10
4652.8685038921257728
 20
477.9183691200768749
 30
0.0
 11
4652.8426904088246374
 21
477.9258208308768872
 31
0.0
  0
ARC
  5
1FBDE
  8
0
 10
4652.8727260466794178
 20
477.9232200802609896
 30
0.0
 40
0.0050063164099097
 50
252.6571062873155995
 51
284.3110779012644116
  0
ARC
  5
1FBDF
  8
0
 10
4652.8697412073333908
 20
477.9232268061841182
 30
0.0
 40
0.0050127899657327
 50
255.7098956929256985
 51
287.3219200074295259
  0
LINE
  5
1FBE0
  8
0
 10
4652.9233990703260133
 20
477.9684401912559792
 30
0.0
 11
4652.9233990703260133
 21
477.957082914876878
 31
0.0
  0
LINE
  5
1FBE1
  8
0
 10
4652.8997770231253526
 20
477.9761195624769243
 30
0.0
 11
4652.8997770231253526
 21
477.9431605904769071
 31
0.0
  0
ARC
  5
1FBE2
  8
0
 10
4652.9300486689917307
 20
477.9578693775069951
 30
0.0
 40
0.0066959454823001
 50
186.7451629251156078
 51
255.041625779999606
  0
LINE
  5
1FBE3
  8
0
 10
4652.8761549758246474
 20
477.9684401911770237
 30
0.0
 11
4652.8761549758246474
 21
477.957082914876878
 31
0.0
  0
ARC
  5
1FBE4
  8
0
 10
4652.8693776740356043
 20
477.9579799716535149
 30
0.0
 40
0.0068364120999805
 50
285.7531628519049036
 51
352.4600484429475955
  0
LINE
  5
1FBE5
  8
0
 10
4652.928320330124734
 20
477.9505400598769143
 30
0.0
 11
4652.9025068469245525
 21
477.943088349076902
 31
0.0
  0
LINE
  5
1FBE6
  8
0
 10
4652.8970471992251987
 20
477.943088349076902
 30
0.0
 11
4652.8712337159258823
 21
477.9505400598769143
 31
0.0
  0
ARC
  5
1FBE7
  8
0
 10
4652.9012693537788437
 20
477.9479393092610735
 30
0.0
 40
0.0050063164099097
 50
252.6571062873155995
 51
284.3110779012644116
  0
ARC
  5
1FBE8
  8
0
 10
4652.8982845144337261
 20
477.9479460351840885
 30
0.0
 40
0.0050127899657327
 50
255.7098956929256985
 51
287.3219200074295259
  0
LINE
  5
1FBE9
  8
0
 10
4652.8948557632247685
 20
477.9931594202560063
 30
0.0
 11
4652.8948557632247685
 21
477.9818021438769051
 31
0.0
  0
LINE
  5
1FBEA
  8
0
 10
4652.8712337160259267
 20
478.0008387914768946
 30
0.0
 11
4652.8712337160259267
 21
477.9678798194768774
 31
0.0
  0
ARC
  5
1FBEB
  8
0
 10
4652.9015053618923048
 20
477.9825886065069085
 30
0.0
 40
0.0066959454823001
 50
186.7451629251156078
 51
255.041625779999606
  0
LINE
  5
1FBEC
  8
0
 10
4652.847611668724312
 20
477.9931594201768803
 30
0.0
 11
4652.847611668724312
 21
477.9818021438769051
 31
0.0
  0
ARC
  5
1FBED
  8
0
 10
4652.8408343669361784
 20
477.9826992006535988
 30
0.0
 40
0.0068364120999805
 50
285.7531628519049036
 51
352.4600484429475955
  0
LINE
  5
1FBEE
  8
0
 10
4652.8997770230262176
 20
477.9752592888768845
 30
0.0
 11
4652.8739635398260361
 21
477.9678075780768722
 31
0.0
  0
LINE
  5
1FBEF
  8
0
 10
4652.8685038921257728
 20
477.9678075780768722
 30
0.0
 11
4652.8426904088246374
 21
477.9752592888768845
 31
0.0
  0
ARC
  5
1FBF0
  8
0
 10
4652.8727260466794178
 20
477.9726585382609869
 30
0.0
 40
0.0050063164099097
 50
252.6571062873155995
 51
284.3110779012644116
  0
ARC
  5
1FBF1
  8
0
 10
4652.8697412073333908
 20
477.9726652641841156
 30
0.0
 40
0.0050127899657327
 50
255.7098956929256985
 51
287.3219200074295259
  0
LINE
  5
1FBF2
  8
0
 10
4652.8663124561253426
 20
478.0178786493560779
 30
0.0
 11
4652.8663124561253426
 21
478.0065213729769198
 31
0.0
  0
LINE
  5
1FBF3
  8
0
 10
4652.8426904089255913
 20
478.0255580205770229
 30
0.0
 11
4652.8426904089255913
 21
477.9925990485768921
 31
0.0
  0
ARC
  5
1FBF4
  8
0
 10
4652.8729620547919694
 20
478.0073078356069232
 30
0.0
 40
0.0066959454823001
 50
186.7451629251156078
 51
255.041625779999606
  0
LINE
  5
1FBF5
  8
0
 10
4652.8190683616248862
 20
478.017878649276895
 30
0.0
 11
4652.8190683616248862
 21
478.0065213729769198
 31
0.0
  0
ARC
  5
1FBF6
  8
0
 10
4652.8122910598367525
 20
478.0074184297536135
 30
0.0
 40
0.0068364120999805
 50
285.7531628519049036
 51
352.4600484429475955
  0
LINE
  5
1FBF7
  8
0
 10
4652.8712337159258823
 20
477.9999785179768992
 30
0.0
 11
4652.8454202327257008
 21
477.9925268071768869
 31
0.0
  0
LINE
  5
1FBF8
  8
0
 10
4652.8399605850254375
 20
477.9925268071768869
 30
0.0
 11
4652.814147101724302
 21
477.9999785179768992
 31
0.0
  0
ARC
  5
1FBF9
  8
0
 10
4652.8441827395790824
 20
477.9973777673610016
 30
0.0
 40
0.0050063164099097
 50
252.6571062873155995
 51
284.3110779012644116
  0
ARC
  5
1FBFA
  8
0
 10
4652.8411979002339649
 20
477.9973844932840734
 30
0.0
 40
0.0050127899657327
 50
255.7098956929256985
 51
287.3219200074295259
  0
LINE
  5
1FBFB
  8
0
 10
4652.8948557632247685
 20
478.042597878356105
 30
0.0
 11
4652.8948557632247685
 21
478.03124060197689
 31
0.0
  0
LINE
  5
1FBFC
  8
0
 10
4652.8712337160259267
 20
478.0502772495768795
 30
0.0
 11
4652.8712337160259267
 21
478.0173182775769192
 31
0.0
  0
ARC
  5
1FBFD
  8
0
 10
4652.9015053618923048
 20
478.0320270646068934
 30
0.0
 40
0.0066959454823001
 50
186.7451629251156078
 51
255.041625779999606
  0
LINE
  5
1FBFE
  8
0
 10
4652.847611668724312
 20
478.0425978782769221
 30
0.0
 11
4652.847611668724312
 21
478.03124060197689
 31
0.0
  0
ARC
  5
1FBFF
  8
0
 10
4652.8408343669361784
 20
478.0321376587535838
 30
0.0
 40
0.0068364120999805
 50
285.7531628519049036
 51
352.4600484429475955
  0
LINE
  5
1FC00
  8
0
 10
4652.8997770230262176
 20
478.0246977469769263
 30
0.0
 11
4652.8739635398260361
 21
478.017246036176914
 31
0.0
  0
LINE
  5
1FC01
  8
0
 10
4652.8685038921257728
 20
478.017246036176914
 30
0.0
 11
4652.8426904088246374
 21
478.0246977469769263
 31
0.0
  0
ARC
  5
1FC02
  8
0
 10
4652.8727260466794178
 20
478.0220969963609718
 30
0.0
 40
0.0050063164099097
 50
252.6571062873155995
 51
284.3110779012644116
  0
ARC
  5
1FC03
  8
0
 10
4652.8697412073333908
 20
478.0221037222841005
 30
0.0
 40
0.0050127899657327
 50
255.7098956929256985
 51
287.3219200074295259
  0
LINE
  5
1FC04
  8
0
 10
4652.9519423774254392
 20
478.042597878356105
 30
0.0
 11
4652.9519423774254392
 21
478.03124060197689
 31
0.0
  0
LINE
  5
1FC05
  8
0
 10
4652.9283203302247784
 20
478.0502772495768795
 30
0.0
 11
4652.9283203302247784
 21
478.0173182775769192
 31
0.0
  0
ARC
  5
1FC06
  8
0
 10
4652.9585919760929755
 20
478.0320270646068934
 30
0.0
 40
0.0066959454823001
 50
186.7451629251156078
 51
255.041625779999606
  0
LINE
  5
1FC07
  8
0
 10
4652.9046982829258923
 20
478.0425978782769221
 30
0.0
 11
4652.9046982829258923
 21
478.03124060197689
 31
0.0
  0
ARC
  5
1FC08
  8
0
 10
4652.8979209811359397
 20
478.0321376587535838
 30
0.0
 40
0.0068364120999805
 50
285.7531628519049036
 51
352.4600484429475955
  0
LINE
  5
1FC09
  8
0
 10
4652.9568636372259789
 20
478.0246977469769263
 30
0.0
 11
4652.9310501540257974
 21
478.017246036176914
 31
0.0
  0
LINE
  5
1FC0A
  8
0
 10
4652.9255905063264436
 20
478.017246036176914
 30
0.0
 11
4652.8997770230262176
 21
478.0246977469769263
 31
0.0
  0
ARC
  5
1FC0B
  8
0
 10
4652.929812660879179
 20
478.0220969963609718
 30
0.0
 40
0.0050063164099097
 50
252.6571062873155995
 51
284.3110779012644116
  0
ARC
  5
1FC0C
  8
0
 10
4652.926827821533152
 20
478.0221037222841005
 30
0.0
 40
0.0050127899657327
 50
255.7098956929256985
 51
287.3219200074295259
  0
LINE
  5
1FC0D
  8
0
 10
4653.009028991525156
 20
478.042597878356105
 30
0.0
 11
4653.009028991525156
 21
478.03124060197689
 31
0.0
  0
LINE
  5
1FC0E
  8
0
 10
4652.9854069443254048
 20
478.0502772495768795
 30
0.0
 11
4652.9854069443254048
 21
478.0173182775769192
 31
0.0
  0
ARC
  5
1FC0F
  8
0
 10
4653.0156785901917829
 20
478.0320270646068934
 30
0.0
 40
0.0066959454823001
 50
186.7451629251156078
 51
255.041625779999606
  0
LINE
  5
1FC10
  8
0
 10
4652.9617848970246996
 20
478.0425978782769221
 30
0.0
 11
4652.9617848970246996
 21
478.03124060197689
 31
0.0
  0
ARC
  5
1FC11
  8
0
 10
4652.9550075952356565
 20
478.0321376587535838
 30
0.0
 40
0.0068364120999805
 50
285.7531628519049036
 51
352.4600484429475955
  0
LINE
  5
1FC12
  8
0
 10
4653.0139502513256957
 20
478.0246977469769263
 30
0.0
 11
4652.9881367681246047
 21
478.017246036176914
 31
0.0
  0
LINE
  5
1FC13
  8
0
 10
4652.9826771204261604
 20
478.017246036176914
 30
0.0
 11
4652.956863637125025
 21
478.0246977469769263
 31
0.0
  0
ARC
  5
1FC14
  8
0
 10
4652.9868992749788958
 20
478.0220969963609718
 30
0.0
 40
0.0050063164099097
 50
252.6571062873155995
 51
284.3110779012644116
  0
ARC
  5
1FC15
  8
0
 10
4652.9839144356328688
 20
478.0221037222841005
 30
0.0
 40
0.0050127899657327
 50
255.7098956929256985
 51
287.3219200074295259
  0
LINE
  5
1FC16
  8
0
 10
4653.0375722986245819
 20
478.0178786493560779
 30
0.0
 11
4653.0375722986245819
 21
478.0065213729769198
 31
0.0
  0
LINE
  5
1FC17
  8
0
 10
4653.0139502514257401
 20
478.0255580205770229
 30
0.0
 11
4653.0139502514257401
 21
477.9925990485768921
 31
0.0
  0
ARC
  5
1FC18
  8
0
 10
4653.0442218972921182
 20
478.0073078356069232
 30
0.0
 40
0.0066959454823001
 50
186.7451629251156078
 51
255.041625779999606
  0
LINE
  5
1FC19
  8
0
 10
4652.9903282041259445
 20
478.017878649276895
 30
0.0
 11
4652.9903282041259445
 21
478.0065213729769198
 31
0.0
  0
ARC
  5
1FC1A
  8
0
 10
4652.9835509023359919
 20
478.0074184297536135
 30
0.0
 40
0.0068364120999805
 50
285.7531628519049036
 51
352.4600484429475955
  0
LINE
  5
1FC1B
  8
0
 10
4653.0424935584260311
 20
477.9999785179768992
 30
0.0
 11
4653.0166800752258496
 21
477.9925268071768869
 31
0.0
  0
LINE
  5
1FC1C
  8
0
 10
4653.0112204275246768
 20
477.9925268071768869
 30
0.0
 11
4652.9854069442253603
 21
477.9999785179768992
 31
0.0
  0
ARC
  5
1FC1D
  8
0
 10
4653.0154425820792312
 20
477.9973777673610016
 30
0.0
 40
0.0050063164099097
 50
252.6571062873155995
 51
284.3110779012644116
  0
ARC
  5
1FC1E
  8
0
 10
4653.0124577427341137
 20
477.9973844932840734
 30
0.0
 40
0.0050127899657327
 50
255.7098956929256985
 51
287.3219200074295259
  0
LINE
  5
1FC1F
  8
0
 10
4653.042493558525166
 20
478.0008387914768946
 30
0.0
 11
4653.042493558525166
 21
477.9678798194768774
 31
0.0
  0
LINE
  5
1FC20
  8
0
 10
4653.0188715112253703
 20
477.9931594201768803
 30
0.0
 11
4653.0188715112253703
 21
477.9818021438769051
 31
0.0
  0
ARC
  5
1FC21
  8
0
 10
4653.0120942094363272
 20
477.9826992006535988
 30
0.0
 40
0.0068364120999805
 50
285.7531628519049036
 51
352.4600484429475955
  0
LINE
  5
1FC22
  8
0
 10
4653.0721913946827044
 20
477.975592572739572
 30
0.0
 11
4653.0452233823252755
 21
477.9678075780768722
 31
0.0
  0
LINE
  5
1FC23
  8
0
 10
4653.0397637346259216
 20
477.9678075780768722
 30
0.0
 11
4653.0139502513256957
 21
477.9752592888768845
 31
0.0
  0
ARC
  5
1FC24
  8
0
 10
4653.0439858891786571
 20
477.9726585382609869
 30
0.0
 40
0.0050063164099097
 50
252.6571062873155995
 51
284.3110779012644116
  0
ARC
  5
1FC25
  8
0
 10
4653.0410010498326301
 20
477.9726652641841156
 30
0.0
 40
0.0050127899657327
 50
255.7098956929256985
 51
287.3219200074295259
  0
LINE
  5
1FC26
  8
0
 10
4652.9804856845248651
 20
478.0673171074560059
 30
0.0
 11
4652.9804856845248651
 21
478.0559598310770184
 31
0.0
  0
LINE
  5
1FC27
  8
0
 10
4652.9568636373260233
 20
478.0749964786768942
 30
0.0
 11
4652.9568636373260233
 21
478.042037506676877
 31
0.0
  0
ARC
  5
1FC28
  8
0
 10
4652.9871352831933109
 20
478.0567462937069081
 30
0.0
 40
0.0066959454823001
 50
186.7451629251156078
 51
255.041625779999606
  0
LINE
  5
1FC29
  8
0
 10
4652.9332415900262276
 20
478.0673171073768799
 30
0.0
 11
4652.9332415900262276
 21
478.0559598310770184
 31
0.0
  0
ARC
  5
1FC2A
  8
0
 10
4652.926464288236275
 20
478.0568568878534847
 30
0.0
 40
0.0068364120999805
 50
285.7531628519049036
 51
352.4600484429475955
  0
LINE
  5
1FC2B
  8
0
 10
4652.9854069443254048
 20
478.0494169760768841
 30
0.0
 11
4652.9595934611252233
 21
478.0419652652768718
 31
0.0
  0
LINE
  5
1FC2C
  8
0
 10
4652.9541338134258694
 20
478.0419652652768718
 30
0.0
 11
4652.928320330124734
 21
478.0494169760768841
 31
0.0
  0
ARC
  5
1FC2D
  8
0
 10
4652.9583559679776954
 20
478.0468162254609865
 30
0.0
 40
0.0050063164099097
 50
252.6571062873155995
 51
284.3110779012644116
  0
ARC
  5
1FC2E
  8
0
 10
4652.9553711286325779
 20
478.0468229513841152
 30
0.0
 40
0.0050127899657327
 50
255.7098956929256985
 51
287.3219200074295259
  0
LINE
  5
1FC2F
  8
0
 10
4652.9233990703260133
 20
478.0673171074560059
 30
0.0
 11
4652.9233990703260133
 21
478.0559598310770184
 31
0.0
  0
LINE
  5
1FC30
  8
0
 10
4652.8997770231253526
 20
478.0749964786768942
 30
0.0
 11
4652.8997770231253526
 21
478.042037506676877
 31
0.0
  0
ARC
  5
1FC31
  8
0
 10
4652.9300486689917307
 20
478.0567462937069081
 30
0.0
 40
0.0066959454823001
 50
186.7451629251156078
 51
255.041625779999606
  0
LINE
  5
1FC32
  8
0
 10
4652.8761549758246474
 20
478.0673171073768799
 30
0.0
 11
4652.8761549758246474
 21
478.0559598310770184
 31
0.0
  0
ARC
  5
1FC33
  8
0
 10
4652.8693776740356043
 20
478.0568568878534847
 30
0.0
 40
0.0068364120999805
 50
285.7531628519049036
 51
352.4600484429475955
  0
LINE
  5
1FC34
  8
0
 10
4652.928320330124734
 20
478.0494169760768841
 30
0.0
 11
4652.9025068469245525
 21
478.0419652652768718
 31
0.0
  0
LINE
  5
1FC35
  8
0
 10
4652.8970471992251987
 20
478.0419652652768718
 30
0.0
 11
4652.8712337159258823
 21
478.0494169760768841
 31
0.0
  0
ARC
  5
1FC36
  8
0
 10
4652.9012693537788437
 20
478.0468162254609865
 30
0.0
 40
0.0050063164099097
 50
252.6571062873155995
 51
284.3110779012644116
  0
ARC
  5
1FC37
  8
0
 10
4652.8982845144337261
 20
478.0468229513841152
 30
0.0
 40
0.0050127899657327
 50
255.7098956929256985
 51
287.3219200074295259
  0
LINE
  5
1FC38
  8
0
 10
4652.9519423774254392
 20
478.0881280423997737
 30
0.0
 11
4652.9519423774254392
 21
478.080679060076875
 31
0.0
  0
LINE
  5
1FC39
  8
0
 10
4652.9283203302247784
 20
478.0967368988804083
 30
0.0
 11
4652.9283203302247784
 21
478.0667567356769041
 31
0.0
  0
ARC
  5
1FC3A
  8
0
 10
4652.9585919760929755
 20
478.081465522706992
 30
0.0
 40
0.0066959454823001
 50
186.7451629251156078
 51
255.041625779999606
  0
LINE
  5
1FC3B
  8
0
 10
4652.9046982829258923
 20
478.092036336376907
 30
0.0
 11
4652.9046982829258923
 21
478.080679060076875
 31
0.0
  0
ARC
  5
1FC3C
  8
0
 10
4652.8979209811359397
 20
478.0815761168535118
 30
0.0
 40
0.0068364120999805
 50
285.7531628519049036
 51
352.4600484429475955
  0
LINE
  5
1FC3D
  8
0
 10
4652.9568636372259789
 20
478.0741362050769112
 30
0.0
 11
4652.9310501540257974
 21
478.0666844942770126
 31
0.0
  0
LINE
  5
1FC3E
  8
0
 10
4652.9255905063264436
 20
478.0666844942770126
 30
0.0
 11
4652.8997770230262176
 21
478.0741362050769112
 31
0.0
  0
ARC
  5
1FC3F
  8
0
 10
4652.929812660879179
 20
478.0715354544610136
 30
0.0
 40
0.0050063164099097
 50
252.6571062873155995
 51
284.3110779012644116
  0
ARC
  5
1FC40
  8
0
 10
4652.926827821533152
 20
478.0715421803840854
 30
0.0
 40
0.0050127899657327
 50
255.7098956929256985
 51
287.3219200074295259
  0
LINE
  5
1FC41
  8
0
 10
4652.8948557632247685
 20
478.0920363364559762
 30
0.0
 11
4652.8948557632247685
 21
478.080679060076875
 31
0.0
  0
LINE
  5
1FC42
  8
0
 10
4652.8712337160259267
 20
478.0997157076769213
 30
0.0
 11
4652.8712337160259267
 21
478.0667567356769041
 31
0.0
  0
ARC
  5
1FC43
  8
0
 10
4652.9015053618923048
 20
478.081465522706992
 30
0.0
 40
0.0066959454823001
 50
186.7451629251156078
 51
255.041625779999606
  0
LINE
  5
1FC44
  8
0
 10
4652.847611668724312
 20
478.092036336376907
 30
0.0
 11
4652.847611668724312
 21
478.080679060076875
 31
0.0
  0
ARC
  5
1FC45
  8
0
 10
4652.8408343669361784
 20
478.0815761168535118
 30
0.0
 40
0.0068364120999805
 50
285.7531628519049036
 51
352.4600484429475955
  0
LINE
  5
1FC46
  8
0
 10
4652.8997770230262176
 20
478.0741362050769112
 30
0.0
 11
4652.8739635398260361
 21
478.0666844942770126
 31
0.0
  0
LINE
  5
1FC47
  8
0
 10
4652.8685038921257728
 20
478.0666844942770126
 30
0.0
 11
4652.8426904088246374
 21
478.0741362050769112
 31
0.0
  0
ARC
  5
1FC48
  8
0
 10
4652.8727260466794178
 20
478.0715354544610136
 30
0.0
 40
0.0050063164099097
 50
252.6571062873155995
 51
284.3110779012644116
  0
ARC
  5
1FC49
  8
0
 10
4652.8697412073333908
 20
478.0715421803840854
 30
0.0
 40
0.0050127899657327
 50
255.7098956929256985
 51
287.3219200074295259
  0
LINE
  5
1FC4A
  8
0
 10
4652.8377691490259167
 20
478.0920363364559762
 30
0.0
 11
4652.8377691490259167
 21
478.080679060076875
 31
0.0
  0
LINE
  5
1FC4B
  8
0
 10
4652.814147101825256
 20
478.0997157076769213
 30
0.0
 11
4652.814147101825256
 21
478.0667567356769041
 31
0.0
  0
ARC
  5
1FC4C
  8
0
 10
4652.844418747693453
 20
478.081465522706992
 30
0.0
 40
0.0066959454823001
 50
186.7451629251156078
 51
255.041625779999606
  0
LINE
  5
1FC4D
  8
0
 10
4652.7905250545245508
 20
478.092036336376907
 30
0.0
 11
4652.7905250545245508
 21
478.080679060076875
 31
0.0
  0
ARC
  5
1FC4E
  8
0
 10
4652.7837477527364172
 20
478.0815761168535118
 30
0.0
 40
0.0068364120999805
 50
285.7531628519049036
 51
352.4600484429475955
  0
LINE
  5
1FC4F
  8
0
 10
4652.8426904088246374
 20
478.0741362050769112
 30
0.0
 11
4652.8168769256253654
 21
478.0666844942770126
 31
0.0
  0
LINE
  5
1FC50
  8
0
 10
4652.8114172779260116
 20
478.0666844942770126
 30
0.0
 11
4652.7856037946248762
 21
478.0741362050769112
 31
0.0
  0
ARC
  5
1FC51
  8
0
 10
4652.8156394324778375
 20
478.0715354544610136
 30
0.0
 40
0.0050063164099097
 50
252.6571062873155995
 51
284.3110779012644116
  0
ARC
  5
1FC52
  8
0
 10
4652.81265459313272
 20
478.0715421803840854
 30
0.0
 40
0.0050127899657327
 50
255.7098956929256985
 51
287.3219200074295259
  0
LINE
  5
1FC53
  8
0
 10
4652.8663124561253426
 20
478.0673171074560059
 30
0.0
 11
4652.8663124561253426
 21
478.0559598310770184
 31
0.0
  0
LINE
  5
1FC54
  8
0
 10
4652.8426904089255913
 20
478.0749964786768942
 30
0.0
 11
4652.8426904089255913
 21
478.042037506676877
 31
0.0
  0
ARC
  5
1FC55
  8
0
 10
4652.8729620547919694
 20
478.0567462937069081
 30
0.0
 40
0.0066959454823001
 50
186.7451629251156078
 51
255.041625779999606
  0
LINE
  5
1FC56
  8
0
 10
4652.8190683616248862
 20
478.0673171073768799
 30
0.0
 11
4652.8190683616248862
 21
478.0559598310770184
 31
0.0
  0
ARC
  5
1FC57
  8
0
 10
4652.8122910598367525
 20
478.0568568878534847
 30
0.0
 40
0.0068364120999805
 50
285.7531628519049036
 51
352.4600484429475955
  0
LINE
  5
1FC58
  8
0
 10
4652.8712337159258823
 20
478.0494169760768841
 30
0.0
 11
4652.8454202327257008
 21
478.0419652652768718
 31
0.0
  0
LINE
  5
1FC59
  8
0
 10
4652.8399605850254375
 20
478.0419652652768718
 30
0.0
 11
4652.814147101724302
 21
478.0494169760768841
 31
0.0
  0
ARC
  5
1FC5A
  8
0
 10
4652.8441827395790824
 20
478.0468162254609865
 30
0.0
 40
0.0050063164099097
 50
252.6571062873155995
 51
284.3110779012644116
  0
ARC
  5
1FC5B
  8
0
 10
4652.8411979002339649
 20
478.0468229513841152
 30
0.0
 40
0.0050127899657327
 50
255.7098956929256985
 51
287.3219200074295259
  0
LINE
  5
1FC5C
  8
0
 10
4652.8377691490259167
 20
478.042597878356105
 30
0.0
 11
4652.8377691490259167
 21
478.03124060197689
 31
0.0
  0
LINE
  5
1FC5D
  8
0
 10
4652.814147101825256
 20
478.0502772495768795
 30
0.0
 11
4652.814147101825256
 21
478.0173182775769192
 31
0.0
  0
ARC
  5
1FC5E
  8
0
 10
4652.844418747693453
 20
478.0320270646068934
 30
0.0
 40
0.0066959454823001
 50
186.7451629251156078
 51
255.041625779999606
  0
LINE
  5
1FC5F
  8
0
 10
4652.7905250545245508
 20
478.0425978782769221
 30
0.0
 11
4652.7905250545245508
 21
478.03124060197689
 31
0.0
  0
ARC
  5
1FC60
  8
0
 10
4652.7837477527364172
 20
478.0321376587535838
 30
0.0
 40
0.0068364120999805
 50
285.7531628519049036
 51
352.4600484429475955
  0
LINE
  5
1FC61
  8
0
 10
4652.8426904088246374
 20
478.0246977469769263
 30
0.0
 11
4652.8168769256253654
 21
478.017246036176914
 31
0.0
  0
LINE
  5
1FC62
  8
0
 10
4652.8114172779260116
 20
478.017246036176914
 30
0.0
 11
4652.7856037946248762
 21
478.0246977469769263
 31
0.0
  0
ARC
  5
1FC63
  8
0
 10
4652.8156394324778375
 20
478.0220969963609718
 30
0.0
 40
0.0050063164099097
 50
252.6571062873155995
 51
284.3110779012644116
  0
ARC
  5
1FC64
  8
0
 10
4652.81265459313272
 20
478.0221037222841005
 30
0.0
 40
0.0050127899657327
 50
255.7098956929256985
 51
287.3219200074295259
  0
LINE
  5
1FC65
  8
0
 10
4652.8092258419255813
 20
478.0673171074560059
 30
0.0
 11
4652.8092258419255813
 21
478.0559598310770184
 31
0.0
  0
LINE
  5
1FC66
  8
0
 10
4652.7856037947249206
 20
478.0749964786768942
 30
0.0
 11
4652.7856037947249206
 21
478.042037506676877
 31
0.0
  0
ARC
  5
1FC67
  8
0
 10
4652.8158754405931177
 20
478.0567462937069081
 30
0.0
 40
0.0066959454823001
 50
186.7451629251156078
 51
255.041625779999606
  0
LINE
  5
1FC68
  8
0
 10
4652.7619817474260344
 20
478.0673171073768799
 30
0.0
 11
4652.7619817474260344
 21
478.0559598310770184
 31
0.0
  0
ARC
  5
1FC69
  8
0
 10
4652.7552044456360818
 20
478.0568568878534847
 30
0.0
 40
0.0068364120999805
 50
285.7531628519049036
 51
352.4600484429475955
  0
LINE
  5
1FC6A
  8
0
 10
4652.814147101724302
 20
478.0494169760768841
 30
0.0
 11
4652.7883336185259395
 21
478.0419652652768718
 31
0.0
  0
LINE
  5
1FC6B
  8
0
 10
4652.7828739708247667
 20
478.0419652652768718
 30
0.0
 11
4652.7570604875263598
 21
478.0494169760768841
 31
0.0
  0
ARC
  5
1FC6C
  8
0
 10
4652.7870961253784117
 20
478.0468162254609865
 30
0.0
 40
0.0050063164099097
 50
252.6571062873155995
 51
284.3110779012644116
  0
ARC
  5
1FC6D
  8
0
 10
4652.7841112860342037
 20
478.0468229513841152
 30
0.0
 40
0.0050127899657327
 50
255.7098956929256985
 51
287.3219200074295259
  0
LINE
  5
1FC6E
  8
0
 10
4652.8092258419255813
 20
478.1167555655559909
 30
0.0
 11
4652.8092258419255813
 21
478.1053982891768896
 31
0.0
  0
LINE
  5
1FC6F
  8
0
 10
4652.7856037947249206
 20
478.1212106299840912
 30
0.0
 11
4652.7856037947249206
 21
478.0914759647769188
 31
0.0
  0
ARC
  5
1FC70
  8
0
 10
4652.8158754405931177
 20
478.106184751806893
 30
0.0
 40
0.0066959454823001
 50
186.7451629251156078
 51
255.041625779999606
  0
LINE
  5
1FC71
  8
0
 10
4652.7619817474260344
 20
478.1167555654769217
 30
0.0
 11
4652.7619817474260344
 21
478.1053982891768896
 31
0.0
  0
ARC
  5
1FC72
  8
0
 10
4652.7552044456360818
 20
478.1062953459535265
 30
0.0
 40
0.0068364120999805
 50
285.7531628519049036
 51
352.4600484429475955
  0
LINE
  5
1FC73
  8
0
 10
4652.814147101724302
 20
478.0988554341769259
 30
0.0
 11
4652.7883336185259395
 21
478.0914037233769136
 31
0.0
  0
LINE
  5
1FC74
  8
0
 10
4652.7828739708247667
 20
478.0914037233769136
 30
0.0
 11
4652.7570604875263598
 21
478.0988554341769259
 31
0.0
  0
ARC
  5
1FC75
  8
0
 10
4652.7870961253784117
 20
478.0962546835610283
 30
0.0
 40
0.0050063164099097
 50
252.6571062873155995
 51
284.3110779012644116
  0
ARC
  5
1FC76
  8
0
 10
4652.7841112860342037
 20
478.0962614094841001
 30
0.0
 40
0.0050127899657327
 50
255.7098956929256985
 51
287.3219200074295259
  0
LINE
  5
1FC77
  8
0
 10
4652.8663124561253426
 20
478.1120741073291924
 30
0.0
 11
4652.8663124561253426
 21
478.1053982891768896
 31
0.0
  0
LINE
  5
1FC78
  8
0
 10
4652.8426904089255913
 20
478.1158727163632989
 30
0.0
 11
4652.8426904089255913
 21
478.0914759647769188
 31
0.0
  0
ARC
  5
1FC79
  8
0
 10
4652.8729620547919694
 20
478.106184751806893
 30
0.0
 40
0.0066959454823001
 50
186.7451629251156078
 51
255.041625779999606
  0
LINE
  5
1FC7A
  8
0
 10
4652.8190683616248862
 20
478.1167555654769217
 30
0.0
 11
4652.8190683616248862
 21
478.1053982891768896
 31
0.0
  0
ARC
  5
1FC7B
  8
0
 10
4652.8122910598367525
 20
478.1062953459535265
 30
0.0
 40
0.0068364120999805
 50
285.7531628519049036
 51
352.4600484429475955
  0
LINE
  5
1FC7C
  8
0
 10
4652.8712337159258823
 20
478.0988554341769259
 30
0.0
 11
4652.8454202327257008
 21
478.0914037233769136
 31
0.0
  0
LINE
  5
1FC7D
  8
0
 10
4652.8399605850254375
 20
478.0914037233769136
 30
0.0
 11
4652.814147101724302
 21
478.0988554341769259
 31
0.0
  0
ARC
  5
1FC7E
  8
0
 10
4652.8441827395790824
 20
478.0962546835610283
 30
0.0
 40
0.0050063164099097
 50
252.6571062873155995
 51
284.3110779012644116
  0
ARC
  5
1FC7F
  8
0
 10
4652.8411979002339649
 20
478.0962614094841001
 30
0.0
 40
0.0050127899657327
 50
255.7098956929256985
 51
287.3219200074295259
  0
LINE
  5
1FC80
  8
0
 10
4652.8997770231253526
 20
478.1050116468817919
 30
0.0
 11
4652.8997770231253526
 21
478.0914759647769188
 31
0.0
  0
LINE
  5
1FC81
  8
0
 10
4652.8761549758246474
 20
478.110210861997075
 30
0.0
 11
4652.8761549758246474
 21
478.1053982891768896
 31
0.0
  0
ARC
  5
1FC82
  8
0
 10
4652.8693776740356043
 20
478.1062953459535265
 30
0.0
 40
0.0068364120999805
 50
285.7531628519049036
 51
352.4600484429475955
  0
LINE
  5
1FC83
  8
0
 10
4652.924867795361024
 20
478.0978587732304845
 30
0.0
 11
4652.9025068469245525
 21
478.0914037233769136
 31
0.0
  0
LINE
  5
1FC84
  8
0
 10
4652.8970471992251987
 20
478.0914037233769136
 30
0.0
 11
4652.8712337159258823
 21
478.0988554341769259
 31
0.0
  0
ARC
  5
1FC85
  8
0
 10
4652.9012693537788437
 20
478.0962546835610283
 30
0.0
 40
0.0050063164099097
 50
252.6571062873155995
 51
284.3110779012644116
  0
ARC
  5
1FC86
  8
0
 10
4652.8982845144337261
 20
478.0962614094841001
 30
0.0
 40
0.0050127899657327
 50
255.7098956929256985
 51
287.3219200074295259
  0
LINE
  5
1FC87
  8
0
 10
4652.8377691490259167
 20
477.9931594202560063
 30
0.0
 11
4652.8377691490259167
 21
477.9818021438769051
 31
0.0
  0
LINE
  5
1FC88
  8
0
 10
4652.814147101825256
 20
478.0008387914768946
 30
0.0
 11
4652.814147101825256
 21
477.9678798194768774
 31
0.0
  0
ARC
  5
1FC89
  8
0
 10
4652.844418747693453
 20
477.9825886065069085
 30
0.0
 40
0.0066959454823001
 50
186.7451629251156078
 51
255.041625779999606
  0
LINE
  5
1FC8A
  8
0
 10
4652.7905250545245508
 20
477.9931594201768803
 30
0.0
 11
4652.7905250545245508
 21
477.9818021438769051
 31
0.0
  0
ARC
  5
1FC8B
  8
0
 10
4652.7837477527364172
 20
477.9826992006535988
 30
0.0
 40
0.0068364120999805
 50
285.7531628519049036
 51
352.4600484429475955
  0
LINE
  5
1FC8C
  8
0
 10
4652.8426904088246374
 20
477.9752592888768845
 30
0.0
 11
4652.8168769256253654
 21
477.9678075780768722
 31
0.0
  0
LINE
  5
1FC8D
  8
0
 10
4652.8114172779260116
 20
477.9678075780768722
 30
0.0
 11
4652.7856037946248762
 21
477.9752592888768845
 31
0.0
  0
ARC
  5
1FC8E
  8
0
 10
4652.8156394324778375
 20
477.9726585382609869
 30
0.0
 40
0.0050063164099097
 50
252.6571062873155995
 51
284.3110779012644116
  0
ARC
  5
1FC8F
  8
0
 10
4652.81265459313272
 20
477.9726652641841156
 30
0.0
 40
0.0050127899657327
 50
255.7098956929256985
 51
287.3219200074295259
  0
LINE
  5
1FC90
  8
0
 10
4652.8663124561253426
 20
477.9684401912559792
 30
0.0
 11
4652.8663124561253426
 21
477.957082914876878
 31
0.0
  0
LINE
  5
1FC91
  8
0
 10
4652.8426904089255913
 20
477.9761195624769243
 30
0.0
 11
4652.8426904089255913
 21
477.9431605904769071
 31
0.0
  0
ARC
  5
1FC92
  8
0
 10
4652.8729620547919694
 20
477.9578693775069951
 30
0.0
 40
0.0066959454823001
 50
186.7451629251156078
 51
255.041625779999606
  0
LINE
  5
1FC93
  8
0
 10
4652.8190683616248862
 20
477.9684401911770237
 30
0.0
 11
4652.8190683616248862
 21
477.957082914876878
 31
0.0
  0
ARC
  5
1FC94
  8
0
 10
4652.8122910598367525
 20
477.9579799716535149
 30
0.0
 40
0.0068364120999805
 50
285.7531628519049036
 51
352.4600484429475955
  0
LINE
  5
1FC95
  8
0
 10
4652.8712337159258823
 20
477.9505400598769143
 30
0.0
 11
4652.8454202327257008
 21
477.943088349076902
 31
0.0
  0
LINE
  5
1FC96
  8
0
 10
4652.8399605850254375
 20
477.943088349076902
 30
0.0
 11
4652.814147101724302
 21
477.9505400598769143
 31
0.0
  0
ARC
  5
1FC97
  8
0
 10
4652.8441827395790824
 20
477.9479393092610735
 30
0.0
 40
0.0050063164099097
 50
252.6571062873155995
 51
284.3110779012644116
  0
ARC
  5
1FC98
  8
0
 10
4652.8411979002339649
 20
477.9479460351840885
 30
0.0
 40
0.0050127899657327
 50
255.7098956929256985
 51
287.3219200074295259
  0
LINE
  5
1FC99
  8
0
 10
4652.8377691490259167
 20
477.943720962256009
 30
0.0
 11
4652.8377691490259167
 21
477.9323636858769078
 31
0.0
  0
LINE
  5
1FC9A
  8
0
 10
4652.814147101825256
 20
477.9514003334768972
 30
0.0
 11
4652.814147101825256
 21
477.91844136147688
 31
0.0
  0
ARC
  5
1FC9B
  8
0
 10
4652.844418747693453
 20
477.9331501485069111
 30
0.0
 40
0.0066959454823001
 50
186.7451629251156078
 51
255.041625779999606
  0
LINE
  5
1FC9C
  8
0
 10
4652.7905250545245508
 20
477.9437209621768829
 30
0.0
 11
4652.7905250545245508
 21
477.9323636858769078
 31
0.0
  0
ARC
  5
1FC9D
  8
0
 10
4652.7837477527364172
 20
477.9332607426534878
 30
0.0
 40
0.0068364120999805
 50
285.7531628519049036
 51
352.4600484429475955
  0
LINE
  5
1FC9E
  8
0
 10
4652.8426904088246374
 20
477.9258208308768872
 30
0.0
 11
4652.8168769256253654
 21
477.9183691200768749
 31
0.0
  0
LINE
  5
1FC9F
  8
0
 10
4652.8114172779260116
 20
477.9183691200768749
 30
0.0
 11
4652.7856037946248762
 21
477.9258208308768872
 31
0.0
  0
ARC
  5
1FCA0
  8
0
 10
4652.8156394324778375
 20
477.9232200802609896
 30
0.0
 40
0.0050063164099097
 50
252.6571062873155995
 51
284.3110779012644116
  0
ARC
  5
1FCA1
  8
0
 10
4652.81265459313272
 20
477.9232268061841182
 30
0.0
 40
0.0050127899657327
 50
255.7098956929256985
 51
287.3219200074295259
  0
LINE
  5
1FCA2
  8
0
 10
4652.8663124561253426
 20
477.9190017331559943
 30
0.0
 11
4652.8663124561253426
 21
477.9076444567770068
 31
0.0
  0
LINE
  5
1FCA3
  8
0
 10
4652.8426904089255913
 20
477.9266811043768826
 30
0.0
 11
4652.8426904089255913
 21
477.8937221323769222
 31
0.0
  0
ARC
  5
1FCA4
  8
0
 10
4652.8729620547919694
 20
477.9084309194068965
 30
0.0
 40
0.0066959454823001
 50
186.7451629251156078
 51
255.041625779999606
  0
LINE
  5
1FCA5
  8
0
 10
4652.8190683616248862
 20
477.9190017330769251
 30
0.0
 11
4652.8190683616248862
 21
477.9076444567770068
 31
0.0
  0
ARC
  5
1FCA6
  8
0
 10
4652.8122910598367525
 20
477.9085415135534731
 30
0.0
 40
0.0068364120999805
 50
285.7531628519049036
 51
352.4600484429475955
  0
LINE
  5
1FCA7
  8
0
 10
4652.8712337159258823
 20
477.9011016017768725
 30
0.0
 11
4652.8454202327257008
 21
477.8936498909769739
 31
0.0
  0
LINE
  5
1FCA8
  8
0
 10
4652.8399605850254375
 20
477.8936498909769739
 30
0.0
 11
4652.814147101724302
 21
477.9011016017768725
 31
0.0
  0
ARC
  5
1FCA9
  8
0
 10
4652.8441827395790824
 20
477.8985008511609749
 30
0.0
 40
0.0050063164099097
 50
252.6571062873155995
 51
284.3110779012644116
  0
ARC
  5
1FCAA
  8
0
 10
4652.8411979002339649
 20
477.8985075770841036
 30
0.0
 40
0.0050127899657327
 50
255.7098956929256985
 51
287.3219200074295259
  0
LINE
  5
1FCAB
  8
0
 10
4652.8948557632247685
 20
477.8942825041560809
 30
0.0
 11
4652.8948557632247685
 21
477.8829252277769228
 31
0.0
  0
LINE
  5
1FCAC
  8
0
 10
4652.8712337160259267
 20
477.9019618753769123
 30
0.0
 11
4652.8712337160259267
 21
477.8690029033768951
 31
0.0
  0
ARC
  5
1FCAD
  8
0
 10
4652.9015053618923048
 20
477.8837116904069262
 30
0.0
 40
0.0066959454823001
 50
186.7451629251156078
 51
255.041625779999606
  0
LINE
  5
1FCAE
  8
0
 10
4652.847611668724312
 20
477.894282504076898
 30
0.0
 11
4652.847611668724312
 21
477.8829252277769228
 31
0.0
  0
ARC
  5
1FCAF
  8
0
 10
4652.8408343669361784
 20
477.8838222845536166
 30
0.0
 40
0.0068364120999805
 50
285.7531628519049036
 51
352.4600484429475955
  0
LINE
  5
1FCB0
  8
0
 10
4652.8997770230262176
 20
477.8763823727770159
 30
0.0
 11
4652.8739635398260361
 21
477.86893066197689
 31
0.0
  0
LINE
  5
1FCB1
  8
0
 10
4652.8685038921257728
 20
477.86893066197689
 30
0.0
 11
4652.8426904088246374
 21
477.8763823727770159
 31
0.0
  0
ARC
  5
1FCB2
  8
0
 10
4652.8727260466794178
 20
477.8737816221610046
 30
0.0
 40
0.0050063164099097
 50
252.6571062873155995
 51
284.3110779012644116
  0
ARC
  5
1FCB3
  8
0
 10
4652.8697412073333908
 20
477.8737883480840765
 30
0.0
 40
0.0050127899657327
 50
255.7098956929256985
 51
287.3219200074295259
  0
LINE
  5
1FCB4
  8
0
 10
4652.8663124561253426
 20
477.8695632750561231
 30
0.0
 11
4652.8663124561253426
 21
477.8582059986769082
 31
0.0
  0
LINE
  5
1FCB5
  8
0
 10
4652.8426904089255913
 20
477.8772426462770113
 30
0.0
 11
4652.8426904089255913
 21
477.8442836742768804
 31
0.0
  0
ARC
  5
1FCB6
  8
0
 10
4652.8729620547919694
 20
477.8589924613069115
 30
0.0
 40
0.0066959454823001
 50
186.7451629251156078
 51
255.041625779999606
  0
LINE
  5
1FCB7
  8
0
 10
4652.8190683616248862
 20
477.8695632749768833
 30
0.0
 11
4652.8190683616248862
 21
477.8582059986769082
 31
0.0
  0
ARC
  5
1FCB8
  8
0
 10
4652.8122910598367525
 20
477.8591030554536019
 30
0.0
 40
0.0068364120999805
 50
285.7531628519049036
 51
352.4600484429475955
  0
LINE
  5
1FCB9
  8
0
 10
4652.8712337159258823
 20
477.8516631436768876
 30
0.0
 11
4652.8454202327257008
 21
477.8442114328768753
 31
0.0
  0
LINE
  5
1FCBA
  8
0
 10
4652.8399605850254375
 20
477.8442114328768753
 30
0.0
 11
4652.814147101724302
 21
477.8516631436768876
 31
0.0
  0
ARC
  5
1FCBB
  8
0
 10
4652.8441827395790824
 20
477.84906239306099
 30
0.0
 40
0.0050063164099097
 50
252.6571062873155995
 51
284.3110779012644116
  0
ARC
  5
1FCBC
  8
0
 10
4652.8411979002339649
 20
477.8490691189841186
 30
0.0
 40
0.0050127899657327
 50
255.7098956929256985
 51
287.3219200074295259
  0
LINE
  5
1FCBD
  8
0
 10
4652.8377691490259167
 20
477.8942825041560809
 30
0.0
 11
4652.8377691490259167
 21
477.8829252277769228
 31
0.0
  0
LINE
  5
1FCBE
  8
0
 10
4652.814147101825256
 20
477.9019618753769123
 30
0.0
 11
4652.814147101825256
 21
477.8690029033768951
 31
0.0
  0
ARC
  5
1FCBF
  8
0
 10
4652.844418747693453
 20
477.8837116904069262
 30
0.0
 40
0.0066959454823001
 50
186.7451629251156078
 51
255.041625779999606
  0
LINE
  5
1FCC0
  8
0
 10
4652.7905250545245508
 20
477.894282504076898
 30
0.0
 11
4652.7905250545245508
 21
477.8829252277769228
 31
0.0
  0
ARC
  5
1FCC1
  8
0
 10
4652.7837477527364172
 20
477.8838222845536166
 30
0.0
 40
0.0068364120999805
 50
285.7531628519049036
 51
352.4600484429475955
  0
LINE
  5
1FCC2
  8
0
 10
4652.8426904088246374
 20
477.8763823727770159
 30
0.0
 11
4652.8168769256253654
 21
477.86893066197689
 31
0.0
  0
LINE
  5
1FCC3
  8
0
 10
4652.8114172779260116
 20
477.86893066197689
 30
0.0
 11
4652.7856037946248762
 21
477.8763823727770159
 31
0.0
  0
ARC
  5
1FCC4
  8
0
 10
4652.8156394324778375
 20
477.8737816221610046
 30
0.0
 40
0.0050063164099097
 50
252.6571062873155995
 51
284.3110779012644116
  0
ARC
  5
1FCC5
  8
0
 10
4652.81265459313272
 20
477.8737883480840765
 30
0.0
 40
0.0050127899657327
 50
255.7098956929256985
 51
287.3219200074295259
  0
LINE
  5
1FCC6
  8
0
 10
4652.8092258419255813
 20
477.8695632750561231
 30
0.0
 11
4652.8092258419255813
 21
477.8582059986769082
 31
0.0
  0
LINE
  5
1FCC7
  8
0
 10
4652.7856037947249206
 20
477.8772426462770113
 30
0.0
 11
4652.7856037947249206
 21
477.8442836742768804
 31
0.0
  0
ARC
  5
1FCC8
  8
0
 10
4652.8158754405931177
 20
477.8589924613069115
 30
0.0
 40
0.0066959454823001
 50
186.7451629251156078
 51
255.041625779999606
  0
LINE
  5
1FCC9
  8
0
 10
4652.7619817474260344
 20
477.8695632749768833
 30
0.0
 11
4652.7619817474260344
 21
477.8582059986769082
 31
0.0
  0
ARC
  5
1FCCA
  8
0
 10
4652.7552044456360818
 20
477.8591030554536019
 30
0.0
 40
0.0068364120999805
 50
285.7531628519049036
 51
352.4600484429475955
  0
LINE
  5
1FCCB
  8
0
 10
4652.814147101724302
 20
477.8516631436768876
 30
0.0
 11
4652.7883336185259395
 21
477.8442114328768753
 31
0.0
  0
LINE
  5
1FCCC
  8
0
 10
4652.7828739708247667
 20
477.8442114328768753
 30
0.0
 11
4652.7570604875263598
 21
477.8516631436768876
 31
0.0
  0
ARC
  5
1FCCD
  8
0
 10
4652.7870961253784117
 20
477.84906239306099
 30
0.0
 40
0.0050063164099097
 50
252.6571062873155995
 51
284.3110779012644116
  0
ARC
  5
1FCCE
  8
0
 10
4652.7841112860342037
 20
477.8490691189841186
 30
0.0
 40
0.0050127899657327
 50
255.7098956929256985
 51
287.3219200074295259
  0
LINE
  5
1FCCF
  8
0
 10
4652.7806825349252904
 20
477.8942825041560809
 30
0.0
 11
4652.7806825349252904
 21
477.8829252277769228
 31
0.0
  0
LINE
  5
1FCD0
  8
0
 10
4652.7570604877246296
 20
477.9019618753769123
 30
0.0
 11
4652.7570604877246296
 21
477.8690029033768951
 31
0.0
  0
ARC
  5
1FCD1
  8
0
 10
4652.7873321335928267
 20
477.8837116904069262
 30
0.0
 40
0.0066959454823001
 50
186.7451629251156078
 51
255.041625779999606
  0
LINE
  5
1FCD2
  8
0
 10
4652.7856037947249206
 20
477.8763823727770159
 30
0.0
 11
4652.7597903115256486
 21
477.86893066197689
 31
0.0
  0
ARC
  5
1FCD3
  8
0
 10
4652.7585528183790302
 20
477.8737816221610046
 30
0.0
 40
0.0050063164099097
 50
252.6571062873155995
 51
284.3110779012644116
  0
LINE
  5
1FCD4
  8
0
 10
4652.8092258419255813
 20
477.9190017331559943
 30
0.0
 11
4652.8092258419255813
 21
477.9076444567770068
 31
0.0
  0
LINE
  5
1FCD5
  8
0
 10
4652.7856037947249206
 20
477.9266811043768826
 30
0.0
 11
4652.7856037947249206
 21
477.8937221323769222
 31
0.0
  0
ARC
  5
1FCD6
  8
0
 10
4652.8158754405931177
 20
477.9084309194068965
 30
0.0
 40
0.0066959454823001
 50
186.7451629251156078
 51
255.041625779999606
  0
LINE
  5
1FCD7
  8
0
 10
4652.7619817474260344
 20
477.9190017330769251
 30
0.0
 11
4652.7619817474260344
 21
477.9076444567770068
 31
0.0
  0
ARC
  5
1FCD8
  8
0
 10
4652.7552044456360818
 20
477.9085415135534731
 30
0.0
 40
0.0068364120999805
 50
285.7531628519049036
 51
352.4600484429475955
  0
LINE
  5
1FCD9
  8
0
 10
4652.814147101724302
 20
477.9011016017768725
 30
0.0
 11
4652.7883336185259395
 21
477.8936498909769739
 31
0.0
  0
LINE
  5
1FCDA
  8
0
 10
4652.7828739708247667
 20
477.8936498909769739
 30
0.0
 11
4652.7570604875263598
 21
477.9011016017768725
 31
0.0
  0
ARC
  5
1FCDB
  8
0
 10
4652.7870961253784117
 20
477.8985008511609749
 30
0.0
 40
0.0050063164099097
 50
252.6571062873155995
 51
284.3110779012644116
  0
ARC
  5
1FCDC
  8
0
 10
4652.7841112860342037
 20
477.8985075770841036
 30
0.0
 40
0.0050127899657327
 50
255.7098956929256985
 51
287.3219200074295259
  0
LINE
  5
1FCDD
  8
0
 10
4652.7806825349252904
 20
477.943720962256009
 30
0.0
 11
4652.7806825349252904
 21
477.9323636858769078
 31
0.0
  0
LINE
  5
1FCDE
  8
0
 10
4652.7570604877246296
 20
477.9514003334768972
 30
0.0
 11
4652.7570604877246296
 21
477.91844136147688
 31
0.0
  0
ARC
  5
1FCDF
  8
0
 10
4652.7873321335928267
 20
477.9331501485069111
 30
0.0
 40
0.0066959454823001
 50
186.7451629251156078
 51
255.041625779999606
  0
LINE
  5
1FCE0
  8
0
 10
4652.7856037947249206
 20
477.9258208308768872
 30
0.0
 11
4652.7597903115256486
 21
477.9183691200768749
 31
0.0
  0
ARC
  5
1FCE1
  8
0
 10
4652.7585528183790302
 20
477.9232200802609896
 30
0.0
 40
0.0050063164099097
 50
252.6571062873155995
 51
284.3110779012644116
  0
LINE
  5
1FCE2
  8
0
 10
4652.8092258419255813
 20
477.9684401912559792
 30
0.0
 11
4652.8092258419255813
 21
477.957082914876878
 31
0.0
  0
LINE
  5
1FCE3
  8
0
 10
4652.7856037947249206
 20
477.9761195624769243
 30
0.0
 11
4652.7856037947249206
 21
477.9431605904769071
 31
0.0
  0
ARC
  5
1FCE4
  8
0
 10
4652.8158754405931177
 20
477.9578693775069951
 30
0.0
 40
0.0066959454823001
 50
186.7451629251156078
 51
255.041625779999606
  0
LINE
  5
1FCE5
  8
0
 10
4652.7619817474260344
 20
477.9684401911770237
 30
0.0
 11
4652.7619817474260344
 21
477.957082914876878
 31
0.0
  0
ARC
  5
1FCE6
  8
0
 10
4652.7552044456360818
 20
477.9579799716535149
 30
0.0
 40
0.0068364120999805
 50
285.7531628519049036
 51
352.4600484429475955
  0
LINE
  5
1FCE7
  8
0
 10
4652.814147101724302
 20
477.9505400598769143
 30
0.0
 11
4652.7883336185259395
 21
477.943088349076902
 31
0.0
  0
LINE
  5
1FCE8
  8
0
 10
4652.7828739708247667
 20
477.943088349076902
 30
0.0
 11
4652.7570604875263598
 21
477.9505400598769143
 31
0.0
  0
ARC
  5
1FCE9
  8
0
 10
4652.7870961253784117
 20
477.9479393092610735
 30
0.0
 40
0.0050063164099097
 50
252.6571062873155995
 51
284.3110779012644116
  0
ARC
  5
1FCEA
  8
0
 10
4652.7841112860342037
 20
477.9479460351840885
 30
0.0
 40
0.0050127899657327
 50
255.7098956929256985
 51
287.3219200074295259
  0
LINE
  5
1FCEB
  8
0
 10
4652.8092258419255813
 20
478.0178786493560779
 30
0.0
 11
4652.8092258419255813
 21
478.0065213729769198
 31
0.0
  0
LINE
  5
1FCEC
  8
0
 10
4652.7856037947249206
 20
478.0255580205770229
 30
0.0
 11
4652.7856037947249206
 21
477.9925990485768921
 31
0.0
  0
ARC
  5
1FCED
  8
0
 10
4652.8158754405931177
 20
478.0073078356069232
 30
0.0
 40
0.0066959454823001
 50
186.7451629251156078
 51
255.041625779999606
  0
LINE
  5
1FCEE
  8
0
 10
4652.7619817474260344
 20
478.017878649276895
 30
0.0
 11
4652.7619817474260344
 21
478.0065213729769198
 31
0.0
  0
ARC
  5
1FCEF
  8
0
 10
4652.7552044456360818
 20
478.0074184297536135
 30
0.0
 40
0.0068364120999805
 50
285.7531628519049036
 51
352.4600484429475955
  0
LINE
  5
1FCF0
  8
0
 10
4652.814147101724302
 20
477.9999785179768992
 30
0.0
 11
4652.7883336185259395
 21
477.9925268071768869
 31
0.0
  0
ARC
  5
1FCF1
  8
0
 10
4652.7870961253784117
 20
477.9973777673610016
 30
0.0
 40
0.0050063164099097
 50
252.6571062873155995
 51
284.3110779012644116
  0
LINE
  5
1FCF2
  8
0
 10
4652.780682534825246
 20
478.042597878356105
 30
0.0
 11
4652.780682534825246
 21
478.03124060197689
 31
0.0
  0
LINE
  5
1FCF3
  8
0
 10
4652.7570604876245852
 20
478.0502772495768795
 30
0.0
 11
4652.7570604876245852
 21
478.0173182775769192
 31
0.0
  0
ARC
  5
1FCF4
  8
0
 10
4652.7873321334927823
 20
478.0320270646068934
 30
0.0
 40
0.0066959454823001
 50
186.7451629251156078
 51
255.041625779999606
  0
LINE
  5
1FCF5
  8
0
 10
4652.7856037946248762
 20
478.0246977469769263
 30
0.0
 11
4652.7597903114246947
 21
478.017246036176914
 31
0.0
  0
ARC
  5
1FCF6
  8
0
 10
4652.7585528182789858
 20
478.0220969963609718
 30
0.0
 40
0.0050063164099097
 50
252.6571062873155995
 51
284.3110779012644116
  0
LINE
  5
1FCF7
  8
0
 10
4652.780682534825246
 20
478.0920363364559762
 30
0.0
 11
4652.780682534825246
 21
478.080679060076875
 31
0.0
  0
LINE
  5
1FCF8
  8
0
 10
4652.7570604876245852
 20
478.0997157076769213
 30
0.0
 11
4652.7570604876245852
 21
478.0667567356769041
 31
0.0
  0
ARC
  5
1FCF9
  8
0
 10
4652.7873321334927823
 20
478.081465522706992
 30
0.0
 40
0.0066959454823001
 50
186.7451629251156078
 51
255.041625779999606
  0
LINE
  5
1FCFA
  8
0
 10
4652.7856037946248762
 20
478.0741362050769112
 30
0.0
 11
4652.7597903114246947
 21
478.0666844942770126
 31
0.0
  0
ARC
  5
1FCFB
  8
0
 10
4652.7585528182789858
 20
478.0715354544610136
 30
0.0
 40
0.0050063164099097
 50
252.6571062873155995
 51
284.3110779012644116
  0
LINE
  5
1FCFC
  8
0
 10
4652.814147101825256
 20
478.1192143782889161
 30
0.0
 11
4652.814147101825256
 21
478.116195193776889
 31
0.0
  0
LINE
  5
1FCFD
  8
0
 10
4652.8240869547553302
 20
478.1182043085239002
 30
0.0
 11
4652.8168769256253654
 21
478.1161229523768839
 31
0.0
  0
LINE
  5
1FCFE
  8
0
 10
4652.8114172779260116
 20
478.1161229523768839
 30
0.0
 11
4652.7957126188994152
 21
478.1206564969559736
 31
0.0
  0
ARC
  5
1FCFF
  8
0
 10
4652.8156394324778375
 20
478.1209739125609985
 30
0.0
 40
0.0050063164099097
 50
252.6571062873155995
 51
284.3110779012644116
  0
ARC
  5
1FD00
  8
0
 10
4652.81265459313272
 20
478.1209806384841272
 30
0.0
 40
0.0050127899657327
 50
255.7098956929256985
 51
287.3219200074295259
  0
LINE
  5
1FD01
  8
0
 10
4652.7784261759161382
 20
478.1215026631124942
 30
0.0
 11
4652.7597903114246947
 21
478.1161229523768839
 31
0.0
  0
ARC
  5
1FD02
  8
0
 10
4652.7585528182789858
 20
478.1209739125609985
 30
0.0
 40
0.0050063164099097
 50
252.6571062873155995
 51
284.3110779012644116
  0
LINE
  5
1FD03
  8
0
 10
4652.9854069443254048
 20
478.0729657021067851
 30
0.0
 11
4652.9854069443254048
 21
478.0667567356769041
 31
0.0
  0
LINE
  5
1FD04
  8
0
 10
4652.9941491452063929
 20
478.0684201180544051
 30
0.0
 11
4652.9881367681246047
 21
478.0666844942770126
 31
0.0
  0
LINE
  5
1FD05
  8
0
 10
4652.9826771204261604
 20
478.0666844942770126
 30
0.0
 11
4652.956863637125025
 21
478.0741362050769112
 31
0.0
  0
ARC
  5
1FD06
  8
0
 10
4652.9868992749788958
 20
478.0715354544610136
 30
0.0
 40
0.0050063164099097
 50
252.6571062873155995
 51
284.3110779012644116
  0
ARC
  5
1FD07
  8
0
 10
4652.9839144356328688
 20
478.0715421803840854
 30
0.0
 40
0.0050127899657327
 50
255.7098956929256985
 51
287.3219200074295259
  0
LINE
  5
1FD08
  8
0
 10
4653.0139502514257401
 20
478.0562115875887912
 30
0.0
 11
4653.0139502514257401
 21
478.042037506676877
 31
0.0
  0
LINE
  5
1FD09
  8
0
 10
4653.0279707300878727
 20
478.045224596616606
 30
0.0
 11
4653.0166800752258496
 21
478.0419652652768718
 31
0.0
  0
LINE
  5
1FD0A
  8
0
 10
4653.0112204275246768
 20
478.0419652652768718
 30
0.0
 11
4652.9854069442253603
 21
478.0494169760768841
 31
0.0
  0
ARC
  5
1FD0B
  8
0
 10
4653.0154425820792312
 20
478.0468162254609865
 30
0.0
 40
0.0050063164099097
 50
252.6571062873155995
 51
284.3110779012644116
  0
ARC
  5
1FD0C
  8
0
 10
4653.0124577427341137
 20
478.0468229513841152
 30
0.0
 40
0.0050127899657327
 50
255.7098956929256985
 51
287.3219200074295259
  0
LINE
  5
1FD0D
  8
0
 10
4653.042493558525166
 20
478.0311847681419977
 30
0.0
 11
4653.042493558525166
 21
478.0173182776770204
 31
0.0
  0
LINE
  5
1FD0E
  8
0
 10
4653.0525493308250589
 20
478.019360855464015
 30
0.0
 11
4653.0452233823252755
 21
478.0172460362769016
 31
0.0
  0
LINE
  5
1FD0F
  8
0
 10
4653.0397637346259216
 20
478.0172460362769016
 30
0.0
 11
4653.0139502513256957
 21
478.0246977470770275
 31
0.0
  0
ARC
  5
1FD10
  8
0
 10
4653.0439858891786571
 20
478.0220969964610163
 30
0.0
 40
0.0050063164099097
 50
252.6571062873155995
 51
284.3110779012644116
  0
ARC
  5
1FD11
  8
0
 10
4653.0410010498326301
 20
478.0221037223840881
 30
0.0
 40
0.0050127899657327
 50
255.7098956929256985
 51
287.3219200074295259
  0
LINE
  5
1FD12
  8
0
 10
4652.9903282041259445
 20
478.0673171073768799
 30
0.0
 11
4652.9903282041259445
 21
478.0559598310770184
 31
0.0
  0
ARC
  5
1FD13
  8
0
 10
4652.9835509023359919
 20
478.0568568878534847
 30
0.0
 40
0.0068364120999805
 50
285.7531628519049036
 51
352.4600484429475955
  0
LINE
  5
1FD14
  8
0
 10
4653.0188715112253703
 20
478.0425978782769221
 30
0.0
 11
4653.0188715112253703
 21
478.03124060197689
 31
0.0
  0
ARC
  5
1FD15
  8
0
 10
4653.0120942094363272
 20
478.0321376587535838
 30
0.0
 40
0.0068364120999805
 50
285.7531628519049036
 51
352.4600484429475955
  0
LINE
  5
1FD16
  8
0
 10
4653.0474148183257057
 20
478.017878649276895
 30
0.0
 11
4653.0474148183257057
 21
478.0065213729769198
 31
0.0
  0
ARC
  5
1FD17
  8
0
 10
4653.0406375165366626
 20
478.0074184297536135
 30
0.0
 40
0.0068364120999805
 50
285.7531628519049036
 51
352.4600484429475955
  0
LINE
  5
1FD18
  8
0
 10
4653.0679792811697553
 20
477.9926214234995996
 30
0.0
 11
4653.0424935584260311
 21
477.9999785179768992
 31
0.0
  0
LINE
  5
1FD19
  8
0
 10
4653.0474148183257057
 20
477.9684401911770237
 30
0.0
 11
4653.0474148183257057
 21
477.957082914876878
 31
0.0
  0
ARC
  5
1FD1A
  8
0
 10
4653.0406375165366626
 20
477.9579799716535149
 30
0.0
 40
0.0068364120999805
 50
285.7531628519049036
 51
352.4600484429475955
  0
LINE
  5
1FD1B
  8
0
 10
4653.0665463350023856
 20
477.9435966213293909
 30
0.0
 11
4653.0424935584260311
 21
477.9505400598769143
 31
0.0
  0
LINE
  5
1FD1C
  8
0
 10
4653.0188715112253703
 20
477.9437209620768954
 30
0.0
 11
4653.0188715112253703
 21
477.9323636857769202
 31
0.0
  0
ARC
  5
1FD1D
  8
0
 10
4653.0120942094363272
 20
477.9332607425536139
 30
0.0
 40
0.0068364120999805
 50
285.7531628519049036
 51
352.4600484429475955
  0
LINE
  5
1FD1E
  8
0
 10
4653.0397637346259216
 20
477.9183691199768873
 30
0.0
 11
4653.0139502513256957
 21
477.9258208307768996
 31
0.0
  0
LINE
  5
1FD1F
  8
0
 10
4652.9903282041259445
 20
477.9190017330769251
 30
0.0
 11
4652.9903282041259445
 21
477.9076444567770068
 31
0.0
  0
ARC
  5
1FD20
  8
0
 10
4652.9835509023359919
 20
477.9085415135534731
 30
0.0
 40
0.0068364120999805
 50
285.7531628519049036
 51
352.4600484429475955
  0
LINE
  5
1FD21
  8
0
 10
4653.0183926009258357
 20
477.8915794628769049
 30
0.0
 11
4652.9854069442253603
 21
477.9011016017768725
 31
0.0
  0
LINE
  5
1FD22
  8
0
 10
4652.9617848970246996
 20
477.8942825039769104
 30
0.0
 11
4652.9617848970246996
 21
477.8829252276768784
 31
0.0
  0
ARC
  5
1FD23
  8
0
 10
4652.9550075952356565
 20
477.8838222844535721
 30
0.0
 40
0.0068364120999805
 50
285.7531628519049036
 51
352.4600484429475955
  0
LINE
  5
1FD24
  8
0
 10
4652.9804428919896964
 20
477.8695756280743012
 30
0.0
 11
4652.956863637125025
 21
477.8763823726769147
 31
0.0
  0
LINE
  5
1FD25
  8
0
 10
4652.876154975724603
 20
477.8695632749768833
 30
0.0
 11
4652.876154975724603
 21
477.8582059986769082
 31
0.0
  0
ARC
  5
1FD26
  8
0
 10
4652.8693776739355599
 20
477.8591030554536019
 30
0.0
 40
0.0068364120999805
 50
285.7531628519049036
 51
352.4600484429475955
  0
LINE
  5
1FD27
  8
0
 10
4652.9040332859258342
 20
477.842194723376906
 30
0.0
 11
4652.8712337158258379
 21
477.8516631436768876
 31
0.0
  0
LINE
  5
1FD28
  8
0
 10
4652.9125109018259536
 20
477.8727064185769109
 30
0.0
 11
4652.9125109018259536
 21
477.8480169400768887
 31
0.0
  0
ARC
  5
1FD29
  8
0
 10
4652.9051838165341906
 20
477.8472477635152131
 30
0.0
 40
0.0051823677331645
 50
257.1729602392842935
 51
286.875951379051628
  0
ARC
  5
1FD2A
  8
0
 10
4652.9043644903658787
 20
477.8514125535184007
 30
0.0
 40
0.0094152510306433
 50
284.2887763485824735
 51
316.3318301263357739
  0
ARC
  5
1FD2B
  8
0
 10
4652.9082589194440516
 20
477.848005988608918
 30
0.0
 40
0.0042519964851659
 50
313.3000649547184935
 51
0.1475715209658425
  0
LINE
  5
1FD2C
  8
0
 10
4652.9233990702259689
 20
477.8695632750909112
 30
0.0
 11
4652.9233990702259689
 21
477.850855942476926
 31
0.0
  0
LINE
  5
1FD2D
  8
0
 10
4652.9332415899252737
 20
477.8695632750769278
 30
0.0
 11
4652.9332415899252737
 21
477.8539495539769177
 31
0.0
  0
ARC
  5
1FD2E
  8
0
 10
4652.9265397464132548
 20
477.8550000359680894
 30
0.0
 40
0.0067836729637027
 50
270.804091940761225
 51
351.0916446814542837
  0
ARC
  5
1FD2F
  8
0
 10
4652.9261548417862286
 20
477.8509317168087023
 30
0.0
 40
0.0027568131319709
 50
181.5750419250435925
 51
280.0293008574190026
  0
LINE
  5
1FD30
  8
0
 10
4652.9568636372259789
 20
477.8772426463768852
 30
0.0
 11
4652.956863637125025
 21
477.8763823727770159
 31
0.0
  0
LINE
  5
1FD31
  8
0
 10
4652.9865308053258559
 20
477.9007771709768804
 30
0.0
 11
4652.9865308053258559
 21
477.8760876924769718
 31
0.0
  0
ARC
  5
1FD32
  8
0
 10
4652.979108096355958
 20
477.8766642602918751
 30
0.0
 40
0.0074450680912849
 50
301.0920405751389239
 51
355.5584002656034954
  0
ARC
  5
1FD33
  8
0
 10
4652.9803882861961029
 20
477.8745413986325161
 30
0.0
 40
0.0049660707837506
 50
270.6300268756053242
 51
301.0920405751389239
  0
LINE
  5
1FD34
  8
0
 10
4652.9854069442253603
 20
477.9019618753769123
 30
0.0
 11
4652.9854069442253603
 21
477.9011016017768725
 31
0.0
  0
LINE
  5
1FD35
  8
0
 10
4653.0232283410259697
 20
477.9231424770769081
 30
0.0
 11
4653.0232283410259697
 21
477.8984529985768859
 31
0.0
  0
ARC
  5
1FD36
  8
0
 10
4653.0185598661892072
 20
477.8934524482447728
 30
0.0
 40
0.0018804392722854
 50
264.8967899314523038
 51
311.0716502693038024
  0
ARC
  5
1FD37
  8
0
 10
4653.0082114146862295
 20
477.9053269564643074
 30
0.0
 40
0.0176314517465297
 50
311.0716502693038024
 51
318.2174912777446139
  0
ARC
  5
1FD38
  8
0
 10
4653.0158772057711758
 20
477.8984771580758206
 30
0.0
 40
0.0073511749545216
 50
318.2174912777446139
 51
359.8116981544256987
  0
LINE
  5
1FD39
  8
0
 10
4653.0139502513256957
 20
477.926681104476927
 30
0.0
 11
4653.0139502513256957
 21
477.9258208308768872
 31
0.0
  0
LINE
  5
1FD3A
  8
0
 10
4653.0510126278259122
 20
477.9480808162768994
 30
0.0
 11
4653.0510126278259122
 21
477.9233913378769216
 31
0.0
  0
ARC
  5
1FD3B
  8
0
 10
4653.0413029172350434
 20
477.9235677694974243
 30
0.0
 40
0.0097113133958579
 50
326.6858034096733832
 51
358.9590137824988005
  0
ARC
  5
1FD3C
  8
0
 10
4653.0434379256175816
 20
477.9221645737309245
 30
0.0
 40
0.0071564710997256
 50
303.209841444947017
 51
326.6858034096762253
  0
LINE
  5
1FD3D
  8
0
 10
4653.0698077956258203
 20
477.974904486976925
 30
0.0
 11
4653.0698077956258203
 21
477.9532601974560748
 31
0.0
  0
LINE
  5
1FD3E
  8
0
 10
4652.8377691490259167
 20
477.8448440459620201
 30
0.0
 11
4652.8377691490259167
 21
477.8328395460770253
 31
0.0
  0
LINE
  5
1FD3F
  8
0
 10
4652.8476116686251771
 20
477.8448440459770268
 30
0.0
 11
4652.8476116686251771
 21
477.8341980258769013
 31
0.0
  0
ARC
  5
1FD40
  8
0
 10
4652.8424158119014464
 20
477.8348351693671248
 30
0.0
 40
0.0052347759195093
 50
273.0069041073342078
 51
353.0089896182429925
  0
ARC
  5
1FD41
  8
0
 10
4652.8419713914927343
 20
477.8338755140599119
 30
0.0
 40
0.0043280563098996
 50
193.8488304619517066
 51
279.562849003447127
  0
LINE
  5
1FD42
  8
0
 10
4652.780682534825246
 20
477.8448440459620201
 30
0.0
 11
4652.780682534825246
 21
477.8281316519768893
 31
0.0
  0
LINE
  5
1FD43
  8
0
 10
4652.7905250545245508
 20
477.8448440459770268
 30
0.0
 11
4652.7905250545245508
 21
477.8285698768768839
 31
0.0
  0
ARC
  5
1FD44
  8
0
 10
4652.7858866372025659
 20
477.8290882520694254
 30
0.0
 40
0.0046672934447445
 50
266.5256905865168733
 51
353.6232604744798209
  0
ARC
  5
1FD45
  8
0
 10
4652.7848642711596767
 20
477.8285684788576759
 30
0.0
 40
0.0042044900406831
 50
185.9635255422377043
 51
280.1303953914455178
  0
LINE
  5
1FD46
  8
0
 10
4652.7856037946248762
 20
477.9925990484769045
 30
0.0
 11
4652.7570604875263598
 21
478.0008387915768822
 31
0.0
  0
LINE
  5
1FD47
  8
0
 10
4652.7856037947249206
 20
477.9752592888768845
 30
0.0
 11
4652.7597903113246502
 21
477.967807578176803
 31
0.0
  0
ARC
  5
1FD48
  8
0
 10
4652.7585530616588585
 20
477.9726677455133768
 30
0.0
 40
0.005015178289522
 50
252.6858065633180956
 51
284.282381820231592
  0
ARC
  5
1FD49
  8
0
 10
4652.8120878042236654
 20
478.3261881349649229
 30
0.0
 40
0.6238541059884123
 50
274.6719881872107862
 51
303.0654377081062876
  0
LINE
  5
1FD4A
  8
0
 10
4652.2543447586813272
 20
481.2347838474768764
 30
0.0
 11
4653.2597762163686639
 21
481.2347838474768764
 31
0.0
  0
LINE
  5
1FD4B
  8
0
 10
4652.2543447587740957
 20
480.6840681507769091
 30
0.0
 11
4653.2597762162758954
 21
480.6840681507769091
 31
0.0
  0
ARC
  5
1FD4C
  8
0
 10
4652.2543447586813272
 20
481.2147838476972765
 30
0.0
 40
0.0199999997795661
 50
89.9999998744143852
 51
135.0000003577222003
  0
LINE
  5
1FD4D
  8
0
 10
4652.2402026231247874
 20
481.2289259830769197
 30
0.0
 11
4652.1289183518247228
 21
481.1176417117770256
 31
0.0
  0
ARC
  5
1FD4E
  8
0
 10
4652.1430604877696169
 20
481.1034995761283994
 30
0.0
 40
0.020000000244022
 50
135.0000005985619964
 51
179.9999998609503962
  0
ARC
  5
1FD4F
  8
0
 10
4652.1430604877696169
 20
480.8153524220253985
 30
0.0
 40
0.0200000002440133
 50
180.00000013904301
 51
224.9999994014449101
  0
LINE
  5
1FD50
  8
0
 10
4652.1289183518247228
 20
480.801210286376886
 30
0.0
 11
4652.2402026231247874
 21
480.6899260150768782
 31
0.0
  0
ARC
  5
1FD51
  8
0
 10
4652.2543447587740957
 20
480.704068151020806
 30
0.0
 40
0.0200000002439994
 50
225.0000005985365874
 51
269.9999998609699787
  0
LINE
  5
1FD52
  8
0
 10
4653.3852026232252683
 20
480.801210286376886
 30
0.0
 11
4652.1289183518247228
 21
480.801210286376886
 31
0.0
  0
LINE
  5
1FD53
  8
0
 10
4652.1289183518247228
 20
481.1176417117770256
 30
0.0
 11
4653.3852026232252683
 21
481.1176417117770256
 31
0.0
  0
ARC
  5
1FD54
  8
0
 10
4653.2597762163686639
 20
481.2147838476972765
 30
0.0
 40
0.0199999997795661
 50
44.9999996422777429
 51
90.0000001255856006
  0
LINE
  5
1FD55
  8
0
 10
4653.2739183519252038
 20
481.2289259830769197
 30
0.0
 11
4653.3852026232252683
 21
481.1176417117770256
 31
0.0
  0
ARC
  5
1FD56
  8
0
 10
4653.3710604872812837
 20
481.1034995761283994
 30
0.0
 40
0.020000000244022
 50
0.000000139049576
 51
44.9999994014379965
  0
ARC
  5
1FD57
  8
0
 10
4653.3710604872812837
 20
480.8153524220253985
 30
0.0
 40
0.0200000002440133
 50
315.0000005985551184
 51
359.9999998609570184
  0
LINE
  5
1FD58
  8
0
 10
4653.3852026232252683
 20
480.801210286376886
 30
0.0
 11
4653.2739183519252038
 21
480.6899260150768782
 31
0.0
  0
ARC
  5
1FD59
  8
0
 10
4653.2597762162758954
 20
480.704068151020806
 30
0.0
 40
0.0200000002439994
 50
270.0000001390300213
 51
314.9999994014632989
  0
LINE
  5
1FD5A
  8
0
 10
4652.1230604875254357
 20
481.1034995761283994
 30
0.0
 11
4652.1230604875254357
 21
480.8153524220253985
 31
0.0
  0
LINE
  5
1FD5B
  8
0
 10
4653.3910604875245554
 20
480.8153524220253985
 30
0.0
 11
4653.3910604875245554
 21
481.1034995761283994
 31
0.0
  0
LINE
  5
1FD5C
  8
0
 10
4652.4170604875253048
 20
480.6837838474768887
 30
0.0
 11
4652.4170604875253048
 21
480.5957838474768096
 31
0.0
  0
LINE
  5
1FD5D
  8
0
 10
4652.4170604875253048
 20
480.5957838474768096
 30
0.0
 11
4653.0970604875246863
 21
480.5957838474768096
 31
0.0
  0
LINE
  5
1FD5E
  8
0
 10
4653.0970604875246863
 20
480.5957838474768096
 30
0.0
 11
4653.0970604875246863
 21
480.6837838474768887
 31
0.0
  0
LINE
  5
1FD5F
  8
0
 10
4652.6630604875253994
 20
480.5957838474768096
 30
0.0
 11
4652.6630604875253994
 21
480.3907838474768823
 31
0.0
  0
LINE
  5
1FD60
  8
0
 10
4652.8510604875264107
 20
480.5957838474768096
 30
0.0
 11
4652.8510604875264107
 21
480.3907838474768823
 31
0.0
  0
LINE
  5
1FD61
  8
0
 10
4657.8139502513258776
 20
474.6620871070768999
 30
0.0
 11
4657.8139502513258776
 21
473.7150871070768972
 31
0.0
  0
LINE
  5
1FD62
  8
0
 10
4647.4677022196538019
 20
471.9142103828768882
 30
0.0
 11
4650.0464187553970987
 21
471.9142103828768882
 31
0.0
  0
LINE
  5
1FD63
  8
0
 10
4647.7580295269253838
 20
472.5020455639768784
 30
0.0
 11
4649.7560914481246073
 21
472.5020455639768784
 31
0.0
  0
LINE
  5
1FD64
  8
0
 10
4647.851327133183986
 20
472.5859662883768806
 30
0.0
 11
4649.6627938418660051
 21
472.5859662883768806
 31
0.0
  0
LINE
  5
1FD65
  8
0
 10
4645.4311964589251147
 20
474.5630881684518272
 30
0.0
 11
4645.4311964589251147
 21
473.8143578492769734
 31
0.0
  0
LINE
  5
1FD66
  8
0
 10
4645.516338594525223
 20
473.7209347384435887
 30
0.0
 11
4645.516338594525223
 21
474.6562190098101155
 31
0.0
  0
LINE
  5
1FD67
  8
0
 10
4649.0911884372535496
 20
474.6620871070768999
 30
0.0
 11
4647.7237707237245559
 21
474.6620871070768999
 31
0.0
  0
LINE
  5
1FD68
  8
0
 10
4647.7001707237259325
 20
474.6620871070768999
 30
0.0
 11
4645.5304779068255812
 21
474.6620871070768999
 31
0.0
  0
LINE
  5
1FD69
  8
0
 10
4645.5297641897732319
 20
473.7150871070768972
 30
0.0
 11
4647.7001707237259325
 21
473.7150871070768972
 31
0.0
  0
LINE
  5
1FD6A
  8
0
 10
4647.7237707237245559
 20
473.7150871070768972
 30
0.0
 11
4648.1441884372543427
 21
473.7150871070768972
 31
0.0
  0
LINE
  5
1FD6B
  8
0
 10
4648.2835604875253921
 20
472.6295662883949262
 30
0.0
 11
4648.2835604875253921
 21
473.5757150568056772
 31
0.0
  0
LINE
  5
1FD6C
  8
0
 10
4649.230560487524599
 20
474.5227150568056231
 30
0.0
 11
4649.230560487524599
 21
472.6295662883949262
 31
0.0
  0
ARC
  5
1FD6D
  8
0
 10
4647.851327133183986
 20
472.5633284927773161
 30
0.0
 40
0.0226377955996418
 50
90.0000001508590373
 51
134.9999995704251035
  0
LINE
  5
1FD6E
  8
0
 10
4647.8353197945252759
 20
472.5793358316768717
 30
0.0
 11
4647.7580295269253838
 21
472.5020455639768784
 31
0.0
  0
ARC
  5
1FD6F
  8
0
 10
4647.774036864795562
 20
472.4860382256021012
 30
0.0
 40
0.0226377946707132
 50
134.9999990978193125
 51
180.0000003168105138
  0
LINE
  5
1FD70
  8
0
 10
4647.7513990701254443
 20
472.4860382254768751
 30
0.0
 11
4647.7513990701254443
 21
472.382198217876919
 31
0.0
  0
ARC
  5
1FD71
  8
0
 10
4647.7287612744794387
 20
472.38219821792012
 30
0.0
 40
0.0226377956461389
 50
269.9287512949914003
 51
359.9999998908454018
  0
LINE
  5
1FD72
  8
0
 10
4647.7287331238330808
 20
472.3595604397768852
 30
0.0
 11
4649.7853878512178198
 21
472.3595604397768852
 31
0.0
  0
ARC
  5
1FD73
  8
0
 10
4647.5783344512419717
 20
472.3367369981572779
 30
0.0
 40
0.0226377947491361
 50
90.0706900425575157
 51
132.2706912372468935
  0
LINE
  5
1FD74
  8
0
 10
4647.5631074990260458
 20
472.3534884063769255
 30
0.0
 11
4647.4524752673260082
 21
472.2529242228770272
 31
0.0
  0
ARC
  5
1FD75
  8
0
 10
4647.4677022188252522
 20
472.236172814614406
 30
0.0
 40
0.0226377942994633
 50
132.2706898234052062
 51
180.0000011072409052
  0
LINE
  5
1FD76
  8
0
 10
4647.4524752673260082
 20
472.2529242228770272
 30
0.0
 11
4650.0616457077248924
 21
472.2529242228770272
 31
0.0
  0
LINE
  5
1FD77
  8
0
 10
4647.4450644245252988
 20
472.2361728141768822
 30
0.0
 11
4647.4450644245252988
 21
471.9368481781768878
 31
0.0
  0
ARC
  5
1FD78
  8
0
 10
4647.4677022196538019
 20
471.936848178006187
 30
0.0
 40
0.0226377951292892
 50
179.999999567934708
 51
270.0000001789463795
  0
ARC
  5
1FD79
  8
0
 10
4645.5305263568698138
 20
474.6420018215255254
 30
0.0
 40
0.0200853439873064
 50
90.138209522674174
 51
134.940644799838509
  0
LINE
  5
1FD7A
  8
0
 10
4645.516338594525223
 20
474.6562190098101155
 30
0.0
 11
4645.4370520076254252
 21
474.5769314773768883
 31
0.0
  0
ARC
  5
1FD7B
  8
0
 10
4645.4511942278741117
 20
474.5627894260264839
 30
0.0
 40
0.020000000248699
 50
135.0003421386751938
 51
179.1441341758952035
  0
ARC
  5
1FD7C
  8
0
 10
4648.144188437287994
 20
473.5757150568392717
 30
0.0
 40
0.139372050237621
 50
359.9999999861581728
 51
90.0000000138613245
  0
ARC
  5
1FD7D
  8
0
 10
4649.0911884372881104
 20
474.5227150568392744
 30
0.0
 40
0.1393720502376206
 50
359.9999999861615265
 51
90.0000000138613245
  0
ARC
  5
1FD7E
  8
0
 10
4647.7237707236254209
 20
474.6384871071776956
 30
0.0
 40
0.0235999998991892
 50
89.9999997552383348
 51
180.0000002447387999
  0
ARC
  5
1FD7F
  8
0
 10
4647.7237707237245559
 20
473.7386871070768279
 30
0.0
 40
0.0235999999998826
 50
179.9999999997166071
 51
270.0000000003126956
  0
LINE
  5
1FD80
  8
0
 10
4648.3071604875685807
 20
472.6059662883769192
 30
0.0
 11
4649.2069604874814104
 21
472.6059662883769192
 31
0.0
  0
ARC
  5
1FD81
  8
0
 10
4648.307160487524925
 20
472.6295662883769069
 30
0.0
 40
0.0235999999999972
 50
179.9999999999934914
 51
270.0000001055752819
  0
ARC
  5
1FD82
  8
0
 10
4648.3510604875245917
 20
472.6219662883768819
 30
0.0
 40
0.0359999999999982
 50
270.0
 51
333.6122000387711068
  0
ARC
  5
1FD83
  8
0
 10
4649.6627938418660051
 20
472.5633284927773161
 30
0.0
 40
0.0226377955996418
 50
45.0000004295748397
 51
89.9999998491409485
  0
LINE
  5
1FD84
  8
0
 10
4649.6788011805256247
 20
472.5793358316768717
 30
0.0
 11
4649.7560914481246073
 21
472.5020455639768784
 31
0.0
  0
ARC
  5
1FD85
  8
0
 10
4649.7400841102553386
 20
472.4860382256021012
 30
0.0
 40
0.0226377946707132
 50
359.9999996831895146
 51
45.000000902180652
  0
LINE
  5
1FD86
  8
0
 10
4649.7627219049263658
 20
472.4860382254768751
 30
0.0
 11
4649.7627219049263658
 21
472.382198217876919
 31
0.0
  0
ARC
  5
1FD87
  8
0
 10
4649.7853597005723714
 20
472.38219821792012
 30
0.0
 40
0.0226377956461388
 50
180.0000001091545982
 51
270.0712487051649191
  0
ARC
  5
1FD88
  8
0
 10
4649.9357876502717772
 20
472.336739905703098
 30
0.0
 40
0.022634885568848
 50
47.7264682321875711
 51
89.9327423372302945
  0
LINE
  5
1FD89
  8
0
 10
4649.9510134760257642
 20
472.3534884063769255
 30
0.0
 11
4650.0616457077248924
 21
472.2529242228770272
 31
0.0
  0
ARC
  5
1FD8A
  8
0
 10
4650.0464187562256484
 20
472.236172814614406
 30
0.0
 40
0.0226377942994633
 50
359.9999988927589811
 51
47.7293101765947583
  0
LINE
  5
1FD8B
  8
0
 10
4650.0690565505256018
 20
472.2361728141768822
 30
0.0
 11
4650.0690565505256018
 21
471.9368481781768878
 31
0.0
  0
ARC
  5
1FD8C
  8
0
 10
4650.0464187553970987
 20
471.936848178006187
 30
0.0
 40
0.0226377951292892
 50
269.9999998210536205
 51
0.000000432065275
  0
ARC
  5
1FD8D
  8
0
 10
4649.2069604875259756
 20
472.6295662883769069
 30
0.0
 40
0.0235999999999974
 50
269.9999998944247181
 51
0.0000000000065138
  0
ARC
  5
1FD8E
  8
0
 10
4649.1630604875253994
 20
472.6219662883768819
 30
0.0
 40
0.0359999999999982
 50
206.3877999612288932
 51
270.0
  0
ARC
  5
1FD8F
  8
0
 10
4645.4512111239146179
 20
473.8143662764945816
 30
0.0
 40
0.0200146667641687
 50
180.0241245094910028
 51
224.9919899861660895
  0
LINE
  5
1FD90
  8
0
 10
4645.4370566389243322
 20
473.8002157485768748
 30
0.0
 11
4645.516338594525223
 21
473.7209347384435887
 31
0.0
  0
ARC
  5
1FD91
  8
0
 10
4645.5304834349071825
 20
473.7350741731033281
 30
0.0
 40
0.0200000030476513
 50
224.9890495680301115
 51
267.9390703937676221
  0
LINE
  5
1FD92
  8
0
 10
4649.7853878512178198
 20
472.3595604397768852
 30
0.0
 11
4649.9358142206247066
 21
472.3593747756768835
 31
0.0
  0
LINE
  5
1FD93
  8
0
 10
4647.7287331238330808
 20
472.3595604397768852
 30
0.0
 11
4647.5783065213254304
 21
472.3593747756768835
 31
0.0
  0
LINE
  5
1FD94
  8
0
 10
4647.7001707237259325
 20
474.6620871070768999
 30
0.0
 11
4647.7001707237259325
 21
473.7150871070768972
 31
0.0
  0
LINE
  5
1FD95
  8
0
 10
4648.242739359117877
 20
473.6742659786701779
 30
0.0
 11
4649.1897393591179934
 21
474.6212659786701806
 31
0.0
  0
LINE
  5
1FD96
  8
0
 10
4656.3243816159319977
 20
474.6212659786701806
 30
0.0
 11
4657.2713816159321141
 21
473.6742659786701779
 31
0.0
  0
ARC
  5
1FD97
  8
0
 10
4652.7646195697043368
 20
477.7425421743918719
 30
0.0
 40
1.1969591800940851
 50
90.3618388930520666
 51
108.6842553017771991
  0
ARC
  5
1FD98
  8
0
 10
4652.5686485649548558
 20
478.3560135355169791
 30
0.0
 40
0.5531460304367437
 50
109.8117305546611959
 51
130.6772432983862018
  0
ARC
  5
1FD99
  8
0
 10
4652.3563555815226209
 20
478.6030252779830789
 30
0.0
 40
0.2274420056987326
 50
130.6772432983862018
 51
159.1876356532729915
  0
ARC
  5
1FD9A
  8
0
 10
4652.3116466173141816
 20
478.6230677504333926
 30
0.0
 40
0.1785518147795004
 50
160.101961111864199
 51
176.1985551367168057
  0
ARC
  5
1FD9B
  8
0
 10
4652.7471865608249573
 20
477.6736317155147731
 30
0.0
 40
1.2658842790457441
 50
75.87045098186627
 51
89.5530870607827438
  0
ARC
  5
1FD9C
  8
0
 10
4652.8681829444549294
 20
478.1967050841906257
 30
0.0
 40
0.7291723104373882
 50
56.9555583328688328
 51
75.0568150713224469
  0
ARC
  5
1FD9D
  8
0
 10
4653.1085484428385826
 20
478.5662077187055843
 30
0.0
 40
0.2883687603991354
 50
30.5553905422765197
 51
56.9555583328688328
  0
ARC
  5
1FD9E
  8
0
 10
4653.1322904583503259
 20
478.589451879758883
 30
0.0
 40
0.2562302046266318
 50
14.2530614623512903
 51
28.7781444423074504
  0
ENDSEC
  0
EOF
