  0
SECTION
  2
HEADER
  9
$ACADVER
  1
AC1009
  9
$INSBASE
 10
4605.9673913427950538
 20
478.5790228953636074
 30
0.0
  9
$EXTMIN
 10
4598.6327413451590473
 20
471.1400631451253957
 30
-0.0000000000000058
  9
$EXTMAX
 10
4613.3488092266807143
 20
479.9132121060728764
 30
0.0000000000000104
  9
$LIMMIN
 10
0.0
 20
0.0
  9
$LIMMAX
 10
11.6929133858000007
 20
8.2677165353999982
  9
$ORTHOMODE
 70
     0
  9
$REGENMODE
 70
     1
  9
$FILLMODE
 70
     1
  9
$QTEXTMODE
 70
     0
  9
$MIRRTEXT
 70
     0
  9
$DRAGMODE
 70
     2
  9
$LTSCALE
 40
0.6431102362
  9
$OSMODE
 70
     7
  9
$ATTMODE
 70
     1
  9
$TEXTSIZE
 40
0.2
  9
$TRACEWID
 40
0.05
  9
$TEXTSTYLE
  7
STANDARD
  9
$CLAYER
  8
0
  9
$CELTYPE
  6
BYLAYER
  9
$CECOLOR
 62
   256
  9
$DIMSCALE
 40
1.0
  9
$DIMASZ
 40
0.1875
  9
$DIMEXO
 40
0.0625
  9
$DIMDLI
 40
0.4443307087
  9
$DIMRND
 40
0.0
  9
$DIMDLE
 40
0.0
  9
$DIMEXE
 40
0.125
  9
$DIMTP
 40
0.01
  9
$DIMTM
 40
0.01
  9
$DIMTXT
 40
2.0
  9
$DIMCEN
 40
0.1052362205
  9
$DIMTSZ
 40
0.0
  9
$DIMTOL
 70
     1
  9
$DIMLIM
 70
     0
  9
$DIMTIH
 70
     1
  9
$DIMTOH
 70
     1
  9
$DIMSE1
 70
     0
  9
$DIMSE2
 70
     0
  9
$DIMTAD
 70
     0
  9
$DIMZIN
 70
     0
  9
$DIMBLK
  1

  9
$DIMASO
 70
     1
  9
$DIMSHO
 70
     1
  9
$DIMPOST
  1
\X
  9
$DIMAPOST
  1

  9
$DIMALT
 70
     1
  9
$DIMALTD
 70
     2
  9
$DIMALTF
 40
25.3999999999999986
  9
$DIMLFAC
 40
1.0
  9
$DIMTOFL
 70
     0
  9
$DIMTVP
 40
0.0
  9
$DIMTIX
 70
     0
  9
$DIMSOXD
 70
     0
  9
$DIMSAH
 70
     0
  9
$DIMBLK1
  1

  9
$DIMBLK2
  1

  9
$DIMSTYLE
  2
STANDARD
  9
$DIMCLRD
 70
     0
  9
$DIMCLRE
 70
     0
  9
$DIMCLRT
 70
     0
  9
$DIMTFAC
 40
1.0
  9
$DIMGAP
 40
0.09
  9
$LUNITS
 70
     2
  9
$LUPREC
 70
     4
  9
$SKETCHINC
 40
0.1
  9
$FILLETRAD
 40
0.0
  9
$AUNITS
 70
     0
  9
$AUPREC
 70
     0
  9
$MENU
  1
.
  9
$ELEVATION
 40
0.0
  9
$PELEVATION
 40
0.0
  9
$THICKNESS
 40
0.0
  9
$LIMCHECK
 70
     0
  9
$BLIPMODE
 70
     0
  9
$CHAMFERA
 40
0.0
  9
$CHAMFERB
 40
0.0
  9
$SKPOLY
 70
     0
  9
$TDCREATE
 40
2458060.468368056230247
  9
$TDUPDATE
 40
2459330.4884606478735805
  9
$TDINDWG
 40
1.4935650463000001
  9
$TDUSRTIMER
 40
1.4935650463000001
  9
$USRTIMER
 70
     1
  9
$ANGBASE
 50
0.0
  9
$ANGDIR
 70
     0
  9
$PDMODE
 70
     0
  9
$PDSIZE
 40
0.3125
  9
$PLINEWID
 40
0.0
  9
$COORDS
 70
     1
  9
$SPLFRAME
 70
     0
  9
$SPLINETYPE
 70
     6
  9
$SPLINESEGS
 70
     8
  9
$ATTDIA
 70
     1
  9
$ATTREQ
 70
     1
  9
$HANDLING
 70
     1
  9
$HANDSEED
  5
1E5DA
  9
$SURFTAB1
 70
     6
  9
$SURFTAB2
 70
     6
  9
$SURFTYPE
 70
     6
  9
$SURFU
 70
     6
  9
$SURFV
 70
     6
  9
$UCSNAME
  2

  9
$UCSORG
 10
0.0
 20
0.0
 30
0.0
  9
$UCSXDIR
 10
1.0
 20
0.0
 30
0.0
  9
$UCSYDIR
 10
0.0
 20
1.0
 30
0.0
  9
$PUCSNAME
  2

  9
$PUCSORG
 10
0.0
 20
0.0
 30
0.0
  9
$PUCSXDIR
 10
1.0
 20
0.0
 30
0.0
  9
$PUCSYDIR
 10
0.0
 20
1.0
 30
0.0
  9
$USERI1
 70
     0
  9
$USERI2
 70
     0
  9
$USERI3
 70
     0
  9
$USERI4
 70
     0
  9
$USERI5
 70
     0
  9
$USERR1
 40
0.0
  9
$USERR2
 40
0.0
  9
$USERR3
 40
0.0
  9
$USERR4
 40
0.0
  9
$USERR5
 40
0.0
  9
$WORLDVIEW
 70
     1
  9
$SHADEDGE
 70
     3
  9
$SHADEDIF
 70
    70
  9
$TILEMODE
 70
     1
  9
$MAXACTVP
 70
    64
  9
$PLIMCHECK
 70
     0
  9
$PEXTMIN
 10
1.0000000000000000E+20
 20
1.0000000000000000E+20
 30
1.0000000000000000E+20
  9
$PEXTMAX
 10
-1.0000000000000000E+20
 20
-1.0000000000000000E+20
 30
-1.0000000000000000E+20
  9
$PLIMMIN
 10
0.0
 20
0.0
  9
$PLIMMAX
 10
12.0
 20
9.0
  9
$UNITMODE
 70
     0
  9
$VISRETAIN
 70
     1
  9
$PLINEGEN
 70
     0
  9
$PSLTSCALE
 70
     1
  0
ENDSEC
  0
SECTION
  2
TABLES
  0
TABLE
  2
VPORT
 70
     1
  0
VPORT
  2
*ACTIVE
 70
     0
 10
0.0
 20
0.0
 11
1.0
 21
1.0
 12
694.6254188406082903
 22
342.947032523060102
 13
0.0
 23
0.0
 14
1.0
 24
1.0
 15
0.0
 25
0.0
 16
0.0
 26
0.0
 36
60.4960186965801583
 17
3911.3653564453120453
 27
132.5796051025390057
 37
0.0
 40
8.843054530357449
 41
2.433510638297872
 42
50.0
 43
0.0
 44
0.0
 50
0.0
 51
0.0
 71
     0
 72
   100
 73
     1
 74
     1
 75
     0
 76
     0
 77
     0
 78
     0
  0
ENDTAB
  0
TABLE
  2
LTYPE
 70
     2
  0
LTYPE
  2
CONTINUOUS
 70
     0
  3
Solid line
 72
    65
 73
     0
 40
0.0
  0
LTYPE
  2
PHANTOM2
 70
     0
  3
___ _ _ ___ _ _ ___ _ _ ___ _ _
 72
    65
 73
     6
 40
1.25
 49
0.625
 49
-0.125
 49
0.125
 49
-0.125
 49
0.125
 49
-0.125
  0
ENDTAB
  0
TABLE
  2
LAYER
 70
     2
  0
LAYER
  2
0
 70
     0
 62
   255
  6
CONTINUOUS
  0
LAYER
  2
DEFPOINTS
 70
     0
 62
     7
  6
CONTINUOUS
  0
ENDTAB
  0
TABLE
  2
STYLE
 70
     1
  0
STYLE
  2
STANDARD
 70
     0
 40
0.0
 41
0.8
 50
0.0
 71
     0
 42
0.2
  3
txt
  4

  0
ENDTAB
  0
TABLE
  2
VIEW
 70
     0
  0
ENDTAB
  0
TABLE
  2
UCS
 70
     0
  0
ENDTAB
  0
TABLE
  2
APPID
 70
    11
  0
APPID
  2
ACAD
 70
     0
  0
APPID
  2
ACAD_MLEADERVER
 70
     0
  0
APPID
  2
ACAD_EXEMPT_FROM_CAD_STANDARDS
 70
     0
  0
APPID
  2
ACAD_NAV_VCDISPLAY
 70
     0
  0
APPID
  2
ACAECLAYERSTANDARD
 70
     0
  0
APPID
  2
ACCMTRANSPARENCY
 70
     0
  0
APPID
  2
ACAD_DSTYLE_DIMJAG
 70
     0
  0
APPID
  2
ACAD_DSTYLE_DIMTALN
 70
     0
  0
APPID
  2
ACDBATTR
 70
     0
  0
APPID
  2
ACADANNOTATIVE
 70
     0
  0
APPID
  2
DCO15
 70
     0
  0
ENDTAB
  0
TABLE
  2
DIMSTYLE
 70
     1
  0
DIMSTYLE
  2
STANDARD
 70
     0
  3

  4

  5

  6

  7

 40
1.0
 41
0.1875
 42
0.0625
 43
0.38
 44
0.125
 45
0.0
 46
0.0
 47
0.01
 48
0.01
140
0.15625
141
0.09
142
0.0
143
25.3999999999999986
144
1.0
145
0.0
146
1.0
147
0.09
 71
     1
 72
     0
 73
     1
 74
     1
 75
     0
 76
     0
 77
     0
 78
     4
170
     0
171
     2
172
     0
173
     0
174
     0
175
     0
176
     0
177
     0
178
     0
  0
ENDTAB
  0
ENDSEC
  0
SECTION
  2
BLOCKS
  0
BLOCK
  8
0
  2
$MODEL_SPACE
 70
     0
 10
0.0
 20
0.0
 30
0.0
  3
$MODEL_SPACE
  1

  0
ENDBLK
  5
21
  8
0
  0
BLOCK
 67
     1
  8
0
  2
$PAPER_SPACE
 70
     0
 10
0.0
 20
0.0
 30
0.0
  3
$PAPER_SPACE
  1

  0
ENDBLK
  5
1D
 67
     1
  8
0
  0
ENDSEC
  0
SECTION
  2
ENTITIES
  0
ATTDEF
  5
159BF
  8
DEFPOINTS
 10
4605.9673917187328698
 20
478.5823568215275827
 30
0.0
 40
0.001
  1
P24903-SNW
  3

  2
MODELNUMBER
 70
     0
1001
ACDBATTR
1070
     0
1070
     1
  0
ATTDEF
  5
159C0
  8
DEFPOINTS
 10
4605.9673917187328698
 20
478.5806899811483959
 30
0.0
 40
0.001
  1
PINNA PALETTA
  3

  2
TRADENAME
 70
     0
1001
ACDBATTR
1070
     0
1070
     1
  0
ATTDEF
  5
159C1
  8
DEFPOINTS
 10
4605.9673917187328698
 20
478.5790234881941956
 30
0.0
 40
0.001
  1
BATHROOM SINK FAUCET
  3

  2
PRODUCT
 70
     0
1001
ACDBATTR
1070
     0
1070
     1
  0
ARC
  5
1E2DE
  8
0
 10
4601.9673913427950538
 20
478.5790228953636074
 30
0.0
 40
1.311996062999998
 50
201.1555074630340982
 51
158.8444925369659018
  0
ARC
  5
1E2DF
  8
0
 10
4605.9673913427950538
 20
478.5790228953636074
 30
0.0
 40
1.311996062999998
 50
298.3779469780305931
 51
241.6220530219694069
  0
LINE
  5
1E2E0
  8
0
 10
4600.9105015789946265
 20
478.1055228953634924
 30
0.0
 11
4598.7400950450428354
 21
478.1055228953634924
 31
0.0
  0
LINE
  5
1E2E1
  8
0
 10
4600.9341015789950688
 20
478.1055228953634924
 30
0.0
 11
4601.9673913427950538
 21
478.1055228953634924
 31
0.0
  0
LINE
  5
1E2E2
  8
0
 10
4600.9105015789946265
 20
479.0525228953636088
 30
0.0
 11
4598.7408087620970036
 21
479.0525228953636088
 31
0.0
  0
LINE
  5
1E2E3
  8
0
 10
4600.9341015789950688
 20
479.0525228953636088
 30
0.0
 11
4601.9673913427950538
 21
479.0525228953636088
 31
0.0
  0
LINE
  5
1E2E4
  8
0
 10
4605.3438185080949552
 20
471.7029556324084751
 30
0.0
 11
4605.3438185080949552
 21
478.4072419659897264
 31
0.0
  0
LINE
  5
1E2E5
  8
0
 10
4606.5909641774942429
 20
471.7029556324084751
 30
0.0
 11
4606.5909641774942429
 21
478.4072419659897264
 31
0.0
  0
CIRCLE
  5
1E2E6
  8
0
 10
4605.9673913427950538
 20
478.5790228953636074
 30
0.0
 40
0.5168578643999995
  0
CIRCLE
  5
1E2E7
  8
0
 10
4605.9673913427950538
 20
478.5790228953636074
 30
0.0
 40
0.6339999999999995
  0
CIRCLE
  5
1E2E8
  8
0
 10
4605.9673913427950538
 20
478.5790228953636074
 30
0.0
 40
0.6468011810999998
  0
ARC
  5
1E2E9
  8
0
 10
4605.9673913427950538
 20
471.8580173178785913
 30
0.0
 40
0.6977332346748816
 50
236.2589771375052123
 51
303.741022862494674
  0
ARC
  5
1E2EA
  8
0
 10
4605.819340203687716
 20
471.7039879135941192
 30
0.0
 40
0.4755228160500952
 50
180.1243797346077997
 51
189.1390723673503942
  0
ARC
  5
1E2EB
  8
0
 10
4605.8403204409823957
 20
471.707846522116597
 30
0.0
 40
0.4968498218081566
 50
189.194114404409504
 51
201.2106425563196979
  0
ARC
  5
1E2EC
  8
0
 10
4605.8434056361948024
 20
471.7090438498066192
 30
0.0
 40
0.5001592059057564
 50
201.2106425563167136
 51
216.9154107259062982
  0
ARC
  5
1E2ED
  8
0
 10
4605.9126140218331784
 20
471.7610360900961837
 30
0.0
 40
0.5867212858995411
 50
216.9154107259062982
 51
235.4467794579643964
  0
ARC
  5
1E2EE
  8
0
 10
4605.9674140978777359
 20
472.2157831813037205
 30
0.0
 40
0.7102333228988919
 50
250.0285650845301006
 51
252.5560259610450089
  0
ARC
  5
1E2EF
  8
0
 10
4605.9674140978777359
 20
472.2157831813037205
 30
0.0
 40
0.7102333228988919
 50
256.2775785941250888
 51
259.111004339256624
  0
ARC
  5
1E2F0
  8
0
 10
4605.9674140978777359
 20
472.2157831813037205
 30
0.0
 40
0.7102333228988919
 50
262.1119768689886769
 51
264.5460906407922721
  0
ARC
  5
1E2F1
  8
0
 10
4605.9197390193721731
 20
472.1128666936521086
 30
0.0
 40
0.5968506380670237
 50
214.8613623361084137
 51
217.2522473977869026
  0
ARC
  5
1E2F2
  8
0
 10
4605.9197390193721731
 20
472.1128666936521086
 30
0.0
 40
0.5968506380670237
 50
220.8317443952182941
 51
224.8915587447814062
  0
ARC
  5
1E2F3
  8
0
 10
4605.9197390193721731
 20
472.1128666936521086
 30
0.0
 40
0.5968506380670237
 50
228.9687515961157089
 51
232.7487224965614985
  0
ARC
  5
1E2F4
  8
0
 10
4605.9197390193721731
 20
472.1128666936521086
 30
0.0
 40
0.5968506380670237
 50
236.2635876896129901
 51
239.8395762734816117
  0
ARC
  5
1E2F5
  8
0
 10
4605.9197399621407385
 20
472.1128686409310262
 30
0.0
 40
0.5968528013057725
 50
243.2864756368018959
 51
246.8055630089125998
  0
ARC
  5
1E2F6
  8
0
 10
4605.6302705256275658
 20
471.9719303652561848
 30
0.0
 40
0.2725985048130882
 50
199.0180311431936104
 51
205.2132739452115118
  0
ARC
  5
1E2F7
  8
0
 10
4605.8198699044132809
 20
472.0432971093032961
 30
0.0
 40
0.4751388178141857
 50
207.3691597507020958
 51
210.5801825884022946
  0
ARC
  5
1E2F8
  8
0
 10
4605.8567811022712704
 20
472.053632639197815
 30
0.0
 40
0.5134697414342443
 50
182.5467305318827869
 51
183.8712769230228048
  0
ARC
  5
1E2F9
  8
0
 10
4605.8567811363409419
 20
472.0536326444624819
 30
0.0
 40
0.5134697759024613
 50
185.8691311519575891
 51
189.7563825000295026
  0
ARC
  5
1E2FA
  8
0
 10
4605.8567811022712704
 20
472.053632639197815
 30
0.0
 40
0.5134697414342443
 50
192.8769888407651933
 51
195.6428142943686908
  0
ARC
  5
1E2FB
  8
0
 10
4605.8214370964897171
 20
472.0572719318062127
 30
0.0
 40
0.4776186081341302
 50
180.0166789922595001
 51
201.2497529798978064
  0
ARC
  5
1E2FC
  8
0
 10
4605.8625507051692693
 20
472.073259935752219
 30
0.0
 40
0.5217314757438682
 50
201.2497529798978064
 51
221.7037408878358065
  0
ARC
  5
1E2FD
  8
0
 10
4605.9228578451111389
 20
472.1269987010492741
 30
0.0
 40
0.6025077471580187
 50
221.7037408878358065
 51
240.4140780360519045
  0
ARC
  5
1E2FE
  8
0
 10
4605.9673910178826191
 20
472.215239176477894
 30
0.0
 40
0.7012470871143397
 50
240.809539344184401
 51
299.1899770931278795
  0
ARC
  5
1E2FF
  8
0
 10
4605.8792184984849882
 20
471.5113231037469745
 30
0.0
 40
0.047908651739955
 50
354.469757803329685
 51
4.6892595345236971
  0
ARC
  5
1E300
  8
0
 10
4605.7897760938003557
 20
471.3898115979508816
 30
0.0
 40
0.1801899799099047
 50
35.1084462238184329
 51
40.4458545160436529
  0
ARC
  5
1E301
  8
0
 10
4605.9845799955928669
 20
471.5267649791164786
 30
0.0
 40
0.0579376933379167
 50
215.1084462238183903
 51
252.7420078947378101
  0
ARC
  5
1E302
  8
0
 10
4611.158013599187143
 20
475.9218540295943853
 30
0.0
 40
6.8646484120013049
 50
220.0067262072826111
 51
220.8750853333509099
  0
ARC
  5
1E303
  8
0
 10
4605.948225809574069
 20
471.5036972905854213
 30
0.0
 40
0.0485808842014466
 50
163.9463050324330879
 51
174.0588089370482976
  0
ARC
  5
1E304
  8
0
 10
4605.8357878980896203
 20
471.5195178065636128
 30
0.0
 40
0.0349160928115677
 50
348.0194948251944993
 51
1.927761542798466
  0
ARC
  5
1E305
  8
0
 10
4609.0695890690249144
 20
474.0684555038590133
 30
0.0
 40
4.0953408342476063
 50
218.6212336008005082
 51
220.7561956004279864
  0
ARC
  5
1E306
  8
0
 10
4605.9673913427950538
 20
471.378286261026517
 30
0.0
 40
0.0164689684871429
 50
233.0539128495422005
 51
306.9460871504695092
  0
ARC
  5
1E307
  8
0
 10
4605.9673913427950538
 20
471.3329196956229907
 30
0.0
 40
0.0103906638934608
 50
228.3699389256397865
 51
311.6300610743709854
  0
ARC
  5
1E308
  8
0
 10
4605.9673913427950538
 20
471.3124806099610282
 30
0.0
 40
0.0372340887930406
 50
236.9651195632854126
 51
303.0348804367146158
  0
ARC
  5
1E309
  8
0
 10
4605.9673913427950538
 20
471.2058685531778792
 30
0.0
 40
0.0162593575511674
 50
235.3788569667262891
 51
304.6211430333257226
  0
ARC
  5
1E30A
  8
0
 10
4605.8686062259948812
 20
471.5102917274634819
 30
0.0
 40
0.0362638952999521
 50
153.6456647734059118
 51
167.1811050739906079
  0
ARC
  5
1E30B
  8
0
 10
4605.7716988165257135
 20
471.5355625042017778
 30
0.0
 40
0.0289241906104917
 50
340.3214658970888991
 51
357.1405464972773984
  0
ARC
  5
1E30C
  8
0
 10
4605.7835267670361645
 20
471.5269217614300032
 30
0.0
 40
0.0311406773963607
 50
142.7836206267012926
 51
158.7405620342964028
  0
ARC
  5
1E30D
  8
0
 10
4605.6969858076172386
 20
471.562851527896612
 30
0.0
 40
0.031437749158229
 50
332.3477561800934268
 51
347.8261794292238847
  0
ARC
  5
1E30E
  8
0
 10
4605.7147447183078839
 20
471.5477874842457027
 30
0.0
 40
0.0342909688683784
 50
136.741850515199701
 51
151.2952390371933973
  0
ARC
  5
1E30F
  8
0
 10
4605.6199041093695996
 20
471.6027421147786072
 30
0.0
 40
0.0390422143395944
 50
323.8675865044091893
 51
336.3580381128231807
  0
ARC
  5
1E310
  8
0
 10
4605.654136802895664
 20
471.5720440360635735
 30
0.0
 40
0.0422853404999465
 50
132.8436386214166873
 51
144.1376597662990946
  0
ARC
  5
1E311
  8
0
 10
4605.5594312029252251
 20
471.6438347443047974
 30
0.0
 40
0.0397136401916363
 50
316.5541215149169147
 51
327.9336156359771053
  0
ARC
  5
1E312
  8
0
 10
4605.5897199387945875
 20
471.6081049332635189
 30
0.0
 40
0.0431036499000134
 50
126.2713723174833973
 51
136.4909872930521999
  0
ARC
  5
1E313
  8
0
 10
4605.5052223296916054
 20
471.6902120316644869
 30
0.0
 40
0.0357220239143463
 50
309.4580806520284
 51
320.8838952146232941
  0
ARC
  5
1E314
  8
0
 10
4605.5209115046745865
 20
471.6610361104267781
 30
0.0
 40
0.0388882592555687
 50
118.1842109741727995
 51
128.1228130498141979
  0
ARC
  5
1E315
  8
0
 10
4605.4456235153520538
 20
471.7588399897945237
 30
0.0
 40
0.0426478432738539
 50
301.8713782413763056
 51
309.9854546001662925
  0
ARC
  5
1E316
  8
0
 10
4605.4677908092953658
 20
471.7122573662633158
 30
0.0
 40
0.0456201114003453
 50
113.2618507614547951
 51
120.4678870770027004
  0
ARC
  5
1E317
  8
0
 10
4605.409905553236058
 20
471.8136468380604924
 30
0.0
 40
0.0465017001200018
 50
295.603282796365022
 51
302.4880409116922806
  0
ARC
  5
1E318
  8
0
 10
4605.4316676152939181
 20
471.7575571672639967
 30
0.0
 40
0.0487060018994643
 50
108.9026837261946952
 51
115.3499734797587024
  0
ARC
  5
1E319
  8
0
 10
4605.3814456928957952
 20
471.8715814602638829
 30
0.0
 40
0.0495346669003093
 50
289.4215021980456868
 51
295.3897208462669823
  0
ARC
  5
1E31A
  8
0
 10
4605.4005961376051346
 20
471.8073657190130916
 30
0.0
 40
0.0513216692522517
 50
104.5204781830315
 51
109.288960491619207
  0
ARC
  5
1E31B
  8
0
 10
4605.3604115704956712
 20
471.9327557762633205
 30
0.0
 40
0.0511183720996909
 50
283.738266963364083
 51
288.0990626001790815
  0
ARC
  5
1E31C
  8
0
 10
4605.3744913181608354
 20
471.8642468122370133
 30
0.0
 40
0.0523659441416895
 50
100.159905369630394
 51
103.4292818274962968
  0
ARC
  5
1E31D
  8
0
 10
4605.3466037146954477
 20
472.0006184704628822
 30
0.0
 40
0.0621659877993241
 50
278.9030664066368104
 51
281.0686719873232846
  0
ARC
  5
1E31E
  8
0
 10
4605.3597000630943512
 20
471.9046229443740117
 30
0.0
 40
0.0626419449895986
 50
96.6398777204776422
 51
98.2258129531740565
  0
ARC
  5
1E31F
  8
0
 10
4605.3420826414521798
 20
472.0724607311577188
 30
0.0
 40
0.0714414097760971
 50
273.1456479955323857
 51
274.0446081373527818
  0
ARC
  5
1E320
  8
0
 10
4605.3477318245932111
 20
471.9551320865152775
 30
0.0
 40
0.0705942444482304
 50
92.3272192776786653
 51
92.9689430214471884
  0
ARC
  5
1E321
  8
0
 10
4592.9233613202113702
 20
460.9222579240263258
 30
0.0
 40
16.7015577468494989
 50
38.7014944911827072
 51
39.3782113886225815
  0
ARC
  5
1E322
  8
0
 10
4610.6549046633826947
 20
475.269901806986411
 30
0.0
 40
6.131768379419114
 50
217.6331536165228044
 51
220.0405560772836964
  0
ARC
  5
1E323
  8
0
 10
4607.300260312883438
 20
472.4961440565343196
 30
0.0
 40
1.8185132262005439
 50
211.7872061446327905
 51
221.9176073764872967
  0
ARC
  5
1E324
  8
0
 10
4607.5031344111876024
 20
472.6235730910216262
 30
0.0
 40
2.0781367949116438
 50
211.1607150215843092
 51
221.7015145803237886
  0
ARC
  5
1E325
  8
0
 10
4607.5203211365578682
 20
472.6281481409072853
 30
0.0
 40
2.121670690305046
 50
210.0953241101447873
 51
222.5835643806211976
  0
ARC
  5
1E326
  8
0
 10
4609.1265859891027503
 20
473.7187736425889284
 30
0.0
 40
4.0807118452787501
 50
211.6134758554931921
 51
218.5051461307442082
  0
ARC
  5
1E327
  8
0
 10
4607.8216195939194222
 20
472.7698481336059899
 30
0.0
 40
2.4947374625749421
 50
208.0474386758504863
 51
219.5693226433699863
  0
ARC
  5
1E328
  8
0
 10
4607.3516114247258884
 20
472.4288780848286251
 30
0.0
 40
1.941471319411602
 50
204.7349650766061018
 51
219.8302675501437022
  0
ARC
  5
1E329
  8
0
 10
4607.4299675410256896
 20
472.4464339617765063
 30
0.0
 40
2.0387415874362471
 50
203.3685119022152037
 51
217.9702708555153947
  0
ARC
  5
1E32A
  8
0
 10
4607.2023249769190443
 20
472.3015693413007057
 30
0.0
 40
1.792166221235667
 50
200.8864531037773986
 51
217.9259881112982953
  0
ARC
  5
1E32B
  8
0
 10
4607.2502994961141667
 20
472.302885676628307
 30
0.0
 40
1.856887405716213
 50
199.2192213114470007
 51
215.9777370071342091
  0
ARC
  5
1E32C
  8
0
 10
4606.9936256871933438
 20
472.1752159036337844
 30
0.0
 40
1.591207477868624
 50
196.5250367192790009
 51
216.9736156672665004
  0
ARC
  5
1E32D
  8
0
 10
4606.8511331602394421
 20
472.0990017367408882
 30
0.0
 40
1.4487488271776381
 50
193.8752991818695079
 51
216.6454188578844935
  0
ARC
  5
1E32E
  8
0
 10
4606.8215533335524015
 20
472.0717651344318142
 30
0.0
 40
1.4235347311641411
 50
192.168117205077408
 51
215.4125171504337004
  0
ARC
  5
1E32F
  8
0
 10
4606.7797708938733194
 20
472.0517352540525167
 30
0.0
 40
1.391626071762901
 50
190.3559193059938082
 51
215.3888834527107861
  0
ARC
  5
1E330
  8
0
 10
4606.8545228371140183
 20
472.0588975661061113
 30
0.0
 40
1.475287238413044
 50
189.1276739280590107
 51
211.8636839664596039
  0
ARC
  5
1E331
  8
0
 10
4606.8280773592978221
 20
472.0407912687555836
 30
0.0
 40
1.456231520185755
 50
187.2979910395796992
 51
211.4387784070974021
  0
ARC
  5
1E332
  8
0
 10
4606.7816700691300866
 20
472.0056217580141151
 30
0.0
 40
1.414435118847414
 50
184.9693309676733008
 51
208.9503612366397078
  0
ARC
  5
1E333
  8
0
 10
4606.7543580176852629
 20
471.9915618767608976
 30
0.0
 40
1.3941223753578831
 50
183.1406842619439885
 51
208.6662363154466959
  0
ARC
  5
1E334
  8
0
 10
4606.8589535408636948
 20
471.9939431332346089
 30
0.0
 40
1.5037255534693339
 50
182.0862574428664971
 51
204.5780440874910084
  0
ARC
  5
1E335
  8
0
 10
4606.8098722881159119
 20
471.9710283863362861
 30
0.0
 40
1.45914136901022
 50
180.1730868540822996
 51
204.1612196961397956
  0
ARC
  5
1E336
  8
0
 10
4607.7981241569214035
 20
472.0599718936451268
 30
0.0
 40
2.4528271811978168
 50
181.374695135006391
 51
189.6303891938389938
  0
ARC
  5
1E337
  8
0
 10
4606.4111568018188336
 20
471.8246271765876259
 30
0.0
 40
1.0460345241352631
 50
189.6303891938389938
 51
202.9749035239487966
  0
ARC
  5
1E338
  8
0
 10
4605.5532892837272811
 20
471.4869521069730922
 30
0.0
 40
0.1320733958650678
 50
197.277472031202592
 51
211.6474633523014859
  0
ARC
  5
1E339
  8
0
 10
4606.4375575582453166
 20
471.8260828003977281
 30
0.0
 40
1.0789002674730259
 50
189.3354105538035128
 51
200.5293477400446989
  0
ARC
  5
1E33A
  8
0
 10
4607.7439462142847333
 20
472.0195607584453796
 30
0.0
 40
2.3994633178496092
 50
180.0142100480059923
 51
188.8339858150933992
  0
ARC
  5
1E33B
  8
0
 10
4603.1659758625883114
 20
470.8030052697441192
 30
0.0
 40
2.3421488591262141
 50
16.6069435659585309
 51
17.494078960560369
  0
ARC
  5
1E33C
  8
0
 10
4606.7924372310098988
 20
471.8940122983015044
 30
0.0
 40
1.4453972081639781
 50
181.3495897764858
 51
195.5277492430161885
  0
ARC
  5
1E33D
  8
0
 10
4605.6805153874884127
 20
471.584760070922016
 30
0.0
 40
0.2973950345091889
 50
195.4600678530829043
 51
201.2267919995194063
  0
ARC
  5
1E33E
  8
0
 10
4606.6466188853728454
 20
471.8519593150710989
 30
0.0
 40
1.299767921563022
 50
181.6294777543373016
 51
195.4600678530829043
  0
ARC
  5
1E33F
  8
0
 10
4613.6909544024156276
 20
472.052352499702522
 30
0.0
 40
8.3469531969132742
 50
180.6417726062414886
 51
181.6294777543373016
  0
ARC
  5
1E340
  8
0
 10
4606.6171549782229704
 20
471.8238780554323739
 30
0.0
 40
1.2699372463255421
 50
187.6967356619649081
 51
193.3968932024444882
  0
ARC
  5
1E341
  8
0
 10
4606.7791139120308799
 20
471.8457663664515849
 30
0.0
 40
1.4333685603368691
 50
181.4269230372647996
 51
187.6967356619649081
  0
ARC
  5
1E342
  8
0
 10
4606.7423373659448771
 20
471.8279011560924232
 30
0.0
 40
1.3975857036954891
 50
180.7032924025662908
 51
191.8985598387747871
  0
ARC
  5
1E343
  8
0
 10
4606.7376673998378465
 20
471.796262794296581
 30
0.0
 40
1.3928955222930819
 50
180.8720706134639045
 51
188.0562310592306972
  0
ARC
  5
1E344
  8
0
 10
4606.4730276365417012
 20
471.7579540510948277
 30
0.0
 40
1.1281361097243641
 50
181.9528418697748009
 51
187.6952118188777092
  0
ARC
  5
1E345
  8
0
 10
4578.7052888555099344
 20
470.8111651076034718
 30
0.0
 40
26.6557391836037603
 50
1.952841869774812
 51
2.0589706284329088
  0
ARC
  5
1E346
  8
0
 10
4606.9300238125715623
 20
471.7605666796179094
 30
0.0
 40
1.5860671691186361
 50
181.9555779831796087
 51
183.6180791527941949
  0
ARC
  5
1E347
  8
0
 10
4604.3231373224907657
 20
471.6817277301026934
 30
0.0
 40
1.022041942629377
 50
1.3856586500503341
 51
2.9569348822650992
  0
ARC
  5
1E348
  8
0
 10
4605.4313563995037839
 20
471.6740726621815156
 30
0.0
 40
0.0860845953396556
 50
182.7643200157741887
 51
191.4828233270897044
  0
ARC
  5
1E349
  8
0
 10
4609.8009704802152555
 20
471.8863137376192185
 30
0.0
 40
4.4608501271062204
 50
182.3331968214818062
 51
182.780469703565899
  0
ARC
  5
1E34A
  8
0
 10
4605.3312407560570136
 20
471.6592558133930879
 30
0.0
 40
0.0159240435765518
 50
351.6213246715469722
 51
4.3990301099663469
  0
ARC
  5
1E34B
  8
0
 10
4605.4039940878828929
 20
471.6117926552331028
 30
0.0
 40
0.0491876678361603
 50
185.7170012997746937
 51
204.1788540554302074
  0
ARC
  5
1E34C
  8
0
 10
4605.3220424944092883
 20
471.5939930729841763
 30
0.0
 40
0.0371532996338714
 50
356.3781487840316231
 51
10.9581106067419398
  0
ARC
  5
1E34D
  8
0
 10
4605.4151724629518867
 20
471.5498411182751965
 30
0.0
 40
0.041634549651962
 50
194.0302120152159944
 51
216.6573863966088993
  0
ARC
  5
1E34E
  8
0
 10
4605.3734245648602155
 20
471.5273160533926102
 30
0.0
 40
0.0086674297688701
 50
344.3923749401577084
 51
15.5509375092945703
  0
ARC
  5
1E34F
  8
0
 10
4605.4328496418584109
 20
471.4902313708456063
 30
0.0
 40
0.032344545040726
 50
203.9817374958876997
 51
223.8317588615263105
  0
ARC
  5
1E350
  8
0
 10
4605.4063216055483281
 20
471.470845115975294
 30
0.0
 40
0.0043924332706208
 50
316.6762205938799752
 51
20.7589791465266309
  0
ARC
  5
1E351
  8
0
 10
4605.4510231736830974
 20
471.4229434457089951
 30
0.0
 40
0.0114604661181529
 50
207.4844721036905071
 51
254.3692187890563901
  0
ARC
  5
1E352
  8
0
 10
4605.4401596842999425
 20
471.4144077528001162
 30
0.0
 40
0.0081679171238752
 50
342.1701755200419939
 51
13.6169503293272491
  0
ARC
  5
1E353
  8
0
 10
4605.5129780255529113
 20
471.3918450508903106
 30
0.0
 40
0.0388684749421377
 50
207.6728040119998866
 51
233.9288787421062921
  0
ARC
  5
1E354
  8
0
 10
4605.4713520637551483
 20
471.3571212896530938
 30
0.0
 40
0.0231123782098739
 50
12.4223140915332095
 51
29.4791421267156686
  0
ARC
  5
1E355
  8
0
 10
4605.4918451597977764
 20
471.3616353566906128
 30
0.0
 40
0.0021280081529255
 50
214.5608589265970068
 51
12.42231409150458
  0
ARC
  5
1E356
  8
0
 10
4605.5645206010858601
 20
471.3478590842703966
 30
0.0
 40
0.041764873209058
 50
216.883412915988913
 51
237.8735609201546879
  0
ARC
  5
1E357
  8
0
 10
4605.5278954754539882
 20
471.3087967504077938
 30
0.0
 40
0.020169834295845
 50
5.6028492656830506
 51
37.0952788931078175
  0
ARC
  5
1E358
  8
0
 10
4605.5554486610881213
 20
471.3454750055282716
 30
0.0
 40
0.0355058103965706
 50
248.2825968784653128
 51
257.8388719036221914
  0
ARC
  5
1E359
  8
0
 10
4605.6090452891021414
 20
471.3023454434592736
 30
0.0
 40
0.0315283357084051
 50
222.0228163156286882
 51
253.4502892835477894
  0
ARC
  5
1E35A
  8
0
 10
4605.5968202351859873
 20
471.2768524554854821
 30
0.0
 40
0.0057350685749583
 50
304.4505493997240819
 51
34.4081632204516694
  0
ARC
  5
1E35B
  8
0
 10
4605.6649377270423429
 20
471.2671589018482905
 30
0.0
 40
0.0290314132664068
 50
227.3312007765485987
 51
256.3563137137243757
  0
ARC
  5
1E35C
  8
0
 10
4605.6582829403487267
 20
471.243513971778782
 30
0.0
 40
0.004571344111015
 50
267.5773432517058836
 51
47.5086603789666313
  0
ARC
  5
1E35D
  8
0
 10
4605.72579647108887
 20
471.2544591120127961
 30
0.0
 40
0.0421873076603997
 50
208.5450317848973896
 51
259.1654183486006104
  0
ARC
  5
1E35E
  8
0
 10
4605.7190661031827403
 20
471.2165364959830072
 30
0.0
 40
0.0037118985828653
 50
251.1423015348175909
 51
26.4292315956189086
  0
ARC
  5
1E35F
  8
0
 10
4605.7820485075553734
 20
471.233614212677594
 30
0.0
 40
0.0406393710136873
 50
212.100103993117898
 51
272.5379291946177887
  0
ARC
  5
1E360
  8
0
 10
4605.7839107964982759
 20
471.1981251286841825
 30
0.0
 40
0.005110810167568
 50
269.2965370876224824
 51
21.8448392873350308
  0
ARC
  5
1E361
  8
0
 10
4605.8505405272899225
 20
471.2097127477113077
 30
0.0
 40
0.0328917457717906
 50
212.3905075244290117
 51
278.9790196735003747
  0
ARC
  5
1E362
  8
0
 10
4605.8546430483456788
 20
471.1834516793413172
 30
0.0
 40
0.0063123707474254
 50
279.400104414400289
 51
17.3651358362775987
  0
ARC
  5
1E363
  8
0
 10
4605.9209695276786078
 20
471.1951128582804245
 30
0.0
 40
0.026676057591196
 50
212.7748678245341978
 51
289.7066348370706805
  0
ARC
  5
1E364
  8
0
 10
4605.9293370940613386
 20
471.1749865378425284
 30
0.0
 40
0.0050267077304818
 50
277.1735859063267071
 51
39.5006634625067008
  0
ARC
  5
1E365
  8
0
 10
4605.9673913427650405
 20
472.6856752217934172
 30
0.0
 40
0.8852914772298847
 50
250.2754495703539135
 51
289.7245504296461149
  0
ARC
  5
1E366
  8
0
 10
4605.879059895913997
 20
472.4381840630647957
 30
0.0
 40
0.6225099831755606
 50
229.119793237217408
 51
250.2405444395689074
  0
ARC
  5
1E367
  8
0
 10
4605.7328508399778002
 20
472.2692778423647155
 30
0.0
 40
0.3991125807090356
 50
206.3345742345715905
 51
229.119793237217408
  0
ARC
  5
1E368
  8
0
 10
4605.6458152028799304
 20
472.2261967826511864
 30
0.0
 40
0.3019983189796874
 50
180.187912090892894
 51
206.3345742345715905
  0
ARC
  5
1E369
  8
0
 10
4606.1154424819023916
 20
471.7039879135941192
 30
0.0
 40
0.4755228160500952
 50
350.8609276326495205
 51
359.875620265392115
  0
ARC
  5
1E36A
  8
0
 10
4606.0944622446077119
 20
471.707846522116597
 30
0.0
 40
0.4968498218081566
 50
338.7893574436802737
 51
350.8058855955903823
  0
ARC
  5
1E36B
  8
0
 10
4606.0913770493943957
 20
471.7090438498066192
 30
0.0
 40
0.5001592059057564
 50
323.0845892740936733
 51
338.7893574436802737
  0
ARC
  5
1E36C
  8
0
 10
4606.0221686637578387
 20
471.7610360900961837
 30
0.0
 40
0.5867212858995411
 50
304.5532205420354899
 51
323.0845892740936733
  0
ARC
  5
1E36D
  8
0
 10
4605.9673685877123717
 20
472.2157831813037205
 30
0.0
 40
0.7102333228988919
 50
287.4439740389548774
 51
289.9714349154697857
  0
ARC
  5
1E36E
  8
0
 10
4605.9673685877123717
 20
472.2157831813037205
 30
0.0
 40
0.7102333228988919
 50
280.888995660743376
 51
283.7224214058749112
  0
ARC
  5
1E36F
  8
0
 10
4605.9673685877123717
 20
472.2157831813037205
 30
0.0
 40
0.7102333228988919
 50
275.4539093592077279
 51
277.8880231310113231
  0
ARC
  5
1E370
  8
0
 10
4606.015043666217025
 20
472.1128666936521086
 30
0.0
 40
0.5968506380670237
 50
322.7477526022130974
 51
325.1386376638915863
  0
ARC
  5
1E371
  8
0
 10
4606.015043666217025
 20
472.1128666936521086
 30
0.0
 40
0.5968506380670237
 50
315.1084412552186222
 51
319.1682556047816774
  0
ARC
  5
1E372
  8
0
 10
4606.015043666217025
 20
472.1128666936521086
 30
0.0
 40
0.5968506380670237
 50
307.2512775034384731
 51
311.0312484038843763
  0
ARC
  5
1E373
  8
0
 10
4606.015043666217025
 20
472.1128666936521086
 30
0.0
 40
0.5968506380670237
 50
300.1604237265183883
 51
303.7364123103869815
  0
ARC
  5
1E374
  8
0
 10
4606.0150427234502786
 20
472.1128686409310262
 30
0.0
 40
0.5968528013057725
 50
293.1944369910874002
 51
296.7135243631980757
  0
ARC
  5
1E375
  8
0
 10
4606.3045121599634513
 20
471.9719303652561848
 30
0.0
 40
0.2725985048130882
 50
334.7867260547885166
 51
340.981968856806418
  0
ARC
  5
1E376
  8
0
 10
4606.1149127811777362
 20
472.0432971093032961
 30
0.0
 40
0.4751388178141857
 50
329.4198174115975917
 51
332.6308402492978757
  0
ARC
  5
1E377
  8
0
 10
4606.0780015833188372
 20
472.053632639197815
 30
0.0
 40
0.5134697414342443
 50
356.1287230769771099
 51
357.4532694681171847
  0
ARC
  5
1E378
  8
0
 10
4606.0780015492500752
 20
472.0536326444624819
 30
0.0
 40
0.5134697759024613
 50
350.2436174999705258
 51
354.1308688480424962
  0
ARC
  5
1E379
  8
0
 10
4606.0780015833188372
 20
472.053632639197815
 30
0.0
 40
0.5134697414342443
 50
344.3571857056311956
 51
347.123011159234693
  0
ARC
  5
1E37A
  8
0
 10
4606.1133455891003905
 20
472.0572719318062127
 30
0.0
 40
0.4776186081341302
 50
338.750247020102222
 51
359.9833210077405283
  0
ARC
  5
1E37B
  8
0
 10
4606.0722319804217477
 20
472.073259935752219
 30
0.0
 40
0.5217314757438682
 50
318.2962591121643072
 51
338.750247020102222
  0
ARC
  5
1E37C
  8
0
 10
4606.0119248404807877
 20
472.1269987010492741
 30
0.0
 40
0.6025077471580187
 50
299.5859219639481239
 51
318.2962591121643072
  0
ARC
  5
1E37D
  8
0
 10
4606.0555641871051193
 20
471.5113231037469745
 30
0.0
 40
0.047908651739955
 50
175.3107404654763002
 51
185.5302421966702013
  0
ARC
  5
1E37E
  8
0
 10
4606.1450065917897518
 20
471.3898115979508816
 30
0.0
 40
0.1801899799099047
 50
139.5541454839562903
 51
144.8915537761816097
  0
ARC
  5
1E37F
  8
0
 10
4605.9502026899972407
 20
471.5267649791164786
 30
0.0
 40
0.0579376933379167
 50
287.2579921052621899
 51
324.8915537761815244
  0
ARC
  5
1E380
  8
0
 10
4600.7767690864038741
 20
475.9218540295943853
 30
0.0
 40
6.8646484120013049
 50
319.1249146666490901
 51
319.9932737927173889
  0
ARC
  5
1E381
  8
0
 10
4605.9865568760169481
 20
471.5036972905854213
 30
0.0
 40
0.0485808842014466
 50
5.9411910629517442
 51
16.0536949675669085
  0
ARC
  5
1E382
  8
0
 10
4606.0989947874995778
 20
471.5195178065636128
 30
0.0
 40
0.0349160928115677
 50
178.0722384572015073
 51
191.980505174805387
  0
ARC
  5
1E383
  8
0
 10
4602.8651936165642837
 20
474.0684555038590133
 30
0.0
 40
4.0953408342476063
 50
319.2438043995720136
 51
321.3787663991994918
  0
ARC
  5
1E384
  8
0
 10
4605.9673913427950538
 20
471.2602776589188238
 30
0.0
 40
0.0248771827007941
 50
230.4616882352869141
 51
309.5383117647130007
  0
ARC
  5
1E385
  8
0
 10
4606.0661764595952263
 20
471.5102917274634819
 30
0.0
 40
0.0362638952999521
 50
12.8188949260093406
 51
26.3543352265940385
  0
ARC
  5
1E386
  8
0
 10
4606.1630838690653036
 20
471.5355625042017778
 30
0.0
 40
0.0289241906104917
 50
182.8594535027226016
 51
199.6785341029111009
  0
ARC
  5
1E387
  8
0
 10
4606.1512559185548525
 20
471.5269217614300032
 30
0.0
 40
0.0311406773963607
 50
21.2594379657035404
 51
37.2163793732987003
  0
ARC
  5
1E388
  8
0
 10
4606.2377968779719595
 20
471.562851527896612
 30
0.0
 40
0.031437749158229
 50
192.1738205707760017
 51
207.6522438199066016
  0
ARC
  5
1E389
  8
0
 10
4606.2200379672831332
 20
471.5477874842457027
 30
0.0
 40
0.0342909688683784
 50
28.7047609628065601
 51
43.258149484800299
  0
ARC
  5
1E38A
  8
0
 10
4606.3148785762214175
 20
471.6027421147786072
 30
0.0
 40
0.0390422143395944
 50
203.6419618871767909
 51
216.1324134955908107
  0
ARC
  5
1E38B
  8
0
 10
4606.2806458826953531
 20
471.5720440360635735
 30
0.0
 40
0.0422853404999465
 50
35.8623402337008983
 51
47.1563613785833198
  0
ARC
  5
1E38C
  8
0
 10
4606.3753514826648825
 20
471.6438347443047974
 30
0.0
 40
0.0397136401916363
 50
212.0663843640228947
 51
223.4458784850831137
  0
ARC
  5
1E38D
  8
0
 10
4606.3450627467964296
 20
471.6081049332635189
 30
0.0
 40
0.0431036499000134
 50
43.5090127069477788
 51
53.7286276825165672
  0
ARC
  5
1E38E
  8
0
 10
4606.4295603558994117
 20
471.6902120316644869
 30
0.0
 40
0.0357220239143463
 50
219.1161047853765922
 51
230.5419193479716
  0
ARC
  5
1E38F
  8
0
 10
4606.4138711809146116
 20
471.6610361104267781
 30
0.0
 40
0.0388882592555687
 50
51.8771869501857879
 51
61.8157890258271721
  0
ARC
  5
1E390
  8
0
 10
4606.4891591702389633
 20
471.7588399897945237
 30
0.0
 40
0.0426478432738539
 50
230.0145453998337075
 51
238.1286217586236944
  0
ARC
  5
1E391
  8
0
 10
4606.4669918762947418
 20
471.7122573662633158
 30
0.0
 40
0.0456201114003453
 50
59.5321129229972286
 51
66.7381492385452333
  0
ARC
  5
1E392
  8
0
 10
4606.52487713235314
 20
471.8136468380604924
 30
0.0
 40
0.0465017001200018
 50
237.5119590883076057
 51
244.3967172036350064
  0
ARC
  5
1E393
  8
0
 10
4606.50311507029528
 20
471.7575571672639967
 30
0.0
 40
0.0487060018994643
 50
64.650026520241326
 51
71.0973162738052338
  0
ARC
  5
1E394
  8
0
 10
4606.5533369926952219
 20
471.8715814602638829
 30
0.0
 40
0.0495346669003093
 50
244.6102791537329892
 51
250.5784978019543132
  0
ARC
  5
1E395
  8
0
 10
4606.5341865479840635
 20
471.8073657190130916
 30
0.0
 40
0.0513216692522517
 50
70.711039508380793
 51
75.4795218169684148
  0
ARC
  5
1E396
  8
0
 10
4606.5743711150953459
 20
471.9327557762633205
 30
0.0
 40
0.0511183720996909
 50
251.9009373998208901
 51
256.261733036635917
  0
ARC
  5
1E397
  8
0
 10
4606.5602913674283627
 20
471.8642468122370133
 30
0.0
 40
0.0523659441416895
 50
76.5707181725037032
 51
79.8400946303696202
  0
ARC
  5
1E398
  8
0
 10
4606.5881789708946599
 20
472.0006184704628822
 30
0.0
 40
0.0621659877993241
 50
258.9313280126767154
 51
261.0969335933631896
  0
ARC
  5
1E399
  8
0
 10
4606.5750826224966659
 20
471.9046229443740117
 30
0.0
 40
0.0626419449895986
 50
81.7741870468259577
 51
83.3601222795223578
  0
ARC
  5
1E39A
  8
0
 10
4606.5927000441397468
 20
472.0724607311577188
 30
0.0
 40
0.0714414097760971
 50
265.9553918626472182
 51
266.8543520044675006
  0
ARC
  5
1E39B
  8
0
 10
4606.5870508609968965
 20
471.9551320865152775
 30
0.0
 40
0.0705942444482304
 50
87.0310569785527832
 51
87.6727807223213205
  0
ARC
  5
1E39C
  8
0
 10
4619.0114213653796469
 20
460.9222579240263258
 30
0.0
 40
16.7015577468494989
 50
140.6217886113774114
 51
141.2985055088172999
  0
ARC
  5
1E39D
  8
0
 10
4601.2798780222074129
 20
475.269901806986411
 30
0.0
 40
6.131768379419114
 50
319.9594439227162752
 51
322.3668463834771956
  0
ARC
  5
1E39E
  8
0
 10
4604.6345223727075791
 20
472.4961440565343196
 30
0.0
 40
1.8185132262005439
 50
318.0823926235125896
 51
328.2127938553671811
  0
ARC
  5
1E39F
  8
0
 10
4604.4316482744034147
 20
472.6235730910216262
 30
0.0
 40
2.0781367949116438
 50
318.298485419676183
 51
328.8392849784157193
  0
ARC
  5
1E3A0
  8
0
 10
4604.4144615490322394
 20
472.6281481409072853
 30
0.0
 40
2.121670690305046
 50
317.4164356193787739
 51
329.9046758898551843
  0
ARC
  5
1E3A1
  8
0
 10
4602.8081966964882668
 20
473.7187736425889284
 30
0.0
 40
4.0807118452787501
 50
321.4948538692557918
 51
328.3865241445067795
  0
ARC
  5
1E3A2
  8
0
 10
4604.1131630916697759
 20
472.7698481336059899
 30
0.0
 40
2.4947374625749421
 50
320.430677356630099
 51
331.9525613241494284
  0
ARC
  5
1E3A3
  8
0
 10
4604.5831712608651287
 20
472.4288780848286251
 30
0.0
 40
1.941471319411602
 50
320.1697324498563262
 51
335.2650349233938982
  0
ARC
  5
1E3A4
  8
0
 10
4604.504815144564418
 20
472.4464339617765063
 30
0.0
 40
2.0387415874362471
 50
322.0297291444845769
 51
336.6314880977848247
  0
ARC
  5
1E3A5
  8
0
 10
4604.7324577086719728
 20
472.3015693413007057
 30
0.0
 40
1.792166221235667
 50
322.0740118887018184
 51
339.1135468962226014
  0
ARC
  5
1E3A6
  8
0
 10
4604.6844831894750314
 20
472.302885676628307
 30
0.0
 40
1.856887405716213
 50
324.0222629928658193
 51
340.780778688552914
  0
ARC
  5
1E3A7
  8
0
 10
4604.9411569983976733
 20
472.1752159036337844
 30
0.0
 40
1.591207477868624
 50
323.026384332733528
 51
343.4749632807208855
  0
ARC
  5
1E3A8
  8
0
 10
4605.083649525349756
 20
472.0990017367408882
 30
0.0
 40
1.4487488271776381
 50
323.3545811421154781
 51
346.1247008181305205
  0
ARC
  5
1E3A9
  8
0
 10
4605.1132293520377061
 20
472.0717651344318142
 30
0.0
 40
1.4235347311641411
 50
324.5874828495661859
 51
347.8318827949224783
  0
ARC
  5
1E3AA
  8
0
 10
4605.1550117917176976
 20
472.0517352540525167
 30
0.0
 40
1.391626071762901
 50
324.6111165472892139
 51
349.6440806940062203
  0
ARC
  5
1E3AB
  8
0
 10
4605.0802598484769987
 20
472.0588975661061113
 30
0.0
 40
1.475287238413044
 50
328.1363160335404245
 51
350.8723260719410177
  0
ARC
  5
1E3AC
  8
0
 10
4605.1067053262922855
 20
472.0407912687555836
 30
0.0
 40
1.456231520185755
 50
328.5612215929024842
 51
352.7020089604201871
  0
ARC
  5
1E3AD
  8
0
 10
4605.1531126164609304
 20
472.0056217580141151
 30
0.0
 40
1.414435118847414
 50
331.0496387633601785
 51
355.0306690323267276
  0
ARC
  5
1E3AE
  8
0
 10
4605.1804246679057542
 20
471.9915618767608976
 30
0.0
 40
1.3941223753578831
 50
331.3337636845532188
 51
356.8593157380560115
  0
ARC
  5
1E3AF
  8
0
 10
4605.0758291447264128
 20
471.9939431332346089
 30
0.0
 40
1.5037255534693339
 50
335.42195591250902
 51
357.913742557130206
  0
ARC
  5
1E3B0
  8
0
 10
4605.1249103974751051
 20
471.9710283863362861
 30
0.0
 40
1.45914136901022
 50
335.838780303860176
 51
359.826913145917672
  0
ARC
  5
1E3B1
  8
0
 10
4604.1366585286696136
 20
472.0599718936451268
 30
0.0
 40
2.4528271811978168
 50
350.3696108061610062
 51
358.625304864993609
  0
ARC
  5
1E3B2
  8
0
 10
4605.5236258837721834
 20
471.8246271765876259
 30
0.0
 40
1.0460345241352631
 50
337.0250964760512034
 51
350.3696108061610062
  0
ARC
  5
1E3B3
  8
0
 10
4606.3814934018637359
 20
471.4869521069730922
 30
0.0
 40
0.1320733958650678
 50
328.3525366476985141
 51
342.722527968797408
  0
ARC
  5
1E3B4
  8
0
 10
4605.4972251273438815
 20
471.8260828003977281
 30
0.0
 40
1.0789002674730259
 50
339.4706522599552727
 51
350.6645894461963735
  0
ARC
  5
1E3B5
  8
0
 10
4604.1908364713053743
 20
472.0195607584453796
 30
0.0
 40
2.3994633178496092
 50
351.1660141849064871
 51
359.9857899519939792
  0
ARC
  5
1E3B6
  8
0
 10
4608.7688068230027056
 20
470.8030052697441192
 30
0.0
 40
2.3421488591262141
 50
162.5059210394396132
 51
163.3930564340415117
  0
ARC
  5
1E3B7
  8
0
 10
4605.1423454545802088
 20
471.8940122983015044
 30
0.0
 40
1.4453972081639781
 50
344.472250756983783
 51
358.6504102235142
  0
ARC
  5
1E3B8
  8
0
 10
4606.2542672981016949
 20
471.584760070922016
 30
0.0
 40
0.2973950345091889
 50
338.7732080004806221
 51
344.5399321469171241
  0
ARC
  5
1E3B9
  8
0
 10
4605.2881638002172622
 20
471.8519593150710989
 30
0.0
 40
1.299767921563022
 50
344.5399321469171241
 51
358.3705222456626984
  0
ARC
  5
1E3BA
  8
0
 10
4598.2438282831735705
 20
472.052352499702522
 30
0.0
 40
8.3469531969132742
 50
358.3705222456626984
 51
359.3582273937583977
  0
ARC
  5
1E3BB
  8
0
 10
4605.3176277073680467
 20
471.8238780554323739
 30
0.0
 40
1.2699372463255421
 50
346.6031067975554265
 51
352.3032643380349782
  0
ARC
  5
1E3BC
  8
0
 10
4605.1556687735601372
 20
471.8457663664515849
 30
0.0
 40
1.4333685603368691
 50
352.3032643380349782
 51
358.5730769627351719
  0
ARC
  5
1E3BD
  8
0
 10
4605.19244531964614
 20
471.8279011560924232
 30
0.0
 40
1.3975857036954891
 50
348.1014401612251845
 51
359.296707597433624
  0
ARC
  5
1E3BE
  8
0
 10
4605.1971152857531706
 20
471.796262794296581
 30
0.0
 40
1.3928955222930819
 50
351.9437689407693028
 51
359.1279293865360955
  0
ARC
  5
1E3BF
  8
0
 10
4605.4617550490484064
 20
471.7579540510948277
 30
0.0
 40
1.1281361097243641
 50
352.3047881811223192
 51
358.0471581302252275
  0
ARC
  5
1E3C0
  8
0
 10
4633.2294938300810827
 20
470.8111651076034718
 30
0.0
 40
26.6557391836037603
 50
177.9410293715671116
 51
178.0471581302251991
  0
ARC
  5
1E3C1
  8
0
 10
4605.0047588730167263
 20
471.7605666796179094
 30
0.0
 40
1.5860671691186361
 50
356.3819208472057767
 51
358.0444220168204197
  0
ARC
  5
1E3C2
  8
0
 10
4607.6116453630993419
 20
471.6817277301026934
 30
0.0
 40
1.022041942629377
 50
177.0430651177348977
 51
178.6143413499495978
  0
ARC
  5
1E3C3
  8
0
 10
4606.5034262860863237
 20
471.6740726621815156
 30
0.0
 40
0.0860845953396556
 50
348.5171766729102956
 51
357.235679984225726
  0
ARC
  5
1E3C4
  8
0
 10
4625.4804666433556122
 20
470.798115310304695
 30
0.0
 40
18.91116176802133
 50
177.2575279219396975
 51
177.3577246872993953
  0
ARC
  5
1E3C5
  8
0
 10
4606.6035419295330939
 20
471.6592558133930879
 30
0.0
 40
0.0159240435765518
 50
175.6009698900336105
 51
188.3786753284529141
  0
ARC
  5
1E3C6
  8
0
 10
4606.5307885977072146
 20
471.6117926552331028
 30
0.0
 40
0.0491876678361603
 50
335.821145944569821
 51
354.2829987002252778
  0
ARC
  5
1E3C7
  8
0
 10
4606.6127401911799097
 20
471.5939930729841763
 30
0.0
 40
0.0371532996338714
 50
169.0418893932580033
 51
183.6218512159682916
  0
ARC
  5
1E3C8
  8
0
 10
4606.5196102226382209
 20
471.5498411182751965
 30
0.0
 40
0.041634549651962
 50
323.342613603390987
 51
345.9697879847839772
  0
ARC
  5
1E3C9
  8
0
 10
4606.5613581207308016
 20
471.5273160533926102
 30
0.0
 40
0.0086674297688701
 50
164.4490624907053871
 51
195.6076250598422916
  0
ARC
  5
1E3CA
  8
0
 10
4606.5019330437326062
 20
471.4902313708456063
 30
0.0
 40
0.032344545040726
 50
316.1682411384737179
 51
336.0182625041122719
  0
ARC
  5
1E3CB
  8
0
 10
4606.5284610800417795
 20
471.470845115975294
 30
0.0
 40
0.0043924332706208
 50
159.2410208534734011
 51
223.32377940612011
  0
ARC
  5
1E3CC
  8
0
 10
4606.4837595119079197
 20
471.4229434457089951
 30
0.0
 40
0.0114604661181529
 50
285.6307812109434963
 51
332.5155278963093792
  0
ARC
  5
1E3CD
  8
0
 10
4606.4946230012910746
 20
471.4144077528001162
 30
0.0
 40
0.0081679171238752
 50
166.3830496706727047
 51
197.8298244799578924
  0
ARC
  5
1E3CE
  8
0
 10
4606.4218046600371963
 20
471.3918450508903106
 30
0.0
 40
0.0388684749421377
 50
306.0711212578937079
 51
332.327195988000085
  0
ARC
  5
1E3CF
  8
0
 10
4606.4634306218349593
 20
471.3571212896530938
 30
0.0
 40
0.0231123782098739
 50
150.5208578732843137
 51
167.5776859084668047
  0
ARC
  5
1E3D0
  8
0
 10
4606.4429375257923311
 20
471.3616353566906128
 30
0.0
 40
0.0021280081529255
 50
167.5776859084953969
 51
325.4391410734028796
  0
ARC
  5
1E3D1
  8
0
 10
4606.370262084505157
 20
471.3478590842703966
 30
0.0
 40
0.041764873209058
 50
302.1264390798452837
 51
323.1165870840109733
  0
ARC
  5
1E3D2
  8
0
 10
4606.4068872101370289
 20
471.3087967504077938
 30
0.0
 40
0.020169834295845
 50
142.9047211068921968
 51
174.3971507343169094
  0
ARC
  5
1E3D3
  8
0
 10
4606.3793340245019863
 20
471.3454750055282716
 30
0.0
 40
0.0355058103965706
 50
282.1611280963776949
 51
291.7174031215346872
  0
ARC
  5
1E3D4
  8
0
 10
4606.3257373964879662
 20
471.3023454434592736
 30
0.0
 40
0.0315283357084051
 50
286.5497107164521822
 51
317.9771836843713118
  0
ARC
  5
1E3D5
  8
0
 10
4606.3379624504050298
 20
471.2768524554854821
 30
0.0
 40
0.0057350685749583
 50
145.591836779548288
 51
235.5494506002758897
  0
ARC
  5
1E3D6
  8
0
 10
4606.2698449585486742
 20
471.2671589018482905
 30
0.0
 40
0.0290314132664068
 50
283.6436862862756243
 51
312.6687992234514013
  0
ARC
  5
1E3D7
  8
0
 10
4606.2764997452422904
 20
471.243513971778782
 30
0.0
 40
0.004571344111015
 50
132.4913396210334042
 51
272.4226567482941164
  0
ARC
  5
1E3D8
  8
0
 10
4606.208986214502147
 20
471.2544591120127961
 30
0.0
 40
0.0421873076603997
 50
280.8345816513992759
 51
331.4549682151024967
  0
ARC
  5
1E3D9
  8
0
 10
4606.2157165824082767
 20
471.2165364959830072
 30
0.0
 40
0.0037118985828653
 50
153.5707684043811128
 51
288.8576984651824091
  0
ARC
  5
1E3DA
  8
0
 10
4606.1527341780347342
 20
471.233614212677594
 30
0.0
 40
0.0406393710136873
 50
267.4620708053822113
 51
327.8998960068819883
  0
ARC
  5
1E3DB
  8
0
 10
4606.1508718890918317
 20
471.1981251286841825
 30
0.0
 40
0.005110810167568
 50
158.1551607126648946
 51
270.7034629123775176
  0
ARC
  5
1E3DC
  8
0
 10
4606.0842421583010946
 20
471.2097127477113077
 30
0.0
 40
0.0328917457717906
 50
261.0209803264996253
 51
327.6094924755710167
  0
ARC
  5
1E3DD
  8
0
 10
4606.0801396372453382
 20
471.1834516793413172
 30
0.0
 40
0.0063123707474254
 50
162.6348641637223977
 51
260.599895585599711
  0
ARC
  5
1E3DE
  8
0
 10
4606.0138131579105902
 20
471.1951128582804245
 30
0.0
 40
0.026676057591196
 50
250.293365162929291
 51
327.2251321754657738
  0
ARC
  5
1E3DF
  8
0
 10
4606.0054455915278595
 20
471.1749865378425284
 30
0.0
 40
0.0050267077304818
 50
140.4993365374932921
 51
262.8264140936732929
  0
ARC
  5
1E3E0
  8
0
 10
4606.05572278967702
 20
472.4381840630647957
 30
0.0
 40
0.6225099831755606
 50
289.7594555604312063
 51
310.8802067627825068
  0
ARC
  5
1E3E1
  8
0
 10
4606.2019318456123074
 20
472.2692778423647155
 30
0.0
 40
0.3991125807090356
 50
310.8802067627825068
 51
333.6654257654283242
  0
ARC
  5
1E3E2
  8
0
 10
4606.2889674827101771
 20
472.2261967826511864
 30
0.0
 40
0.3019983189796874
 50
333.6654257654283242
 51
359.812087909107106
  0
ARC
  5
1E3E3
  8
0
 10
4601.9673913427950538
 20
478.5790228953636074
 30
0.0
 40
0.4735000000000014
 50
270.0
 51
90.0
  0
LINE
  5
1E3E4
  8
0
 10
4598.6415273141947182
 20
478.9535239567384224
 30
0.0
 11
4598.6415273141947182
 21
478.2047936375636255
 31
0.0
  0
LINE
  5
1E3E5
  8
0
 10
4598.726669449795736
 20
478.1113705267302976
 30
0.0
 11
4598.726669449795736
 21
479.0466547980968244
 31
0.0
  0
ARC
  5
1E3E6
  8
0
 10
4598.7408572121403267
 20
479.0324376098121775
 30
0.0
 40
0.0200853439872993
 50
90.138209522674174
 51
134.9406447998431986
  0
LINE
  5
1E3E7
  8
0
 10
4598.726669449795736
 20
479.0466547980968244
 30
0.0
 11
4598.6473828628950287
 21
478.9673672656634835
 31
0.0
  0
ARC
  5
1E3E8
  8
0
 10
4598.6615250831428057
 20
478.9532252143133064
 30
0.0
 40
0.0200000002486971
 50
135.0003421386682874
 51
179.1441341758886949
  0
LINE
  5
1E3E9
  8
0
 10
4600.9105015789946265
 20
479.0525228953636088
 30
0.0
 11
4600.9105015789946265
 21
478.1055228953634924
 31
0.0
  0
ARC
  5
1E3EA
  8
0
 10
4598.6615419791851309
 20
478.2048020647811768
 30
0.0
 40
0.0200146667641687
 50
180.0241245094910028
 51
224.9919899861660895
  0
LINE
  5
1E3EB
  8
0
 10
4598.6473874941948452
 20
478.1906515368635269
 30
0.0
 11
4598.726669449795736
 21
478.1113705267302976
 31
0.0
  0
ARC
  5
1E3EC
  8
0
 10
4598.7408142901231258
 20
478.1255099612695858
 30
0.0
 40
0.0200000029254552
 50
224.9890494303242008
 51
267.9390705311669194
  0
ARC
  5
1E3ED
  8
0
 10
4600.8657820885791807
 20
521.5284019854036615
 30
0.0
 40
42.4765165794502906
 50
269.6860935685107847
 51
270.060321296154882
  0
ARC
  5
1E3EE
  8
0
 10
4599.6819213500839396
 20
415.4940795704760035
 30
0.0
 40
63.5658859485142003
 50
88.8925373379730246
 51
89.1135868799883752
  0
ARC
  5
1E3EF
  8
0
 10
4604.5048849207732928
 20
627.7290542742408661
 30
0.0
 40
148.7291181646208997
 50
268.4763306233206208
 51
268.6151800642895751
  0
ARC
  5
1E3F0
  8
0
 10
4603.6129376631388368
 20
546.0528425475587255
 30
0.0
 40
67.0736238911010929
 50
267.321042338069276
 51
267.6908940360685278
  0
ARC
  5
1E3F1
  8
0
 10
4597.1524664995149578
 20
413.0635897766155153
 30
0.0
 40
66.0682833618446352
 50
86.7391944023936219
 51
87.1916015407986436
  0
ARC
  5
1E3F2
  8
0
 10
4583.3651402466157379
 20
252.2531925696812891
 30
0.0
 40
227.432538501019593
 50
85.575501315392259
 51
85.7235302824324208
  0
ARC
  5
1E3F3
  8
0
 10
4599.9543603277061266
 20
472.2018290739698045
 30
0.0
 40
6.8538181466239543
 50
86.5542141499597477
 51
88.2699209033125669
  0
ARC
  5
1E3F4
  8
0
 10
4580.11837832807214
 20
256.244868048643184
 30
0.0
 40
223.716562314398999
 50
84.667258304531245
 51
84.8072224906057386
  0
ARC
  5
1E3F5
  8
0
 10
4592.2533763762448871
 20
405.8088153907278866
 30
0.0
 40
73.6735187749466149
 50
83.2517764849277455
 51
83.7163950437044235
  0
ARC
  5
1E3F6
  8
0
 10
4600.0113309390953873
 20
475.5499727356963149
 30
0.0
 40
3.5031096994005582
 50
84.9952776842674353
 51
88.9759244246528738
  0
ARC
  5
1E3F7
  8
0
 10
4601.9627888016084398
 20
490.1988315404673244
 30
0.0
 40
11.2901828266799207
 50
261.559044696846172
 51
264.6520572606690962
  0
ARC
  5
1E3F8
  8
0
 10
4599.8876158016100817
 20
475.0547516244863004
 30
0.0
 40
3.9980951182745872
 50
84.0004196051198164
 51
89.2707369553849333
  0
ARC
  5
1E3F9
  8
0
 10
4601.6412514829580687
 20
486.1672791498340871
 30
0.0
 40
7.2720562511140887
 50
260.0349387503932803
 51
264.2327631429924963
  0
ARC
  5
1E3FA
  8
0
 10
4599.7803587717744449
 20
475.1274637462151986
 30
0.0
 40
3.923996861122375
 50
81.1680131491153958
 51
88.9481723844205447
  0
ARC
  5
1E3FB
  8
0
 10
4600.5647130848437882
 20
515.9593547786121235
 30
0.0
 40
36.9154285119303225
 50
268.7634656484831908
 51
268.8943487825864054
  0
ARC
  5
1E3FC
  8
0
 10
4601.2346593555412255
 20
483.5936493477432236
 30
0.0
 40
4.6866986108242434
 50
258.5818069813705051
 51
266.0339432177711956
  0
ARC
  5
1E3FD
  8
0
 10
4599.6267491781663921
 20
474.5724469699962924
 30
0.0
 40
4.47919251440615
 50
81.2668100742486246
 51
89.0641748015748362
  0
ARC
  5
1E3FE
  8
0
 10
4599.5632171059987741
 20
472.7724937594937273
 30
0.0
 40
6.2800359983710132
 50
88.7528267439641212
 51
89.9152971901312839
  0
ARC
  5
1E3FF
  8
0
 10
4602.5266361972880986
 20
491.1073646496175797
 30
0.0
 40
12.3252188981816797
 50
259.6252149983753839
 51
262.4654389414238267
  0
ARC
  5
1E400
  8
0
 10
4599.4556732904738965
 20
473.7371471314601763
 30
0.0
 40
5.3151329040202278
 50
80.7828503580713573
 51
87.3689852887675329
  0
ARC
  5
1E401
  8
0
 10
4599.9934694957019019
 20
490.4697116794060889
 30
0.0
 40
11.4268124354100902
 50
267.648334723846915
 51
268.526620648507901
  0
ARC
  5
1E402
  8
0
 10
4601.6313625332031734
 20
485.8022960622386108
 30
0.0
 40
6.9688873802178053
 50
258.3491284982969205
 51
264.0627105303221924
  0
ARC
  5
1E403
  8
0
 10
4599.181453718546436
 20
472.1596836842667813
 30
0.0
 40
6.8965672438043866
 50
81.3052239236386356
 51
86.2920777292202388
  0
ARC
  5
1E404
  8
0
 10
4599.3034749709868265
 20
474.3248423891283778
 30
0.0
 40
4.728084990102122
 50
86.0708523617517045
 51
89.2505395988617636
  0
ARC
  5
1E405
  8
0
 10
4473.4655960501831942
 20
-280.2766124830719718
 30
0.0
 40
769.7381038907814172
 50
80.4696992075482456
 51
80.5433177006907357
  0
ARC
  5
1E406
  8
0
 10
4599.0456946129315838
 20
471.8429492260078746
 30
0.0
 40
7.2129150548256469
 50
82.9176071125566665
 51
88.2559365598111611
  0
ARC
  5
1E407
  8
0
 10
4603.6414740282543789
 20
497.4157952050096014
 30
0.0
 40
18.7982954221384198
 50
259.1162133110491936
 51
261.6466415678422095
  0
ARC
  5
1E408
  8
0
 10
4598.4377005038386415
 20
468.1396358056555869
 30
0.0
 40
10.9417887153012607
 50
81.3039135681272853
 51
85.6510530187812549
  0
ARC
  5
1E409
  8
0
 10
4599.0603756166738094
 20
473.5635973858833268
 30
0.0
 40
5.4902280832727346
 50
87.8387532758650309
 51
88.7518919288902737
  0
ARC
  5
1E40A
  8
0
 10
4602.1602967686012562
 20
486.984783212027196
 30
0.0
 40
8.2985053832969822
 50
258.0732925883131088
 51
261.3380196649954996
  0
ARC
  5
1E40B
  8
0
 10
4598.4222432503192977
 20
469.2873364463458188
 30
0.0
 40
9.7894095360537445
 50
78.0732925883131088
 51
85.9685273377119046
  0
ARC
  5
1E40C
  8
0
 10
4605.4411285415417296
 20
507.2738112050035966
 30
0.0
 40
28.8766105961239994
 50
258.7207579240684936
 51
260.9732208216098002
  0
ARC
  5
1E40D
  8
0
 10
4598.6843355630244332
 20
473.3954926856205816
 30
0.0
 40
5.6689349496526438
 50
78.720757924068522
 51
85.6464474673632026
  0
ARC
  5
1E40E
  8
0
 10
4598.9611879947788111
 20
476.5323099848250195
 30
0.0
 40
2.52043799983075
 50
86.5088479044570988
 51
89.2342618746635594
  0
ARC
  5
1E40F
  8
0
 10
4608.3903828320680987
 20
521.05188586082852
 30
0.0
 40
42.9927072035936888
 50
258.3691255556062742
 51
259.9806805097877032
  0
ARC
  5
1E410
  8
0
 10
4598.3891854498533576
 20
472.4627929997568003
 30
0.0
 40
6.6149927444977177
 50
78.3691255556062742
 51
84.9909840052882686
  0
ARC
  5
1E411
  8
0
 10
4607.808739551393046
 20
514.6133451539120642
 30
0.0
 40
36.5982846465545819
 50
257.4380612296533855
 51
259.1355998748493903
  0
ARC
  5
1E412
  8
0
 10
4592.3475799873522192
 20
441.1710719496352908
 30
0.0
 40
38.458732374580471
 50
78.7525930508111855
 51
79.8101951199421649
  0
ARC
  5
1E413
  8
0
 10
4598.738610968467583
 20
476.3803640181744186
 30
0.0
 40
2.674862013912831
 50
81.1247269411049245
 51
87.4239307979397751
  0
ARC
  5
1E414
  8
0
 10
4610.1431458674278474
 20
523.1514531240710539
 30
0.0
 40
45.4678524856150901
 50
256.8559202468254057
 51
258.2841176200785753
  0
ARC
  5
1E415
  8
0
 10
4597.0100779737449557
 20
466.9114908148324048
 30
0.0
 40
12.2851633044253692
 50
76.8559202468253631
 51
80.5411939525269389
  0
ARC
  5
1E416
  8
0
 10
4598.7254220727436405
 20
477.0392931030214072
 30
0.0
 40
2.0133511746740398
 50
81.3276513176947873
 51
89.3708448090953169
  0
ARC
  5
1E417
  8
0
 10
4606.3423066293671582
 20
506.3036507741065861
 30
0.0
 40
28.2287257075777696
 50
256.6881662907355803
 51
258.9058839680150754
  0
ARC
  5
1E418
  8
0
 10
4596.2478891034461412
 20
463.640619741989326
 30
0.0
 40
15.6122537754930502
 50
76.6881662907356656
 51
80.6959390038045967
  0
ARC
  5
1E419
  8
0
 10
4592.864737476926166
 20
450.5237403531235145
 30
0.0
 40
29.1183299127191617
 50
76.2831791663639649
 51
78.2969536496488132
  0
ARC
  5
1E41A
  8
0
 10
4579.9146092024411701
 20
386.7511222333096725
 30
0.0
 40
94.1771929372611822
 50
77.1928306678024541
 51
77.829384737398172
  0
ARC
  5
1E41B
  8
0
 10
4967.1324834370052486
 20
2194.0726689607440676
 30
0.0
 40
1754.1953847089109786
 50
257.9096654654807139
 51
257.941245201093011
  0
ARC
  5
1E41C
  8
0
 10
4585.2917908163854008
 20
423.2635951789375781
 30
0.0
 40
57.3656881252807125
 50
75.4433461648691832
 51
76.4088180342818504
  0
ARC
  5
1E41D
  8
0
 10
4604.552609244508858
 20
498.0384435939050149
 30
0.0
 40
19.8920578324017185
 50
253.101053418233505
 51
255.4141997423542989
  0
ARC
  5
1E41E
  8
0
 10
4591.963203166371386
 20
441.015466735443681
 30
0.0
 40
38.5250693401483204
 50
77.2181731986447062
 51
78.6527379479998814
  0
ARC
  5
1E41F
  8
0
 10
4610.2763257112455904
 20
528.9585790166795505
 30
0.0
 40
51.3459564181893811
 50
257.9332024867479163
 51
258.8326591715917857
  0
ARC
  5
1E420
  8
0
 10
4602.2225389183304287
 20
488.7642223379796746
 30
0.0
 40
10.3694466902475195
 50
250.5678260635529
 51
255.0207458791909971
  0
ARC
  5
1E421
  8
0
 10
4602.1366467060379364
 20
490.20713163733069
 30
0.0
 40
11.7836805886316593
 50
256.7056505908569761
 51
260.5017968790912164
  0
ARC
  5
1E422
  8
0
 10
4601.5605374613478489
 20
486.0935203154040209
 30
0.0
 40
7.6575272680701447
 50
248.6198102538369028
 51
253.82173434968621
  0
ARC
  5
1E423
  8
0
 10
4602.0764891594017172
 20
490.0400660125679906
 30
0.0
 40
11.6295804042610307
 50
256.5189332648744198
 51
260.0128248266967148
  0
ARC
  5
1E424
  8
0
 10
4600.9165705430341404
 20
484.2077851009433971
 30
0.0
 40
5.6923082974485668
 50
247.8763825996337005
 51
254.1862649786804127
  0
ARC
  5
1E425
  8
0
 10
4600.3675568362432386
 20
482.4003557769246981
 30
0.0
 40
3.8391819317620208
 50
245.2534953520471959
 51
263.6330291705328932
  0
ARC
  5
1E426
  8
0
 10
4600.149468087058267
 20
481.8203527096154062
 30
0.0
 40
3.2543931975597569
 50
244.9769777880109132
 51
263.7826185051770267
  0
ARC
  5
1E427
  8
0
 10
4599.942124022561984
 20
481.1554146213168792
 30
0.0
 40
2.5949287732672959
 50
242.904396334167501
 51
262.0262155963363284
  0
ARC
  5
1E428
  8
0
 10
4599.8238478313323867
 20
480.8641300858993191
 30
0.0
 40
2.3113060445819129
 50
242.9533494238428091
 51
260.2952597067280749
  0
ARC
  5
1E429
  8
0
 10
4599.7759081760523259
 20
480.7877105460568146
 30
0.0
 40
2.254268327902289
 50
243.2271853097684868
 51
257.3943502593864991
  0
ARC
  5
1E42A
  8
0
 10
4599.4799806253058705
 20
480.0598037325848964
 30
0.0
 40
1.5021373107310561
 50
241.9103506037141074
 51
258.9758178117230045
  0
ARC
  5
1E42B
  8
0
 10
4599.3851224069503587
 20
479.8381153671396078
 30
0.0
 40
1.293604653866405
 50
241.1340918164389109
 51
255.3185527514899036
  0
ARC
  5
1E42C
  8
0
 10
4599.2947329873131821
 20
479.7516111173300146
 30
0.0
 40
1.203553887808803
 50
244.018466833353898
 51
255.3054423549282888
  0
ARC
  5
1E42D
  8
0
 10
4599.214812012094626
 20
479.6020160076628827
 30
0.0
 40
1.064140634999257
 50
244.6978947695936029
 51
252.1565291781269025
  0
ARC
  5
1E42E
  8
0
 10
4598.7371543464942079
 20
478.4818416172653883
 30
0.0
 40
0.1299157565123848
 50
48.4144497720352902
 51
76.3076408765225835
  0
ARC
  5
1E42F
  8
0
 10
4598.7717959793453701
 20
479.0420987415180889
 30
0.0
 40
0.0053871990095112
 50
88.0320330767026462
 51
262.3717793419904751
  0
ARC
  5
1E430
  8
0
 10
4598.772532255875376
 20
479.0139729067353187
 30
0.0
 40
0.008912327148556
 50
91.5026962274923363
 51
255.4571280284810939
  0
ARC
  5
1E431
  8
0
 10
4598.7716864300009547
 20
478.9740723043709067
 30
0.0
 40
0.0114354470462782
 50
84.8141154014349183
 51
256.1488824017001775
  0
ARC
  5
1E432
  8
0
 10
4598.7688783283729208
 20
478.9228274259684781
 30
0.0
 40
0.0123951057969825
 50
71.4956557570423996
 51
227.2129435758353111
  0
ARC
  5
1E433
  8
0
 10
4598.7703366412033574
 20
478.8565141940977128
 30
0.0
 40
0.0151311488987907
 50
80.1809623489323116
 51
227.912109195738509
  0
ARC
  5
1E434
  8
0
 10
4598.7695774535641249
 20
478.7891634429228134
 30
0.0
 40
0.0167576439773823
 50
78.70217286103059
 51
237.0547949211384093
  0
ARC
  5
1E435
  8
0
 10
4598.7696239874676394
 20
478.7186995190094194
 30
0.0
 40
0.0161946818924445
 50
79.0669736909326701
 51
236.2216142557373075
  0
ARC
  5
1E436
  8
0
 10
4598.7685298283713564
 20
478.6536251736970939
 30
0.0
 40
0.0161032447647066
 50
93.7437757388670008
 51
238.0477579331488016
  0
LINE
  5
1E437
  8
0
 10
4598.7544064033945688
 20
478.5963921729635899
 30
0.0
 11
4598.7544065495176255
 21
478.5616546519909775
 31
0.0
  0
ARC
  5
1E438
  8
0
 10
4598.7649192670060074
 20
478.5978769691798789
 30
0.0
 40
0.0106171993056913
 50
73.6586179430205874
 51
188.0390623574866993
  0
ARC
  5
1E439
  8
0
 10
4600.8657820885791807
 20
435.6296438053234965
 30
0.0
 40
42.4765165794502906
 50
89.9396787038450469
 51
90.3139064314891442
  0
ARC
  5
1E43A
  8
0
 10
4599.6819213500839396
 20
541.6639662202511545
 30
0.0
 40
63.5658859485142003
 50
270.8864131200115821
 51
271.1074626620269896
  0
ARC
  5
1E43B
  8
0
 10
4604.5048849207732928
 20
329.4289915164861782
 30
0.0
 40
148.7291181646208997
 50
91.3848199357103965
 51
91.5236693766794218
  0
ARC
  5
1E43C
  8
0
 10
4603.6129376631388368
 20
411.1052032431683756
 30
0.0
 40
67.0736238911010929
 50
92.3091059639314864
 51
92.6789576619307383
  0
ARC
  5
1E43D
  8
0
 10
4597.1524664995149578
 20
544.0944560141116426
 30
0.0
 40
66.0682833618446352
 50
272.8083984592013849
 51
273.2608055976064065
  0
ARC
  5
1E43E
  8
0
 10
4583.3651402466157379
 20
704.9048532210458688
 30
0.0
 40
227.432538501019593
 50
274.2764697175675792
 51
274.4244986846077268
  0
ARC
  5
1E43F
  8
0
 10
4599.9543603277061266
 20
484.9562167167574103
 30
0.0
 40
6.8538181466239543
 50
271.7300790966874047
 51
273.4457858500402949
  0
ARC
  5
1E440
  8
0
 10
4580.11837832807214
 20
700.9131777420840308
 30
0.0
 40
223.716562314398999
 50
275.1927775093943183
 51
275.332741695468826
  0
ARC
  5
1E441
  8
0
 10
4592.2533763762448871
 20
551.3492303999993283
 30
0.0
 40
73.6735187749466149
 50
276.2836049562956191
 51
276.7482235150723113
  0
ARC
  5
1E442
  8
0
 10
4600.0113309390953873
 20
481.6080730550308999
 30
0.0
 40
3.5031096994005582
 50
271.0240755753471262
 51
275.0047223157325789
  0
ARC
  5
1E443
  8
0
 10
4601.9627888016084398
 20
466.9592142502597767
 30
0.0
 40
11.2901828266799207
 50
95.347942739330918
 51
98.440955303153757
  0
ARC
  5
1E444
  8
0
 10
4599.8876158016100817
 20
482.1032941662408007
 30
0.0
 40
3.9980951182745872
 50
270.7292630446150952
 51
275.9995803948801836
  0
ARC
  5
1E445
  8
0
 10
4601.6412514829580687
 20
470.990766640893014
 30
0.0
 40
7.2720562511140887
 50
95.7672368570074752
 51
99.9650612496066771
  0
ARC
  5
1E446
  8
0
 10
4599.7803587717744449
 20
482.0305820445120162
 30
0.0
 40
3.923996861122375
 50
271.0518276155794979
 51
278.8319868508846184
  0
ARC
  5
1E447
  8
0
 10
4600.5647130848437882
 20
441.1986910121149776
 30
0.0
 40
36.9154285119303225
 50
91.1056512174135662
 51
91.236534351516724
  0
ARC
  5
1E448
  8
0
 10
4601.2346593555412255
 20
473.5643964429838775
 30
0.0
 40
4.6866986108242434
 50
93.9660567822287902
 51
101.4181930186294949
  0
ARC
  5
1E449
  8
0
 10
4599.6267491781663921
 20
482.5855988207308087
 30
0.0
 40
4.47919251440615
 50
270.9358251984252206
 51
278.733189925751276
  0
ARC
  5
1E44A
  8
0
 10
4599.5632171059987741
 20
484.3855520312334875
 30
0.0
 40
6.2800359983710132
 50
270.0847028098687019
 51
271.2471732560359214
  0
ARC
  5
1E44B
  8
0
 10
4602.5266361972880986
 20
466.0506811411095214
 30
0.0
 40
12.3252188981816797
 50
97.5345610585762586
 51
100.3747850016246019
  0
ARC
  5
1E44C
  8
0
 10
4599.4556732904738965
 20
483.4208986592669817
 30
0.0
 40
5.3151329040202278
 50
272.631014711232524
 51
279.2171496419285859
  0
ARC
  5
1E44D
  8
0
 10
4599.9934694957019019
 20
466.6883341113210122
 30
0.0
 40
11.4268124354100902
 50
91.4733793514921274
 51
92.351665276153156
  0
ARC
  5
1E44E
  8
0
 10
4601.6313625332031734
 20
471.3557497284884903
 30
0.0
 40
6.9688873802178053
 50
95.9372894696777507
 51
101.6508715017030937
  0
ARC
  5
1E44F
  8
0
 10
4599.181453718546436
 20
484.9983621064603767
 30
0.0
 40
6.8965672438043866
 50
273.7079222707798181
 51
278.6947760763613928
  0
ARC
  5
1E450
  8
0
 10
4599.3034749709868265
 20
482.8332034015987801
 30
0.0
 40
4.728084990102122
 50
270.7494604011383217
 51
273.9291476382483097
  0
ARC
  5
1E451
  8
0
 10
4473.4655960501831942
 20
1237.4346582737989593
 30
0.0
 40
769.7381038907814172
 50
279.4566822993091932
 51
279.5303007924517829
  0
ARC
  5
1E452
  8
0
 10
4599.0456946129315838
 20
485.3150965647192265
 30
0.0
 40
7.2129150548256469
 50
271.7440634401888246
 51
277.0823928874432909
  0
ARC
  5
1E453
  8
0
 10
4603.6414740282543789
 20
459.7422505857174997
 30
0.0
 40
18.7982954221384198
 50
98.3533584321577621
 51
100.8837866889508064
  0
ARC
  5
1E454
  8
0
 10
4598.4377005038386415
 20
489.0184099850716279
 30
0.0
 40
10.9417887153012607
 50
274.3489469812187167
 51
278.6960864318726863
  0
ARC
  5
1E455
  8
0
 10
4599.0603756166738094
 20
483.5944484048437744
 30
0.0
 40
5.4902280832727346
 50
271.2481080711098116
 51
272.1612467241349123
  0
ARC
  5
1E456
  8
0
 10
4602.1602967686012562
 20
470.1732625786999051
 30
0.0
 40
8.2985053832969822
 50
98.6619803350045146
 51
101.9267074116869054
  0
ARC
  5
1E457
  8
0
 10
4598.4222432503192977
 20
487.870709344381396
 30
0.0
 40
9.7894095360537445
 50
274.0314726622880812
 51
281.9267074116868912
  0
ARC
  5
1E458
  8
0
 10
4605.4411285415417296
 20
449.8842345857235046
 30
0.0
 40
28.8766105961239994
 50
99.0267791783901856
 51
101.2792420759315064
  0
ARC
  5
1E459
  8
0
 10
4598.6843355630244332
 20
483.7625531051065764
 30
0.0
 40
5.6689349496526438
 50
274.3535525326367974
 51
281.2792420759313927
  0
ARC
  5
1E45A
  8
0
 10
4598.9611879947788111
 20
480.6257358059020817
 30
0.0
 40
2.52043799983075
 50
270.7657381253364974
 51
273.4911520955428728
  0
ARC
  5
1E45B
  8
0
 10
4608.3903828320680987
 20
436.1061599298985811
 30
0.0
 40
42.9927072035936888
 50
100.0193194902122968
 51
101.6308744443936973
  0
ARC
  5
1E45C
  8
0
 10
4598.3891854498533576
 20
484.6952527909703008
 30
0.0
 40
6.6149927444977177
 50
275.0090159947117741
 51
281.6308744443937258
  0
ARC
  5
1E45D
  8
0
 10
4607.808739551393046
 20
442.5447006368149232
 30
0.0
 40
36.5982846465545819
 50
100.8644001251505955
 51
102.5619387703465009
  0
ARC
  5
1E45E
  8
0
 10
4592.3475799873522192
 20
515.9869738410917535
 30
0.0
 40
38.458732374580471
 50
280.1898048800578067
 51
281.2474069491888145
  0
ARC
  5
1E45F
  8
0
 10
4598.738610968467583
 20
480.7776817725526826
 30
0.0
 40
2.674862013912831
 50
272.5760692020601823
 51
278.8752730588951181
  0
ARC
  5
1E460
  8
0
 10
4610.1431458674278474
 20
434.006592666656104
 30
0.0
 40
45.4678524856150901
 50
101.7158823799213963
 51
103.1440797531746938
  0
ARC
  5
1E461
  8
0
 10
4597.0100779737449557
 20
490.2465549758946963
 30
0.0
 40
12.2851633044253692
 50
279.4588060474731037
 51
283.144079753174708
  0
ARC
  5
1E462
  8
0
 10
4598.7254220727436405
 20
480.1187526877058076
 30
0.0
 40
2.0133511746740398
 50
270.6291551909047257
 51
278.6723486823051985
  0
ARC
  5
1E463
  8
0
 10
4606.3423066293671582
 20
450.8543950166205718
 30
0.0
 40
28.2287257075777696
 50
101.0941160319848962
 51
103.311833709264306
  0
ARC
  5
1E464
  8
0
 10
4596.2478891034461412
 20
493.5174260487378888
 30
0.0
 40
15.6122537754930502
 50
279.3040609961954033
 51
283.3118337092644197
  0
ARC
  5
1E465
  8
0
 10
4592.864737476926166
 20
506.6343054376035866
 30
0.0
 40
29.1183299127191617
 50
281.703046350351201
 51
283.7168208336360067
  0
ARC
  5
1E466
  8
0
 10
4579.9146092024411701
 20
570.4069235574173717
 30
0.0
 40
94.1771929372611822
 50
282.1706152626018138
 51
282.8071693321974749
  0
ARC
  5
1E467
  8
0
 10
4967.1324834370052486
 20
-1236.914623170016057
 30
0.0
 40
1754.1953847089109786
 50
102.0587547989069037
 51
102.0903345345193003
  0
ARC
  5
1E468
  8
0
 10
4585.2917908163854008
 20
533.8944506117894662
 30
0.0
 40
57.3656881252807125
 50
283.5911819657181923
 51
284.5566538351308168
  0
ARC
  5
1E469
  8
0
 10
4604.552609244508858
 20
459.1196021968221999
 30
0.0
 40
19.8920578324017185
 50
104.5858002576457011
 51
106.8989465817663955
  0
ARC
  5
1E46A
  8
0
 10
4591.963203166371386
 20
516.1425790552834769
 30
0.0
 40
38.5250693401483204
 50
281.347262052000076
 51
282.7818268013552938
  0
ARC
  5
1E46B
  8
0
 10
4610.2763257112455904
 20
428.1994667740477212
 30
0.0
 40
51.3459564181893811
 50
101.1673408284082001
 51
102.0667975132519985
  0
ARC
  5
1E46C
  8
0
 10
4602.2225389183304287
 20
468.3938234527474833
 30
0.0
 40
10.3694466902475195
 50
104.9792541208090029
 51
109.4321739364460058
  0
ARC
  5
1E46D
  8
0
 10
4602.1366467060379364
 20
466.9509141533965249
 30
0.0
 40
11.7836805886316593
 50
99.4982031209087552
 51
103.2943494091429955
  0
ARC
  5
1E46E
  8
0
 10
4601.5605374613478489
 20
471.0645254753231939
 30
0.0
 40
7.6575272680701447
 50
106.1782656503137048
 51
111.3801897461630972
  0
ARC
  5
1E46F
  8
0
 10
4602.0764891594017172
 20
467.1179797781591105
 30
0.0
 40
11.6295804042610307
 50
99.987175173303342
 51
103.4810667351255944
  0
ARC
  5
1E470
  8
0
 10
4600.9165705430341404
 20
472.950260689783704
 30
0.0
 40
5.6923082974485668
 50
105.8137350213196015
 51
112.1236174003662001
  0
ARC
  5
1E471
  8
0
 10
4600.3675568362432386
 20
474.7576900138025167
 30
0.0
 40
3.8391819317620208
 50
96.3669708294671068
 51
114.7465046479528041
  0
ARC
  5
1E472
  8
0
 10
4600.149468087058267
 20
475.3376930811116949
 30
0.0
 40
3.2543931975597569
 50
96.2173814948229733
 51
115.023022211989101
  0
ARC
  5
1E473
  8
0
 10
4599.942124022561984
 20
476.0026311694102219
 30
0.0
 40
2.5949287732672959
 50
97.9737844036637568
 51
117.095603665832499
  0
ARC
  5
1E474
  8
0
 10
4599.8238478313323867
 20
476.2939157048277821
 30
0.0
 40
2.3113060445819129
 50
99.7047402932718825
 51
117.0466505761573046
  0
ARC
  5
1E475
  8
0
 10
4599.7759081760523259
 20
476.3703352446704002
 30
0.0
 40
2.254268327902289
 50
102.6056497406134014
 51
116.772814690231499
  0
ARC
  5
1E476
  8
0
 10
4599.4799806253058705
 20
477.0982420581422048
 30
0.0
 40
1.5021373107310561
 50
101.0241821882769955
 51
118.0896493962859068
  0
ARC
  5
1E477
  8
0
 10
4599.3851224069503587
 20
477.319930423587607
 30
0.0
 40
1.293604653866405
 50
104.6814472485100964
 51
118.8659081835611033
  0
ARC
  5
1E478
  8
0
 10
4599.2947329873131821
 20
477.4064346733972002
 30
0.0
 40
1.203553887808803
 50
104.694557645071697
 51
115.981533166646102
  0
ARC
  5
1E479
  8
0
 10
4599.214812012094626
 20
477.5560297830642753
 30
0.0
 40
1.064140634999257
 50
107.8434708218730975
 51
115.3021052304063971
  0
ARC
  5
1E47A
  8
0
 10
4598.7371543464942079
 20
478.6762041734617128
 30
0.0
 40
0.1299157565123848
 50
283.692359123477388
 51
311.5855502279646885
  0
ARC
  5
1E47B
  8
0
 10
4598.7717959793453701
 20
478.1159470492090122
 30
0.0
 40
0.0053871990095112
 50
97.6282206580095249
 51
271.9679669232974106
  0
ARC
  5
1E47C
  8
0
 10
4598.772532255875376
 20
478.1440728839917824
 30
0.0
 40
0.008912327148556
 50
104.5428719715188066
 51
268.4973037725076779
  0
ARC
  5
1E47D
  8
0
 10
4598.7716864300009547
 20
478.1839734863561944
 30
0.0
 40
0.0114354470462782
 50
103.8511175982997941
 51
275.1858845985651101
  0
ARC
  5
1E47E
  8
0
 10
4598.7688783283729208
 20
478.2352183647586799
 30
0.0
 40
0.0123951057969825
 50
132.7870564241646889
 51
288.5043442429575862
  0
ARC
  5
1E47F
  8
0
 10
4598.7703366412033574
 20
478.3015315966293883
 30
0.0
 40
0.0151311488987907
 50
132.0878908042591888
 51
279.8190376510676742
  0
ARC
  5
1E480
  8
0
 10
4598.7695774535641249
 20
478.3688823478042877
 30
0.0
 40
0.0167576439773823
 50
122.9452050788615054
 51
281.29782713896941
  0
ARC
  5
1E481
  8
0
 10
4598.7696239874676394
 20
478.4393462717177954
 30
0.0
 40
0.0161946818924445
 50
123.7783857442628062
 51
280.9330263090673725
  0
ARC
  5
1E482
  8
0
 10
4598.7685298283713564
 20
478.5044206170301209
 30
0.0
 40
0.0161032447647066
 50
121.9522420668511984
 51
266.2562242611330134
  0
LINE
  5
1E483
  8
0
 10
4598.7544064033945688
 20
478.5616536177636249
 30
0.0
 11
4598.7544065507945561
 21
478.596694915563603
 31
0.0
  0
ARC
  5
1E484
  8
0
 10
4598.7649192670060074
 20
478.5601688215472791
 30
0.0
 40
0.0106171993056913
 50
171.9609376425163987
 51
286.3413820569795121
  0
ARC
  5
1E485
  8
0
 10
4598.8842806363418276
 20
478.5790228953636074
 30
0.0
 40
0.0109866079196439
 50
293.9503099417148064
 51
66.0496900582851652
  0
ARC
  5
1E486
  8
0
 10
4598.9851487333653495
 20
478.5790232769526824
 30
0.0
 40
0.0094297662032132
 50
297.016710333660626
 51
62.981938457486109
  0
ARC
  5
1E487
  8
0
 10
4599.0533981815151492
 20
478.5790228953636074
 30
0.0
 40
0.0086380685755485
 50
296.5939008003344952
 51
63.4060991996626129
  0
ARC
  5
1E488
  8
0
 10
4599.1899426805339317
 20
478.5790228953636074
 30
0.0
 40
0.0069496424946864
 50
293.7083170443003723
 51
66.2916829556995992
  0
ARC
  5
1E489
  8
0
 10
4599.2815191815871003
 20
478.5790228953636074
 30
0.0
 40
0.0090857485925494
 50
285.4385193186864171
 51
74.5614806813135544
  0
ARC
  5
1E48A
  8
0
 10
4599.4323786386412394
 20
478.5790228953636074
 30
0.0
 40
0.0071215683360174
 50
285.0581951918571804
 51
74.9418048081956698
  0
ARC
  5
1E48B
  8
0
 10
4599.5807285480959763
 20
478.5790228953636074
 30
0.0
 40
0.0067052498083866
 50
282.2873806768802183
 51
77.7126193231714382
  0
ARC
  5
1E48C
  8
0
 10
4599.7962375341658117
 20
478.5790228953636074
 30
0.0
 40
0.0061278759999591
 50
277.2818277590860134
 51
82.7181722409660978
  0
ARC
  5
1E48D
  8
0
 10
4599.9407043665278252
 20
478.5790228953636074
 30
0.0
 40
0.0059342717497029
 50
280.7059556996464948
 51
79.2940443003528941
  0
ARC
  5
1E48E
  8
0
 10
4600.0575133801276024
 20
478.5790228953636074
 30
0.0
 40
0.0079677848593457
 50
285.1618802422779027
 51
74.8381197577220831
  0
ARC
  5
1E48F
  8
0
 10
4600.1900761742326722
 20
478.5790228953636074
 30
0.0
 40
0.006320699174372
 50
289.0856367921339825
 51
70.9143632078616548
  0
ARC
  5
1E490
  8
0
 10
4600.3292618377172403
 20
478.5790228953636074
 30
0.0
 40
0.0063662606366428
 50
294.3737398274647035
 51
65.6262601728129056
  0
ARC
  5
1E491
  8
0
 10
4600.4828499840177756
 20
478.5790228953636074
 30
0.0
 40
0.0077383367122269
 50
297.7926889849709937
 51
62.2073110148036292
  0
ARC
  5
1E492
  8
0
 10
4600.6520332323389084
 20
478.5790228953636074
 30
0.0
 40
0.0073575178315631
 50
297.1545475789214947
 51
62.8454524186153733
  0
ARC
  5
1E493
  8
0
 10
4600.7876540809702419
 20
478.5790228953636074
 30
0.0
 40
0.0071092445624498
 50
297.3118977986695199
 51
62.6881022010960223
  0
ARC
  5
1E494
  8
0
 10
4600.9341052288209539
 20
479.0289188418216781
 30
0.0
 40
0.023604053824044
 50
90.0088594780531821
 51
179.664776180322491
  0
ARC
  5
1E495
  8
0
 10
4600.9341015789950688
 20
478.1291228953635937
 30
0.0
 40
0.0235999999999983
 50
180.0
 51
270.0
  0
ARC
  5
1E496
  8
0
 10
4605.9673913427950538
 20
478.5790228953636074
 30
0.0
 40
1.193964090699998
 50
301.4847101877364253
 51
238.5152898122636032
  0
ARC
  5
1E497
  8
0
 10
4605.9673913427950538
 20
478.5790228953636074
 30
0.0
 40
1.005661417399998
 50
308.3206915870438252
 51
231.6793084129562033
  0
ARC
  5
1E498
  8
0
 10
4605.9673913427950538
 20
478.5790228953636074
 30
0.0
 40
0.9217406929999993
 50
312.5720301247022803
 51
227.4279698752978049
  0
ARC
  5
1E499
  8
0
 10
4601.9673913427950538
 20
478.5790228953636074
 30
0.0
 40
1.1939529885
 50
203.3646621316198946
 51
156.6353378683799917
  0
ARC
  5
1E49A
  8
0
 10
4601.9673913427950538
 20
478.5790228953636074
 30
0.0
 40
1.0056614174
 50
208.0884735255930025
 51
151.9115264744069123
  0
ARC
  5
1E49B
  8
0
 10
4601.9673913427950538
 20
478.5790228953636074
 30
0.0
 40
0.9217406930000006
 50
210.9107315486915866
 51
149.0892684513084134
  0
ARC
  5
1E49C
  8
0
 10
4609.9673913427941443
 20
478.5790228953636074
 30
0.0
 40
1.311996062999998
 50
21.1555074630341515
 51
338.8444925369657881
  0
LINE
  5
1E49D
  8
0
 10
4611.0242811065963906
 20
478.1055228953634924
 30
0.0
 11
4613.1946876405481817
 21
478.1055228953634924
 31
0.0
  0
LINE
  5
1E49E
  8
0
 10
4611.0006811065941292
 20
478.1055228953634924
 30
0.0
 11
4609.9673913427941443
 21
478.1055228953634924
 31
0.0
  0
LINE
  5
1E49F
  8
0
 10
4611.0242811065963906
 20
479.0525228953636088
 30
0.0
 11
4613.1939739234940134
 21
479.0525228953636088
 31
0.0
  0
LINE
  5
1E4A0
  8
0
 10
4611.0006811065941292
 20
479.0525228953636088
 30
0.0
 11
4609.9673913427941443
 21
479.0525228953636088
 31
0.0
  0
ARC
  5
1E4A1
  8
0
 10
4609.9673913427941443
 20
478.5790228953636074
 30
0.0
 40
0.4735000000000014
 50
90.0
 51
270.0
  0
LINE
  5
1E4A2
  8
0
 10
4613.2932553713953894
 20
478.9535239567384224
 30
0.0
 11
4613.2932553713953894
 21
478.2047936375636255
 31
0.0
  0
LINE
  5
1E4A3
  8
0
 10
4613.2081132357952811
 20
478.1113705267302976
 30
0.0
 11
4613.2081132357952811
 21
479.0466547980968244
 31
0.0
  0
ARC
  5
1E4A4
  8
0
 10
4613.1939254734488713
 20
479.0324376098121206
 30
0.0
 40
0.0200853439873084
 50
45.059355200159132
 51
89.861790477325826
  0
LINE
  5
1E4A5
  8
0
 10
4613.2081132357952811
 20
479.0466547980968244
 30
0.0
 11
4613.2873998226941694
 21
478.9673672656634835
 31
0.0
  0
ARC
  5
1E4A6
  8
0
 10
4613.2732576024473019
 20
478.9532252143133064
 30
0.0
 40
0.0200000002486877
 50
0.8558658240885195
 51
44.9996578613316913
  0
LINE
  5
1E4A7
  8
0
 10
4611.0242811065963906
 20
479.0525228953636088
 30
0.0
 11
4611.0242811065963906
 21
478.1055228953634924
 31
0.0
  0
ARC
  5
1E4A8
  8
0
 10
4613.2732407064058862
 20
478.2048020647811768
 30
0.0
 40
0.0200146667641687
 50
315.0080100138338253
 51
359.9758754905089972
  0
LINE
  5
1E4A9
  8
0
 10
4613.2873951913943529
 20
478.1906515368635269
 30
0.0
 11
4613.2081132357952811
 21
478.1113705267302976
 31
0.0
  0
ARC
  5
1E4AA
  8
0
 10
4613.1939683954142311
 20
478.1255099613899802
 30
0.0
 40
0.0200000030476725
 50
272.0609296065973126
 51
315.0109504319215148
  0
ARC
  5
1E4AB
  8
0
 10
4611.0690005970109269
 20
521.5284019854036615
 30
0.0
 40
42.4765165794502906
 50
269.9396787038450043
 51
270.3139064314891016
  0
ARC
  5
1E4AC
  8
0
 10
4612.2528613355070775
 20
415.4940795704760035
 30
0.0
 40
63.5658859485142003
 50
90.8864131200116248
 51
91.1074626620269896
  0
ARC
  5
1E4AD
  8
0
 10
4607.4298977648168147
 20
627.7290542742408661
 30
0.0
 40
148.7291181646208997
 50
271.3848199357104249
 51
271.5236693766793792
  0
ARC
  5
1E4AE
  8
0
 10
4608.3218450224521803
 20
546.0528425475587255
 30
0.0
 40
67.0736238911010929
 50
272.3091059639314722
 51
272.678957661930724
  0
ARC
  5
1E4AF
  8
0
 10
4614.7823161860751497
 20
413.0635897766155153
 30
0.0
 40
66.0682833618446352
 50
92.8083984592013707
 51
93.2608055976063781
  0
ARC
  5
1E4B0
  8
0
 10
4628.5696424389743697
 20
252.2531925696812891
 30
0.0
 40
227.432538501019593
 50
94.2764697175675934
 51
94.4244986846077552
  0
ARC
  5
1E4B1
  8
0
 10
4611.9804223578830715
 20
472.2018290739698045
 30
0.0
 40
6.8538181466239543
 50
91.7300790966874331
 51
93.4457858500402665
  0
ARC
  5
1E4B2
  8
0
 10
4631.8164043575170581
 20
256.244868048643184
 30
0.0
 40
223.716562314398999
 50
95.1927775093942614
 51
95.3327416954687834
  0
ARC
  5
1E4B3
  8
0
 10
4619.68140630934613
 20
405.8088153907278866
 30
0.0
 40
73.6735187749466149
 50
96.2836049562955907
 51
96.7482235150722829
  0
ARC
  5
1E4B4
  8
0
 10
4611.9234517464938108
 20
475.5499727356963149
 30
0.0
 40
3.5031096994005582
 50
91.0240755753471262
 51
95.0047223157325647
  0
ARC
  5
1E4B5
  8
0
 10
4609.9719938839816678
 20
490.1988315404673244
 30
0.0
 40
11.2901828266799207
 50
275.3479427393309038
 51
278.440955303153828
  0
ARC
  5
1E4B6
  8
0
 10
4612.0471668839809354
 20
475.0547516244863004
 30
0.0
 40
3.9980951182745872
 50
90.7292630446150667
 51
95.9995803948801694
  0
ARC
  5
1E4B7
  8
0
 10
4610.2935312026329484
 20
486.1672791498340871
 30
0.0
 40
7.2720562511140887
 50
275.7672368570075037
 51
279.965061249606606
  0
ARC
  5
1E4B8
  8
0
 10
4612.1544239138165722
 20
475.1274637462151986
 30
0.0
 40
3.923996861122375
 50
91.0518276155794553
 51
98.8319868508846469
  0
ARC
  5
1E4B9
  8
0
 10
4611.3700696007463193
 20
515.9593547786121235
 30
0.0
 40
36.9154285119303225
 50
271.1056512174135946
 51
271.2365343515168092
  0
ARC
  5
1E4BA
  8
0
 10
4610.7001233300497915
 20
483.5936493477432236
 30
0.0
 40
4.6866986108242434
 50
273.9660567822288044
 51
281.4181930186293812
  0
ARC
  5
1E4BB
  8
0
 10
4612.3080335074237155
 20
474.5724469699962924
 30
0.0
 40
4.47919251440615
 50
90.935825198425178
 51
98.7331899257513612
  0
ARC
  5
1E4BC
  8
0
 10
4612.3715655795913335
 20
472.7724937594937273
 30
0.0
 40
6.2800359983710132
 50
90.0847028098687304
 51
91.2471732560358788
  0
ARC
  5
1E4BD
  8
0
 10
4609.4081464883029184
 20
491.1073646496175797
 30
0.0
 40
12.3252188981816797
 50
277.534561058576287
 51
280.3747850016246161
  0
ARC
  5
1E4BE
  8
0
 10
4612.4791093951162111
 20
473.7371471314601763
 30
0.0
 40
5.3151329040202278
 50
92.6310147112324671
 51
99.2171496419286711
  0
ARC
  5
1E4BF
  8
0
 10
4611.9413131898891152
 20
490.4697116794060889
 30
0.0
 40
11.4268124354100902
 50
271.473379351492099
 51
272.351665276153085
  0
ARC
  5
1E4C0
  8
0
 10
4610.3034201523860247
 20
485.8022960622386108
 30
0.0
 40
6.9688873802178053
 50
275.9372894696776939
 51
281.6508715017031932
  0
ARC
  5
1E4C1
  8
0
 10
4612.7533289670445811
 20
472.1596836842667813
 30
0.0
 40
6.8965672438043866
 50
93.707922270779747
 51
98.6947760763613502
  0
ARC
  5
1E4C2
  8
0
 10
4612.6313077146032811
 20
474.3248423891283778
 30
0.0
 40
4.728084990102122
 50
90.7494604011382648
 51
93.9291476382482955
  0
ARC
  5
1E4C3
  8
0
 10
4738.4691866354078229
 20
-280.2766124830719718
 30
0.0
 40
769.7381038907814172
 50
99.4566822993092785
 51
99.5303007924517971
  0
ARC
  5
1E4C4
  8
0
 10
4612.8890880726576142
 20
471.8429492260078746
 30
0.0
 40
7.2129150548256469
 50
91.7440634401888246
 51
97.0823928874433193
  0
ARC
  5
1E4C5
  8
0
 10
4608.2933086573357286
 20
497.4157952050096014
 30
0.0
 40
18.7982954221384198
 50
278.3533584321577905
 51
280.8837866889508064
  0
ARC
  5
1E4C6
  8
0
 10
4613.4970821817523756
 20
468.1396358056555869
 30
0.0
 40
10.9417887153012607
 50
94.3489469812187593
 51
98.6960864318727005
  0
ARC
  5
1E4C7
  8
0
 10
4612.8744070689172077
 20
473.5635973858833268
 30
0.0
 40
5.4902280832727346
 50
91.2481080711097263
 51
92.1612467241349833
  0
ARC
  5
1E4C8
  8
0
 10
4609.7744859169897609
 20
486.984783212027196
 30
0.0
 40
8.2985053832969822
 50
278.6619803350045004
 51
281.9267074116868912
  0
ARC
  5
1E4C9
  8
0
 10
4613.5125394352717194
 20
469.2873364463458188
 30
0.0
 40
9.7894095360537445
 50
94.0314726622880954
 51
101.9267074116869054
  0
ARC
  5
1E4CA
  8
0
 10
4606.4936541440483779
 20
507.2738112050035966
 30
0.0
 40
28.8766105961239994
 50
279.0267791783901998
 51
281.2792420759313927
  0
ARC
  5
1E4CB
  8
0
 10
4613.2504471225656744
 20
473.3954926856205816
 30
0.0
 40
5.6689349496526438
 50
94.3535525326367832
 51
101.2792420759315064
  0
ARC
  5
1E4CC
  8
0
 10
4612.9735946908112965
 20
476.5323099848250195
 30
0.0
 40
2.52043799983075
 50
90.7657381253364264
 51
93.491152095542887
  0
ARC
  5
1E4CD
  8
0
 10
4603.5443998535229184
 20
521.05188586082852
 30
0.0
 40
42.9927072035936888
 50
280.0193194902122968
 51
281.6308744443937258
  0
ARC
  5
1E4CE
  8
0
 10
4613.54559723573675
 20
472.4627929997568003
 30
0.0
 40
6.6149927444977177
 50
95.0090159947117172
 51
101.6308744443936973
  0
ARC
  5
1E4CF
  8
0
 10
4604.1260431341970616
 20
514.6133451539120642
 30
0.0
 40
36.5982846465545819
 50
280.8644001251506097
 51
282.5619387703465009
  0
ARC
  5
1E4D0
  8
0
 10
4619.5872026982378884
 20
441.1710719496352908
 30
0.0
 40
38.458732374580471
 50
100.1898048800578067
 51
101.2474069491888002
  0
ARC
  5
1E4D1
  8
0
 10
4613.1961717171234341
 20
476.3803640181744186
 30
0.0
 40
2.674862013912831
 50
92.5760692020602249
 51
98.8752730588951039
  0
ARC
  5
1E4D2
  8
0
 10
4601.7916368181631697
 20
523.1514531240710539
 30
0.0
 40
45.4678524856150901
 50
281.7158823799214247
 51
283.144079753174708
  0
ARC
  5
1E4D3
  8
0
 10
4614.9247047118451519
 20
466.9114908148324048
 30
0.0
 40
12.2851633044253692
 50
99.4588060474730753
 51
103.1440797531746938
  0
ARC
  5
1E4D4
  8
0
 10
4613.2093606128455576
 20
477.0392931030214072
 30
0.0
 40
2.0133511746740398
 50
90.6291551909046973
 51
98.6723486823051985
  0
ARC
  5
1E4D5
  8
0
 10
4605.5924760562220399
 20
506.3036507741065861
 30
0.0
 40
28.2287257075777696
 50
281.0941160319849246
 51
283.3118337092644197
  0
ARC
  5
1E4D6
  8
0
 10
4615.6868935821448758
 20
463.640619741989326
 30
0.0
 40
15.6122537754930502
 50
99.3040609961954175
 51
103.311833709264306
  0
ARC
  5
1E4D7
  8
0
 10
4619.0700452086648511
 20
450.5237403531235145
 30
0.0
 40
29.1183299127191617
 50
101.703046350351201
 51
103.7168208336360067
  0
ARC
  5
1E4D8
  8
0
 10
4632.020173483149847
 20
386.7511222333096725
 30
0.0
 40
94.1771929372611822
 50
102.1706152626017996
 51
102.8071693321975033
  0
ARC
  5
1E4D9
  8
0
 10
4244.802299248584859
 20
2194.0726689607440676
 30
0.0
 40
1754.1953847089109786
 50
282.058754798906989
 51
282.0903345345192861
  0
ARC
  5
1E4DA
  8
0
 10
4626.6429918692047067
 20
423.2635951789375781
 30
0.0
 40
57.3656881252807125
 50
103.591181965718107
 51
104.5566538351308026
  0
ARC
  5
1E4DB
  8
0
 10
4607.3821734410812496
 20
498.0384435939050149
 30
0.0
 40
19.8920578324017185
 50
284.5858002576457011
 51
286.8989465817663813
  0
ARC
  5
1E4DC
  8
0
 10
4619.9715795192187215
 20
441.015466735443681
 30
0.0
 40
38.5250693401483204
 50
101.3472620520001044
 51
102.7818268013552938
  0
ARC
  5
1E4DD
  8
0
 10
4601.6584569743454267
 20
528.9585790166795505
 30
0.0
 40
51.3459564181893811
 50
281.1673408284081006
 51
282.0667975132520837
  0
ARC
  5
1E4DE
  8
0
 10
4609.7122437672605884
 20
488.7642223379796746
 30
0.0
 40
10.3694466902475195
 50
284.9792541208090029
 51
289.4321739364471
  0
ARC
  5
1E4DF
  8
0
 10
4609.7981359795530807
 20
490.20713163733069
 30
0.0
 40
11.7836805886316593
 50
279.4982031209087836
 51
283.2943494091430239
  0
ARC
  5
1E4E0
  8
0
 10
4610.3742452242431682
 20
486.0935203154040209
 30
0.0
 40
7.6575272680701447
 50
286.1782656503136764
 51
291.3801897461631256
  0
ARC
  5
1E4E1
  8
0
 10
4609.8582935261902094
 20
490.0400660125679906
 30
0.0
 40
11.6295804042610307
 50
279.9871751733033989
 51
283.4810667351255802
  0
ARC
  5
1E4E2
  8
0
 10
4611.0182121425559671
 20
484.2077851009433971
 30
0.0
 40
5.6923082974485668
 50
285.8137350213195873
 51
292.1236174003662995
  0
ARC
  5
1E4E3
  8
0
 10
4611.5672258493477784
 20
482.4003557769246981
 30
0.0
 40
3.8391819317620208
 50
276.3669708294671068
 51
294.7465046479528041
  0
ARC
  5
1E4E4
  8
0
 10
4611.7853145985327501
 20
481.8203527096154062
 30
0.0
 40
3.2543931975597569
 50
276.2173814948229733
 51
295.0230222119890868
  0
ARC
  5
1E4E5
  8
0
 10
4611.9926586630290331
 20
481.1554146213168792
 30
0.0
 40
2.5949287732672959
 50
277.9737844036636716
 51
297.0956036657860864
  0
ARC
  5
1E4E6
  8
0
 10
4612.1109348542586304
 20
480.8641300858993191
 30
0.0
 40
2.3113060445819129
 50
279.7047402932719251
 51
297.0466505761572762
  0
ARC
  5
1E4E7
  8
0
 10
4612.1588745095377817
 20
480.7877105460568146
 30
0.0
 40
2.254268327902289
 50
282.6056497406133872
 51
296.7728146902314847
  0
ARC
  5
1E4E8
  8
0
 10
4612.4548020602851466
 20
480.0598037325848964
 30
0.0
 40
1.5021373107310561
 50
281.0241821882771092
 51
298.0896493962858926
  0
ARC
  5
1E4E9
  8
0
 10
4612.5496602786406584
 20
479.8381153671396078
 30
0.0
 40
1.293604653866405
 50
284.6814472485100964
 51
298.8659081835610891
  0
ARC
  5
1E4EA
  8
0
 10
4612.6400496982787445
 20
479.7516111173300146
 30
0.0
 40
1.203553887808803
 50
284.6945576450717112
 51
295.9815331666462157
  0
ARC
  5
1E4EB
  8
0
 10
4612.7199706734945721
 20
479.6020160076628827
 30
0.0
 40
1.064140634999257
 50
287.8434708218730975
 51
295.3021052304064256
  0
ARC
  5
1E4EC
  8
0
 10
4613.1976283390958997
 20
478.4818416172653883
 30
0.0
 40
0.1299157565123848
 50
103.6923591234774022
 51
131.5855502279646885
  0
ARC
  5
1E4ED
  8
0
 10
4613.1629867062447374
 20
479.0420987415180889
 30
0.0
 40
0.0053871990095112
 50
277.6282206580095249
 51
91.9679669232973964
  0
ARC
  5
1E4EE
  8
0
 10
4613.1622504297156411
 20
479.0139729067353187
 30
0.0
 40
0.008912327148556
 50
284.5428719715188208
 51
88.4973037725076637
  0
ARC
  5
1E4EF
  8
0
 10
4613.1630962555909719
 20
478.9740723043709067
 30
0.0
 40
0.0114354470462782
 50
283.8511175982998225
 51
95.1858845985650674
  0
ARC
  5
1E4F0
  8
0
 10
4613.1659043572171868
 20
478.9228274259684781
 30
0.0
 40
0.0123951057969825
 50
312.7870564241646889
 51
108.5043442429576004
  0
ARC
  5
1E4F1
  8
0
 10
4613.1644460443876596
 20
478.8565141940977128
 30
0.0
 40
0.0151311488987907
 50
312.0878908042615194
 51
99.8190376510677169
  0
ARC
  5
1E4F2
  8
0
 10
4613.1652052320268922
 20
478.7891634429228134
 30
0.0
 40
0.0167576439773823
 50
302.945205078861477
 51
101.2978271389693958
  0
ARC
  5
1E4F3
  8
0
 10
4613.1651586981215587
 20
478.7186995190094194
 30
0.0
 40
0.0161946818924445
 50
303.7783857442627777
 51
100.9330263090673014
  0
ARC
  5
1E4F4
  8
0
 10
4613.1662528572205701
 20
478.6536251736970939
 30
0.0
 40
0.0161032447647066
 50
301.9522420668512268
 51
86.2562242611329992
  0
LINE
  5
1E4F5
  8
0
 10
4613.1803762821946293
 20
478.5963921729635899
 30
0.0
 11
4613.180376136074301
 21
478.5616546519909775
 31
0.0
  0
ARC
  5
1E4F6
  8
0
 10
4613.1698634185850096
 20
478.5978769691798789
 30
0.0
 40
0.0106171993056913
 50
351.9609376425132155
 51
106.3413820569793984
  0
ARC
  5
1E4F7
  8
0
 10
4611.0690005970109269
 20
435.6296438053234965
 30
0.0
 40
42.4765165794502906
 50
89.6860935685108842
 51
90.0603212961549531
  0
ARC
  5
1E4F8
  8
0
 10
4612.2528613355070775
 20
541.6639662202511545
 30
0.0
 40
63.5658859485142003
 50
268.8925373379730104
 51
269.1135868799884179
  0
ARC
  5
1E4F9
  8
0
 10
4607.4298977648168147
 20
329.4289915164861782
 30
0.0
 40
148.7291181646208997
 50
88.476330623320564
 51
88.6151800642896461
  0
ARC
  5
1E4FA
  8
0
 10
4608.3218450224521803
 20
411.1052032431683756
 30
0.0
 40
67.0736238911010929
 50
87.3210423380692902
 51
87.6908940360685278
  0
ARC
  5
1E4FB
  8
0
 10
4614.7823161860751497
 20
544.0944560141116426
 30
0.0
 40
66.0682833618446352
 50
266.7391944023935935
 51
267.1916015407986151
  0
ARC
  5
1E4FC
  8
0
 10
4628.5696424389743697
 20
704.9048532210458688
 30
0.0
 40
227.432538501019593
 50
265.5755013153922164
 51
265.7235302824324208
  0
ARC
  5
1E4FD
  8
0
 10
4611.9804223578830715
 20
484.9562167167574103
 30
0.0
 40
6.8538181466239543
 50
266.5542141499597051
 51
268.2699209033125953
  0
ARC
  5
1E4FE
  8
0
 10
4631.8164043575170581
 20
700.9131777420840308
 30
0.0
 40
223.716562314398999
 50
264.667258304531174
 51
264.8072224906056817
  0
ARC
  5
1E4FF
  8
0
 10
4619.68140630934613
 20
551.3492303999993283
 30
0.0
 40
73.6735187749466149
 50
263.2517764849278024
 51
263.7163950437043809
  0
ARC
  5
1E500
  8
0
 10
4611.9234517464938108
 20
481.6080730550308999
 30
0.0
 40
3.5031096994005582
 50
264.9952776842674211
 51
268.9759244246528738
  0
ARC
  5
1E501
  8
0
 10
4609.9719938839816678
 20
466.9592142502597767
 30
0.0
 40
11.2901828266799207
 50
81.5590446968462572
 51
84.652057260669082
  0
ARC
  5
1E502
  8
0
 10
4612.0471668839809354
 20
482.1032941662408007
 30
0.0
 40
3.9980951182745872
 50
264.0004196051198164
 51
269.2707369553850185
  0
ARC
  5
1E503
  8
0
 10
4610.2935312026329484
 20
470.990766640893014
 30
0.0
 40
7.2720562511140887
 50
80.0349387503933372
 51
84.2327631429925248
  0
ARC
  5
1E504
  8
0
 10
4612.1544239138165722
 20
482.0305820445120162
 30
0.0
 40
3.923996861122375
 50
261.1680131491153247
 51
268.9481723844205021
  0
ARC
  5
1E505
  8
0
 10
4611.3700696007463193
 20
441.1986910121149776
 30
0.0
 40
36.9154285119303225
 50
88.7634656484832618
 51
88.894348782586448
  0
ARC
  5
1E506
  8
0
 10
4610.7001233300497915
 20
473.5643964429838775
 30
0.0
 40
4.6866986108242434
 50
78.5818069813705193
 51
86.033943217771224
  0
ARC
  5
1E507
  8
0
 10
4612.3080335074237155
 20
482.5855988207308087
 30
0.0
 40
4.47919251440615
 50
261.266810074248724
 51
269.0641748015747794
  0
ARC
  5
1E508
  8
0
 10
4612.3715655795913335
 20
484.3855520312334875
 30
0.0
 40
6.2800359983710132
 50
268.7528267439640786
 51
269.9152971901312981
  0
ARC
  5
1E509
  8
0
 10
4609.4081464883029184
 20
466.0506811411095214
 30
0.0
 40
12.3252188981816797
 50
79.6252149983754123
 51
82.4654389414237556
  0
ARC
  5
1E50A
  8
0
 10
4612.4791093951162111
 20
483.4208986592669817
 30
0.0
 40
5.3151329040202278
 50
260.7828503580713004
 51
267.3689852887675897
  0
ARC
  5
1E50B
  8
0
 10
4611.9413131898891152
 20
466.6883341113210122
 30
0.0
 40
11.4268124354100902
 50
87.648334723846844
 51
88.5266206485078868
  0
ARC
  5
1E50C
  8
0
 10
4610.3034201523860247
 20
471.3557497284884903
 30
0.0
 40
6.9688873802178053
 50
78.3491284982968637
 51
84.0627105303222493
  0
ARC
  5
1E50D
  8
0
 10
4612.7533289670445811
 20
484.9983621064603767
 30
0.0
 40
6.8965672438043866
 50
261.3052239236386072
 51
266.2920777292201819
  0
ARC
  5
1E50E
  8
0
 10
4612.6313077146032811
 20
482.8332034015987801
 30
0.0
 40
4.728084990102122
 50
266.0708523617516903
 51
269.250539598861792
  0
ARC
  5
1E50F
  8
0
 10
4738.4691866354078229
 20
1237.4346582737989593
 30
0.0
 40
769.7381038907814172
 50
260.4696992075482171
 51
260.5433177006906931
  0
ARC
  5
1E510
  8
0
 10
4612.8890880726576142
 20
485.3150965647192265
 30
0.0
 40
7.2129150548256469
 50
262.9176071125567091
 51
268.2559365598111754
  0
ARC
  5
1E511
  8
0
 10
4608.2933086573357286
 20
459.7422505857174997
 30
0.0
 40
18.7982954221384198
 50
79.116213311049151
 51
81.6466415678422379
  0
ARC
  5
1E512
  8
0
 10
4613.4970821817523756
 20
489.0184099850716279
 30
0.0
 40
10.9417887153012607
 50
261.3039135681272001
 51
265.6510530187812265
  0
ARC
  5
1E513
  8
0
 10
4612.8744070689172077
 20
483.5944484048437744
 30
0.0
 40
5.4902280832727346
 50
267.8387532758649741
 51
268.7518919288903021
  0
ARC
  5
1E514
  8
0
 10
4609.7744859169897609
 20
470.1732625786999051
 30
0.0
 40
8.2985053832969822
 50
78.0732925883131088
 51
81.3380196649955138
  0
ARC
  5
1E515
  8
0
 10
4613.5125394352717194
 20
487.870709344381396
 30
0.0
 40
9.7894095360537445
 50
258.0732925883131088
 51
265.9685273377119188
  0
ARC
  5
1E516
  8
0
 10
4606.4936541440483779
 20
449.8842345857235046
 30
0.0
 40
28.8766105961239994
 50
78.720757924068522
 51
80.9732208216098144
  0
ARC
  5
1E517
  8
0
 10
4613.2504471225656744
 20
483.7625531051065764
 30
0.0
 40
5.6689349496526438
 50
258.7207579240684936
 51
265.6464474673632026
  0
ARC
  5
1E518
  8
0
 10
4612.9735946908112965
 20
480.6257358059020817
 30
0.0
 40
2.52043799983075
 50
266.5088479044571272
 51
269.2342618746636163
  0
ARC
  5
1E519
  8
0
 10
4603.5443998535229184
 20
436.1061599298985811
 30
0.0
 40
42.9927072035936888
 50
78.3691255556062742
 51
79.9806805097876889
  0
ARC
  5
1E51A
  8
0
 10
4613.54559723573675
 20
484.6952527909703008
 30
0.0
 40
6.6149927444977177
 50
258.3691255556062742
 51
264.9909840052882828
  0
ARC
  5
1E51B
  8
0
 10
4604.1260431341970616
 20
442.5447006368149232
 30
0.0
 40
36.5982846465545819
 50
77.4380612296534849
 51
79.1355998748493903
  0
ARC
  5
1E51C
  8
0
 10
4619.5872026982378884
 20
515.9869738410917535
 30
0.0
 40
38.458732374580471
 50
258.7525930508111855
 51
259.8101951199421933
  0
ARC
  5
1E51D
  8
0
 10
4613.1961717171234341
 20
480.7776817725526826
 30
0.0
 40
2.674862013912831
 50
261.1247269411049956
 51
267.4239307979398177
  0
ARC
  5
1E51E
  8
0
 10
4601.7916368181631697
 20
434.006592666656104
 30
0.0
 40
45.4678524856150901
 50
76.8559202468253631
 51
78.2841176200785753
  0
ARC
  5
1E51F
  8
0
 10
4614.9247047118451519
 20
490.2465549758946963
 30
0.0
 40
12.2851633044253692
 50
256.8559202468254057
 51
260.54119395252701
  0
ARC
  5
1E520
  8
0
 10
4613.2093606128455576
 20
480.1187526877058076
 30
0.0
 40
2.0133511746740398
 50
261.3276513176948015
 51
269.3708448090952743
  0
ARC
  5
1E521
  8
0
 10
4605.5924760562220399
 20
450.8543950166205718
 30
0.0
 40
28.2287257075777696
 50
76.6881662907356656
 51
78.9058839680151038
  0
ARC
  5
1E522
  8
0
 10
4615.6868935821448758
 20
493.5174260487378888
 30
0.0
 40
15.6122537754930502
 50
256.6881662907355803
 51
260.6959390038045967
  0
ARC
  5
1E523
  8
0
 10
4619.0700452086648511
 20
506.6343054376035866
 30
0.0
 40
29.1183299127191617
 50
256.2831791663639933
 51
258.296953649648799
  0
ARC
  5
1E524
  8
0
 10
4632.020173483149847
 20
570.4069235574173717
 30
0.0
 40
94.1771929372611822
 50
257.1928306678024114
 51
257.8293847373981862
  0
ARC
  5
1E525
  8
0
 10
4244.802299248584859
 20
-1236.914623170016057
 30
0.0
 40
1754.1953847089109786
 50
77.9096654654806713
 51
77.9412452010930537
  0
ARC
  5
1E526
  8
0
 10
4626.6429918692047067
 20
533.8944506117894662
 30
0.0
 40
57.3656881252807125
 50
255.4433461648692116
 51
256.4088180342819214
  0
ARC
  5
1E527
  8
0
 10
4607.3821734410812496
 20
459.1196021968221999
 30
0.0
 40
19.8920578324017185
 50
73.1010534182336045
 51
75.4141997423542563
  0
ARC
  5
1E528
  8
0
 10
4619.9715795192187215
 20
516.1425790552834769
 30
0.0
 40
38.5250693401483204
 50
257.2181731986447062
 51
258.652737947999924
  0
ARC
  5
1E529
  8
0
 10
4601.6584569743454267
 20
428.1994667740477212
 30
0.0
 40
51.3459564181893811
 50
77.9332024867479447
 51
78.8326591715918283
  0
ARC
  5
1E52A
  8
0
 10
4609.7122437672605884
 20
468.3938234527474833
 30
0.0
 40
10.3694466902475195
 50
70.5678260635529142
 51
75.0207458791909971
  0
ARC
  5
1E52B
  8
0
 10
4609.7981359795530807
 20
466.9509141533965249
 30
0.0
 40
11.7836805886316593
 50
76.7056505908570188
 51
80.5017968790912448
  0
ARC
  5
1E52C
  8
0
 10
4610.3742452242431682
 20
471.0645254753231939
 30
0.0
 40
7.6575272680701447
 50
68.6198102538368744
 51
73.8217343496862384
  0
ARC
  5
1E52D
  8
0
 10
4609.8582935261902094
 20
467.1179797781591105
 30
0.0
 40
11.6295804042610307
 50
76.5189332648744056
 51
80.0128248266966722
  0
ARC
  5
1E52E
  8
0
 10
4611.0182121425559671
 20
472.950260689783704
 30
0.0
 40
5.6923082974485668
 50
67.8763825996337147
 51
74.1862649786803843
  0
ARC
  5
1E52F
  8
0
 10
4611.5672258493477784
 20
474.7576900138025167
 30
0.0
 40
3.8391819317620208
 50
65.2534953520472101
 51
83.6330291705329074
  0
ARC
  5
1E530
  8
0
 10
4611.7853145985327501
 20
475.3376930811116949
 30
0.0
 40
3.2543931975597569
 50
64.9769777880109132
 51
83.7826185051770267
  0
ARC
  5
1E531
  8
0
 10
4611.9926586630290331
 20
476.0026311694102219
 30
0.0
 40
2.5949287732672959
 50
62.9043963341674797
 51
82.0262155963362432
  0
ARC
  5
1E532
  8
0
 10
4612.1109348542586304
 20
476.2939157048277821
 30
0.0
 40
2.3113060445819129
 50
62.9533494238427309
 51
80.2952597067281175
  0
ARC
  5
1E533
  8
0
 10
4612.1588745095377817
 20
476.3703352446704002
 30
0.0
 40
2.254268327902289
 50
63.227185309768501
 51
77.394350259386556
  0
ARC
  5
1E534
  8
0
 10
4612.4548020602851466
 20
477.0982420581422048
 30
0.0
 40
1.5021373107310561
 50
61.9103506037141216
 51
78.9758178117229761
  0
ARC
  5
1E535
  8
0
 10
4612.5496602786406584
 20
477.319930423587607
 30
0.0
 40
1.293604653866405
 50
61.1340918164388825
 51
75.3185527514899036
  0
ARC
  5
1E536
  8
0
 10
4612.6400496982787445
 20
477.4064346733972002
 30
0.0
 40
1.203553887808803
 50
64.0184668333538696
 51
75.3054423549283172
  0
ARC
  5
1E537
  8
0
 10
4612.7199706734945721
 20
477.5560297830642753
 30
0.0
 40
1.064140634999257
 50
64.6978947695935602
 51
72.1565291781269167
  0
ARC
  5
1E538
  8
0
 10
4613.1976283390958997
 20
478.6762041734617128
 30
0.0
 40
0.1299157565123848
 50
228.4144497720353115
 51
256.307640876522612
  0
ARC
  5
1E539
  8
0
 10
4613.1629867062447374
 20
478.1159470492090122
 30
0.0
 40
0.0053871990095112
 50
268.0320330767025894
 51
82.3717793419904751
  0
ARC
  5
1E53A
  8
0
 10
4613.1622504297156411
 20
478.1440728839917824
 30
0.0
 40
0.008912327148556
 50
271.5026962274923221
 51
75.457128028481165
  0
ARC
  5
1E53B
  8
0
 10
4613.1630962555909719
 20
478.1839734863561944
 30
0.0
 40
0.0114354470462782
 50
264.8141154014350036
 51
76.1488824017001633
  0
ARC
  5
1E53C
  8
0
 10
4613.1659043572171868
 20
478.2352183647586799
 30
0.0
 40
0.0123951057969825
 50
251.4956557570424138
 51
47.2129435758352969
  0
ARC
  5
1E53D
  8
0
 10
4613.1644460443876596
 20
478.3015315966293883
 30
0.0
 40
0.0151311488987907
 50
260.1809623489323258
 51
47.9121091957407401
  0
ARC
  5
1E53E
  8
0
 10
4613.1652052320268922
 20
478.3688823478042877
 30
0.0
 40
0.0167576439773823
 50
258.70217286103059
 51
57.0547949211384804
  0
ARC
  5
1E53F
  8
0
 10
4613.1651586981215587
 20
478.4393462717177954
 30
0.0
 40
0.0161946818924445
 50
259.0669736909326275
 51
56.2216142557372223
  0
ARC
  5
1E540
  8
0
 10
4613.1662528572205701
 20
478.5044206170301209
 30
0.0
 40
0.0161032447647066
 50
273.7437757388669866
 51
58.0477579331487377
  0
LINE
  5
1E541
  8
0
 10
4613.1803762821946293
 20
478.5616536177636249
 30
0.0
 11
4613.180376134794642
 21
478.596694915563603
 31
0.0
  0
ARC
  5
1E542
  8
0
 10
4613.1698634185850096
 20
478.5601688215472791
 30
0.0
 40
0.0106171993056913
 50
253.6586179430206016
 51
8.0390623574835445
  0
ARC
  5
1E543
  8
0
 10
4613.0505020492491894
 20
478.5790228953636074
 30
0.0
 40
0.0109866079196439
 50
113.9503099417148064
 51
246.0496900582851083
  0
ARC
  5
1E544
  8
0
 10
4612.9496339522247581
 20
478.5790232769526824
 30
0.0
 40
0.0094297662032132
 50
117.0180615425139052
 51
242.9832896663392887
  0
ARC
  5
1E545
  8
0
 10
4612.8813845040758679
 20
478.5790228953636074
 30
0.0
 40
0.0086380685755485
 50
116.5939008003373942
 51
243.4060991996655048
  0
ARC
  5
1E546
  8
0
 10
4612.7448400050570854
 20
478.5790228953636074
 30
0.0
 40
0.0069496424946864
 50
113.7083170443004008
 51
246.2916829556995992
  0
ARC
  5
1E547
  8
0
 10
4612.6532635040048262
 20
478.5790228953636074
 30
0.0
 40
0.0090857485925494
 50
105.4385193186864029
 51
254.5614806813134976
  0
ARC
  5
1E548
  8
0
 10
4612.5024040469488682
 20
478.5790228953636074
 30
0.0
 40
0.0071215683360174
 50
105.0581951918043018
 51
254.9418048081427912
  0
ARC
  5
1E549
  8
0
 10
4612.3540541374941313
 20
478.5790228953636074
 30
0.0
 40
0.0067052498083866
 50
102.2873806768286045
 51
257.7126193231197817
  0
ARC
  5
1E54A
  8
0
 10
4612.1385451514252054
 20
478.5790228953636074
 30
0.0
 40
0.0061278759999591
 50
97.2818277590339164
 51
262.7181722409139866
  0
ARC
  5
1E54B
  8
0
 10
4611.9940783190622824
 20
478.5790228953636074
 30
0.0
 40
0.0059342717497029
 50
100.7059556996471059
 51
259.2940443003535052
  0
ARC
  5
1E54C
  8
0
 10
4611.8772693054634146
 20
478.5790228953636074
 30
0.0
 40
0.0079677848593457
 50
105.1618802422779027
 51
254.8381197577220973
  0
ARC
  5
1E54D
  8
0
 10
4611.7447065113574354
 20
478.5790228953636074
 30
0.0
 40
0.006320699174372
 50
109.0856367921383026
 51
250.9143632078659039
  0
ARC
  5
1E54E
  8
0
 10
4611.6055208478737768
 20
478.5790228953636074
 30
0.0
 40
0.0063662606366428
 50
114.3737398271870944
 51
245.6262601725352965
  0
ARC
  5
1E54F
  8
0
 10
4611.451932701572332
 20
478.5790228953636074
 30
0.0
 40
0.0077383367122269
 50
117.7926889851963068
 51
242.2073110149829063
  0
ARC
  5
1E550
  8
0
 10
4611.2827494532511992
 20
478.5790228953636074
 30
0.0
 40
0.0073575178315631
 50
117.1545475813846053
 51
242.8454524210785905
  0
ARC
  5
1E551
  8
0
 10
4611.1471286046207751
 20
478.5790228953636074
 30
0.0
 40
0.0071092445624498
 50
117.311897798903999
 51
242.6881022013305085
  0
ARC
  5
1E552
  8
0
 10
4611.0006774567700631
 20
479.0289188418216781
 30
0.0
 40
0.023604053824044
 50
0.3352238196774699
 51
89.9911405219468179
  0
ARC
  5
1E553
  8
0
 10
4611.0006811065941292
 20
478.1291228953635937
 30
0.0
 40
0.0235999999999983
 50
270.0
 51
0.0
  0
ARC
  5
1E554
  8
0
 10
4609.9673913427941443
 20
478.5790228953636074
 30
0.0
 40
1.1939529885
 50
23.3646621316199301
 51
336.635337868380077
  0
ARC
  5
1E555
  8
0
 10
4609.9673913427941443
 20
478.5790228953636074
 30
0.0
 40
1.0056614174
 50
28.0884735255930593
 51
331.9115264744070259
  0
ARC
  5
1E556
  8
0
 10
4609.9673913427941443
 20
478.5790228953636074
 30
0.0
 40
0.9217406930000006
 50
30.9107315486916008
 51
329.089268451308385
  0
ENDSEC
  0
EOF
