  0
SECTION
  2
HEADER
  9
$ACADVER
  1
AC1009
  9
$INSBASE
 10
4116.2811674871745709
 20
132.2894418464684065
 30
0.0
  9
$EXTMIN
 10
4115.7784157009991759
 20
99.2383394842683941
 30
0.0
  9
$EXTMAX
 10
4116.8951674871277646
 20
140.8574418464683902
 30
0.0
  9
$LIMMIN
 10
0.0
 20
0.0
  9
$LIMMAX
 10
11.6929133858000007
 20
8.2677165353999982
  9
$ORTHOMODE
 70
     0
  9
$REGENMODE
 70
     1
  9
$FILLMODE
 70
     1
  9
$QTEXTMODE
 70
     0
  9
$MIRRTEXT
 70
     0
  9
$DRAGMODE
 70
     2
  9
$LTSCALE
 40
0.6431102362
  9
$OSMODE
 70
  4095
  9
$ATTMODE
 70
     1
  9
$TEXTSIZE
 40
0.2
  9
$TRACEWID
 40
0.05
  9
$TEXTSTYLE
  7
STANDARD
  9
$CLAYER
  8
0
  9
$CELTYPE
  6
BYLAYER
  9
$CECOLOR
 62
   256
  9
$DIMSCALE
 40
1.0
  9
$DIMASZ
 40
0.1875
  9
$DIMEXO
 40
0.0625
  9
$DIMDLI
 40
0.4443307087
  9
$DIMRND
 40
0.0
  9
$DIMDLE
 40
0.0
  9
$DIMEXE
 40
0.125
  9
$DIMTP
 40
0.01
  9
$DIMTM
 40
0.01
  9
$DIMTXT
 40
2.0
  9
$DIMCEN
 40
0.1052362205
  9
$DIMTSZ
 40
0.0
  9
$DIMTOL
 70
     1
  9
$DIMLIM
 70
     0
  9
$DIMTIH
 70
     1
  9
$DIMTOH
 70
     1
  9
$DIMSE1
 70
     0
  9
$DIMSE2
 70
     0
  9
$DIMTAD
 70
     0
  9
$DIMZIN
 70
     0
  9
$DIMBLK
  1

  9
$DIMASO
 70
     1
  9
$DIMSHO
 70
     1
  9
$DIMPOST
  1
\X
  9
$DIMAPOST
  1

  9
$DIMALT
 70
     1
  9
$DIMALTD
 70
     2
  9
$DIMALTF
 40
25.3999999999999986
  9
$DIMLFAC
 40
1.0
  9
$DIMTOFL
 70
     0
  9
$DIMTVP
 40
0.0
  9
$DIMTIX
 70
     0
  9
$DIMSOXD
 70
     0
  9
$DIMSAH
 70
     0
  9
$DIMBLK1
  1

  9
$DIMBLK2
  1

  9
$DIMSTYLE
  2
STANDARD
  9
$DIMCLRD
 70
     0
  9
$DIMCLRE
 70
     0
  9
$DIMCLRT
 70
     0
  9
$DIMTFAC
 40
1.0
  9
$DIMGAP
 40
0.09
  9
$LUNITS
 70
     2
  9
$LUPREC
 70
     4
  9
$SKETCHINC
 40
0.1
  9
$FILLETRAD
 40
0.0
  9
$AUNITS
 70
     0
  9
$AUPREC
 70
     0
  9
$MENU
  1
.
  9
$ELEVATION
 40
0.0
  9
$PELEVATION
 40
0.0
  9
$THICKNESS
 40
0.0
  9
$LIMCHECK
 70
     0
  9
$BLIPMODE
 70
     0
  9
$CHAMFERA
 40
0.0
  9
$CHAMFERB
 40
0.0
  9
$SKPOLY
 70
     0
  9
$TDCREATE
 40
2458060.468368056230247
  9
$TDUPDATE
 40
2460098.4559490741230547
  9
$TDINDWG
 40
0.3410371528
  9
$TDUSRTIMER
 40
0.3410371528
  9
$USRTIMER
 70
     1
  9
$ANGBASE
 50
0.0
  9
$ANGDIR
 70
     0
  9
$PDMODE
 70
     0
  9
$PDSIZE
 40
0.3125
  9
$PLINEWID
 40
0.0
  9
$COORDS
 70
     1
  9
$SPLFRAME
 70
     0
  9
$SPLINETYPE
 70
     6
  9
$SPLINESEGS
 70
     8
  9
$ATTDIA
 70
     1
  9
$ATTREQ
 70
     1
  9
$HANDLING
 70
     1
  9
$HANDSEED
  5
96F0
  9
$SURFTAB1
 70
     6
  9
$SURFTAB2
 70
     6
  9
$SURFTYPE
 70
     6
  9
$SURFU
 70
     6
  9
$SURFV
 70
     6
  9
$UCSNAME
  2

  9
$UCSORG
 10
0.0
 20
0.0
 30
0.0
  9
$UCSXDIR
 10
1.0
 20
0.0
 30
0.0
  9
$UCSYDIR
 10
0.0
 20
1.0
 30
0.0
  9
$PUCSNAME
  2

  9
$PUCSORG
 10
0.0
 20
0.0
 30
0.0
  9
$PUCSXDIR
 10
1.0
 20
0.0
 30
0.0
  9
$PUCSYDIR
 10
0.0
 20
1.0
 30
0.0
  9
$USERI1
 70
     0
  9
$USERI2
 70
     0
  9
$USERI3
 70
     0
  9
$USERI4
 70
     0
  9
$USERI5
 70
     0
  9
$USERR1
 40
0.0
  9
$USERR2
 40
0.0
  9
$USERR3
 40
0.0
  9
$USERR4
 40
0.0
  9
$USERR5
 40
0.0
  9
$WORLDVIEW
 70
     1
  9
$SHADEDGE
 70
     3
  9
$SHADEDIF
 70
    70
  9
$TILEMODE
 70
     1
  9
$MAXACTVP
 70
    64
  9
$PLIMCHECK
 70
     0
  9
$PEXTMIN
 10
1.0000000000000000E+20
 20
1.0000000000000000E+20
 30
1.0000000000000000E+20
  9
$PEXTMAX
 10
-1.0000000000000000E+20
 20
-1.0000000000000000E+20
 30
-1.0000000000000000E+20
  9
$PLIMMIN
 10
0.0
 20
0.0
  9
$PLIMMAX
 10
12.0
 20
9.0
  9
$UNITMODE
 70
     0
  9
$VISRETAIN
 70
     1
  9
$PLINEGEN
 70
     0
  9
$PSLTSCALE
 70
     1
  0
ENDSEC
  0
SECTION
  2
TABLES
  0
TABLE
  2
VPORT
 70
     1
  0
VPORT
  2
*ACTIVE
 70
     0
 10
0.0
 20
0.0
 11
1.0
 21
1.0
 12
87.549926359688925
 22
-15.8264684654909793
 13
0.0
 23
0.0
 14
1.0
 24
1.0
 15
0.0
 25
0.0
 16
0.0
 26
0.0
 36
47.0568789906323275
 17
4028.786865234375
 27
135.8743591308592897
 37
0.0
 40
41.9038396645639608
 41
1.614155251141552
 42
50.0
 43
0.0
 44
0.0
 50
0.0
 51
0.0
 71
     0
 72
   100
 73
     1
 74
     1
 75
     0
 76
     0
 77
     0
 78
     0
  0
ENDTAB
  0
TABLE
  2
LTYPE
 70
     2
  0
LTYPE
  2
CONTINUOUS
 70
     0
  3
Solid line
 72
    65
 73
     0
 40
0.0
  0
LTYPE
  2
PHANTOM2
 70
     0
  3
___ _ _ ___ _ _ ___ _ _ ___ _ _
 72
    65
 73
     6
 40
1.25
 49
0.625
 49
-0.125
 49
0.125
 49
-0.125
 49
0.125
 49
-0.125
  0
ENDTAB
  0
TABLE
  2
LAYER
 70
     2
  0
LAYER
  2
0
 70
     0
 62
   255
  6
CONTINUOUS
  0
LAYER
  2
DEFPOINTS
 70
     0
 62
     7
  6
CONTINUOUS
  0
ENDTAB
  0
TABLE
  2
STYLE
 70
     1
  0
STYLE
  2
STANDARD
 70
     0
 40
0.0
 41
0.8
 50
0.0
 71
     0
 42
0.2
  3
txt
  4

  0
ENDTAB
  0
TABLE
  2
VIEW
 70
     0
  0
ENDTAB
  0
TABLE
  2
UCS
 70
     0
  0
ENDTAB
  0
TABLE
  2
APPID
 70
    10
  0
APPID
  2
ACAD
 70
     0
  0
APPID
  2
ACAD_MLEADERVER
 70
     0
  0
APPID
  2
ACAD_EXEMPT_FROM_CAD_STANDARDS
 70
     0
  0
APPID
  2
ACAD_NAV_VCDISPLAY
 70
     0
  0
APPID
  2
ACAECLAYERSTANDARD
 70
     0
  0
APPID
  2
ACCMTRANSPARENCY
 70
     0
  0
APPID
  2
ACAD_DSTYLE_DIMJAG
 70
     0
  0
APPID
  2
ACAD_DSTYLE_DIMTALN
 70
     0
  0
APPID
  2
ACDBATTR
 70
     0
  0
APPID
  2
ACADANNOTATIVE
 70
     0
  0
ENDTAB
  0
TABLE
  2
DIMSTYLE
 70
     1
  0
DIMSTYLE
  2
STANDARD
 70
     0
  3

  4

  5

  6

  7

 40
1.0
 41
0.1875
 42
0.0625
 43
0.38
 44
0.125
 45
0.0
 46
0.0
 47
0.01
 48
0.01
140
0.15625
141
0.09
142
0.0
143
25.3999999999999986
144
1.0
145
0.0
146
1.0
147
0.09
 71
     1
 72
     0
 73
     1
 74
     1
 75
     0
 76
     0
 77
     0
 78
     4
170
     0
171
     2
172
     0
173
     0
174
     0
175
     0
176
     0
177
     0
178
     0
  0
ENDTAB
  0
ENDSEC
  0
SECTION
  2
BLOCKS
  0
BLOCK
  8
0
  2
$MODEL_SPACE
 70
     0
 10
0.0
 20
0.0
 30
0.0
  3
$MODEL_SPACE
  1

  0
ENDBLK
  5
21
  8
0
  0
BLOCK
 67
     1
  8
0
  2
$PAPER_SPACE
 70
     0
 10
0.0
 20
0.0
 30
0.0
  3
$PAPER_SPACE
  1

  0
ENDBLK
  5
1D
 67
     1
  8
0
  0
ENDSEC
  0
SECTION
  2
ENTITIES
  0
ATTDEF
  5
3930
  8
DEFPOINTS
 10
4116.2777672502315909
 20
132.2940997363662063
 30
0.0
 40
0.001
  1
P24843-00
  3

  2
MODELNUMBER
 70
     0
1001
ACDBATTR
1070
     0
1070
     1
  0
ATTDEF
  5
3931
  8
DEFPOINTS
 10
4116.2777672502315909
 20
132.292433069699598
 30
0.0
 40
0.001
  1
ONE
  3

  2
TRADENAME
 70
     0
1001
ACDBATTR
1070
     0
1070
     1
  0
ATTDEF
  5
3932
  8
DEFPOINTS
 10
4116.2777672502315909
 20
132.2907664030329045
 30
0.0
 40
0.001
  1
HANDSHOWER
  3

  2
PRODUCT
 70
     0
1001
ACDBATTR
1070
     0
1070
     1
  0
LINE
  5
92D9
  8
0
 10
4115.8229674871236057
 20
140.8574418464683902
 30
0.0
 11
4116.883367487122996
 21
140.8574418464683902
 31
0.0
  0
LINE
  5
92DA
  8
0
 10
4115.811167487124294
 20
140.7674418464683868
 30
0.0
 11
4116.8951674871277646
 21
140.7674418464683868
 31
0.0
  0
LINE
  5
92DB
  8
0
 10
4115.811167487124294
 20
137.0874418464682947
 30
0.0
 11
4116.7511674871966534
 21
137.0874418464682947
 31
0.0
  0
LINE
  5
92DC
  8
0
 10
4115.8211674871254218
 20
137.0794418464683986
 30
0.0
 11
4116.7411674871236755
 21
137.0794418464683986
 31
0.0
  0
LINE
  5
92DD
  8
0
 10
4115.821176405424012
 20
137.0394418464684065
 30
0.0
 11
4116.7411585689242202
 21
137.0394418464684065
 31
0.0
  0
LINE
  5
92DE
  8
0
 10
4115.821176405424012
 20
132.2894418464684065
 30
0.0
 11
4116.7411585689242202
 21
132.2894418464684065
 31
0.0
  0
LINE
  5
92DF
  8
0
 10
4115.9071517391239468
 20
131.0183394842682958
 30
0.0
 11
4116.6551832352242855
 21
131.0183394842682958
 31
0.0
  0
LINE
  5
92E0
  8
0
 10
4115.8534652574162465
 20
131.4907804291682965
 30
0.0
 11
4116.7088697169319857
 21
131.4907804291682965
 31
0.0
  0
LINE
  5
92E1
  8
0
 10
4115.8501638423367694
 20
131.5695205866682898
 30
0.0
 11
4116.7121711320132817
 21
131.5695205866682898
 31
0.0
  0
LINE
  5
92E2
  8
0
 10
4115.8287182554167885
 20
132.1994418464684031
 30
0.0
 11
4116.7336167189323533
 21
132.1994418464684031
 31
0.0
  0
LINE
  5
92E3
  8
0
 10
4115.8549084020241935
 20
131.2151898779684132
 30
0.0
 11
4116.7074265723240387
 21
131.2151898779684132
 31
0.0
  0
LINE
  5
92E4
  8
0
 10
4115.9071517391239468
 20
131.0183394842682958
 30
0.0
 11
4115.9071517391239468
 21
131.2151898779684132
 31
0.0
  0
LINE
  5
92E5
  8
0
 10
4116.6551832352242855
 20
131.0183394842682958
 30
0.0
 11
4116.6551832352242855
 21
131.2151898779684132
 31
0.0
  0
LINE
  5
92E6
  8
0
 10
4115.8549084020241935
 20
131.2151898779684132
 30
0.0
 11
4115.8455700698832516
 21
131.4826047231451867
 31
0.0
  0
LINE
  5
92E7
  8
0
 10
4116.7074265723240387
 20
131.2151898779684132
 30
0.0
 11
4116.7167649044658901
 21
131.4826047231451867
 31
0.0
  0
ARC
  5
92E8
  8
0
 10
4116.7088697169319857
 20
131.4828804291684037
 30
0.0
 40
0.0079
 50
358.0000000054690759
 51
90.0000000001042082
  0
ARC
  5
92E9
  8
0
 10
4115.8534652574162465
 20
131.4828804291684037
 30
0.0
 40
0.0079
 50
90.0
 51
181.9999999944755018
  0
ARC
  5
92EA
  8
0
 10
4115.8853782087999207
 20
131.4986865969696908
 30
0.0
 40
0.0079734170482857
 50
277.446716475133428
 51
326.0221936630837263
  0
ARC
  5
92EB
  8
0
 10
4115.9071517391239468
 20
131.5258197992683904
 30
0.0
 40
0.0350393701000022
 50
113.157400853422601
 51
244.360957790882793
  0
LINE
  5
92EC
  8
0
 10
4115.8933722115243654
 20
131.5620147797772859
 30
0.0
 11
4115.8933722115243654
 21
131.5580359765100127
 31
0.0
  0
ARC
  5
92ED
  8
0
 10
4115.885488340867596
 20
131.5616287135507889
 30
0.0
 40
0.0078933176559992
 50
2.8034845713548489
 51
88.903827218583686
  0
LINE
  5
92EE
  8
0
 10
4115.8422686548028651
 20
131.5771448806449087
 30
0.0
 11
4115.8208230678828841
 21
132.1912661404448102
 31
0.0
  0
ARC
  5
92EF
  8
0
 10
4115.8501638423367694
 20
131.5774205866684099
 30
0.0
 40
0.0079
 50
181.9999999968250961
 51
270.0000000000521254
  0
ARC
  5
92F0
  8
0
 10
4115.8287182554167885
 20
132.1915418464683967
 30
0.0
 40
0.0079
 50
90.0000000000521254
 51
181.9999999968715088
  0
LINE
  5
92F1
  8
0
 10
4115.811167487124294
 20
132.2194418464684134
 30
0.0
 11
4115.811167487124294
 21
132.2694418464683963
 31
0.0
  0
ARC
  5
92F2
  8
0
 10
4115.8311674871247305
 20
132.2194418464684134
 30
0.0
 40
0.02
 50
180.0000000000098055
 51
270.0
  0
ARC
  5
92F3
  8
0
 10
4115.8311674871247305
 20
132.2694418464683963
 30
0.0
 40
0.02
 50
90.0
 51
179.9999999999893987
  0
LINE
  5
92F4
  8
0
 10
4115.8111764054247033
 20
132.2994418464683974
 30
0.0
 11
4115.8111764054247033
 21
137.0294418464683872
 31
0.0
  0
ARC
  5
92F5
  8
0
 10
4115.821176405424012
 20
132.2994418464683974
 30
0.0
 40
0.01
 50
179.9999999999795932
 51
270.0
  0
ARC
  5
92F6
  8
0
 10
4115.821176405424012
 20
137.0294418464683872
 30
0.0
 40
0.01
 50
90.0
 51
180.0
  0
ARC
  5
92F7
  8
0
 10
4116.6769567655483115
 20
131.4986865969696908
 30
0.0
 40
0.0079734170482857
 50
213.9778063369163021
 51
262.553283524866572
  0
ARC
  5
92F8
  8
0
 10
4116.6551832352242855
 20
131.5258197992683904
 30
0.0
 40
0.0350393701000022
 50
295.6390422091175196
 51
66.8425991465773564
  0
LINE
  5
92F9
  8
0
 10
4116.6689627628229573
 20
131.5620147797772859
 30
0.0
 11
4116.6689627628229573
 21
131.5580359765100127
 31
0.0
  0
ARC
  5
92FA
  8
0
 10
4116.6768466334797267
 20
131.5616287135507889
 30
0.0
 40
0.0078933176559992
 50
91.0961727814163424
 51
177.1965154286451991
  0
LINE
  5
92FB
  8
0
 10
4116.7200663195453672
 20
131.5771448806449087
 30
0.0
 11
4116.7415119064653481
 21
132.1912661404448102
 31
0.0
  0
ARC
  5
92FC
  8
0
 10
4116.7121711320132817
 20
131.5774205866684099
 30
0.0
 40
0.0079
 50
269.9999999999478746
 51
358.0000000031748186
  0
ARC
  5
92FD
  8
0
 10
4116.7336167189323533
 20
132.1915418464683967
 30
0.0
 40
0.0079
 50
358.0000000031284912
 51
89.9999999999478888
  0
LINE
  5
92FE
  8
0
 10
4116.7511674872230287
 20
132.2194418464684134
 30
0.0
 11
4116.7511674872230287
 21
132.2694418464683963
 31
0.0
  0
ARC
  5
92FF
  8
0
 10
4116.7311674872244112
 20
132.2194418464684134
 30
0.0
 40
0.02
 50
270.0
 51
359.9999999999894271
  0
ARC
  5
9300
  8
0
 10
4116.7311674872244112
 20
132.2694418464683963
 30
0.0
 40
0.02
 50
0.0000000000097707
 51
90.0
  0
LINE
  5
9301
  8
0
 10
4116.7511585689244384
 20
132.2994418464683974
 30
0.0
 11
4116.7511585689244384
 21
137.0294418464683872
 31
0.0
  0
ARC
  5
9302
  8
0
 10
4116.7411585689242202
 20
132.2994418464683974
 30
0.0
 40
0.01
 50
270.0
 51
0.0000000000203555
  0
ARC
  5
9303
  8
0
 10
4116.7411585689242202
 20
137.0294418464683872
 30
0.0
 40
0.01
 50
0.0
 51
90.0000000000521254
  0
LINE
  5
9304
  8
0
 10
4115.8211674871254218
 20
137.0394418424916125
 30
0.0
 11
4115.8211674871254218
 21
137.0794418464683986
 31
0.0
  0
LINE
  5
9305
  8
0
 10
4116.7411674871236755
 20
137.0394418424916978
 30
0.0
 11
4116.7411674871236755
 21
137.0794418464683986
 31
0.0
  0
LINE
  5
9306
  8
0
 10
4115.8986674871230207
 20
137.0874418464682947
 30
0.0
 11
4115.8986674871230207
 21
137.084441846468394
 31
0.0
  0
ARC
  5
9307
  8
0
 10
4115.9036674871231298
 20
137.084441846468394
 30
0.0
 40
0.005
 50
180.0
 51
270.0
  0
LINE
  5
9308
  8
0
 10
4116.6636674871242576
 20
137.0874418464682947
 30
0.0
 11
4116.6636674871242576
 21
137.084441846468394
 31
0.0
  0
ARC
  5
9309
  8
0
 10
4116.6586674871241485
 20
137.084441846468394
 30
0.0
 40
0.005
 50
270.0
 51
0.0
  0
LINE
  5
930A
  8
0
 10
4116.7511674871966534
 20
137.0874418464682947
 30
0.0
 11
4116.8951674871277646
 21
140.7674418464683868
 31
0.0
  0
LINE
  5
930B
  8
0
 10
4115.811167487124294
 20
137.0874418464682947
 30
0.0
 11
4115.811167487124294
 21
137.60093240436521
 31
0.0
  0
LINE
  5
930C
  8
0
 10
4115.811167487124294
 20
137.6774535049250971
 30
0.0
 11
4115.811167487124294
 21
137.6826881116253958
 31
0.0
  0
LINE
  5
930D
  8
0
 10
4115.811167487124294
 20
137.7995758855498991
 30
0.0
 11
4115.811167487124294
 21
137.8001787381710983
 31
0.0
  0
LINE
  5
930E
  8
0
 10
4115.811167487124294
 20
137.8766998387310139
 30
0.0
 11
4115.811167487124294
 21
137.8819344454313125
 31
0.0
  0
LINE
  5
930F
  8
0
 10
4115.811167487124294
 20
140.7792418464682953
 30
0.0
 11
4115.811167487124294
 21
140.8456418464683964
 31
0.0
  0
ARC
  5
9310
  8
0
 10
4115.8229674871236057
 20
140.7792418464682953
 30
0.0
 40
0.0118
 50
180.0000000000171099
 51
270.0
  0
ARC
  5
9311
  8
0
 10
4115.8229674871236057
 20
140.8456418464683964
 30
0.0
 40
0.0118
 50
90.0
 51
180.0000000000171099
  0
LINE
  5
9312
  8
0
 10
4116.8951674871250361
 20
140.7792418464682953
 30
0.0
 11
4116.8951674871250361
 21
140.8456418464683964
 31
0.0
  0
ARC
  5
9313
  8
0
 10
4116.883367487122996
 20
140.7792418464682953
 30
0.0
 40
0.0118
 50
269.9999999999478746
 51
0.0
  0
ARC
  5
9314
  8
0
 10
4116.883367487122996
 20
140.8456418464683964
 30
0.0
 40
0.0118
 50
359.9999999999657803
 51
90.0000000000521254
  0
LINE
  5
9315
  8
0
 10
4115.8323355616948902
 20
122.1419942312683986
 30
0.0
 11
4116.7299994126524325
 21
122.1419942312683986
 31
0.0
  0
LINE
  5
9316
  8
0
 10
4115.8323455383297187
 20
121.5908131288684046
 30
0.0
 11
4116.7299894360166945
 21
121.5908131288684046
 31
0.0
  0
LINE
  5
9317
  8
0
 10
4115.8284115816240956
 20
121.5972774512651995
 30
0.0
 11
4115.8284115816240956
 21
122.1355053572322049
 31
0.0
  0
LINE
  5
9318
  8
0
 10
4115.8284115816240956
 20
122.1355053572322049
 30
0.0
 11
4115.8323355616948902
 21
122.1419942312683986
 31
0.0
  0
LINE
  5
9319
  8
0
 10
4115.8323455383297187
 20
121.5908131288684046
 30
0.0
 11
4115.8284115816240956
 21
121.5972774512651995
 31
0.0
  0
ARC
  5
931A
  8
0
 10
4116.0924293406751531
 20
121.8792416690225053
 30
0.0
 40
0.2688283093851389
 50
125.436681961230704
 51
169.1445640201337994
  0
ARC
  5
931B
  8
0
 10
4116.0549923262933589
 20
121.9318493047430962
 30
0.0
 40
0.204259792428594
 50
51.7411825362664501
 51
125.436681961230704
  0
ARC
  5
931C
  8
0
 10
4116.0103992658196148
 20
121.8753011787401022
 30
0.0
 40
0.2762752879614312
 50
11.4591085724733492
 51
51.7411825362659314
  0
ARC
  5
931D
  8
0
 10
4116.0924293406751531
 20
121.8535656910141967
 30
0.0
 40
0.2688283093851389
 50
190.8554359798660869
 51
234.563318038769296
  0
ARC
  5
931E
  8
0
 10
4116.0549923262933589
 20
121.8009580552936058
 30
0.0
 40
0.204259792428594
 50
234.563318038769296
 51
308.2588174637335783
  0
ARC
  5
931F
  8
0
 10
4116.0103992658196148
 20
121.8575061812965998
 30
0.0
 40
0.2762752879614312
 50
308.2588174637340899
 51
348.540891427526617
  0
LINE
  5
9320
  8
0
 10
4116.7339233927241366
 20
121.5972774512651995
 30
0.0
 11
4116.7339233927241366
 21
122.1355053572322049
 31
0.0
  0
LINE
  5
9321
  8
0
 10
4116.7339233927241366
 20
122.1355053572322049
 30
0.0
 11
4116.7299994126524325
 21
122.1419942312683986
 31
0.0
  0
LINE
  5
9322
  8
0
 10
4116.7299894360166945
 20
121.5908131288684046
 30
0.0
 11
4116.7339233927241366
 21
121.5972774512651995
 31
0.0
  0
ARC
  5
9323
  8
0
 10
4116.4699056336739886
 20
121.8792416690225053
 30
0.0
 40
0.2688283093851389
 50
10.8554359798669697
 51
54.5633180387692533
  0
ARC
  5
9324
  8
0
 10
4116.5073426480557828
 20
121.9318493047430962
 30
0.0
 40
0.204259792428594
 50
54.5633180387692533
 51
128.2588174637340046
  0
ARC
  5
9325
  8
0
 10
4116.5519357085286174
 20
121.8753011787401022
 30
0.0
 40
0.2762752879614312
 50
128.2588174637340046
 51
168.5408914275267023
  0
ARC
  5
9326
  8
0
 10
4116.4699056336739886
 20
121.8535656910141967
 30
0.0
 40
0.2688283093851389
 50
305.4366819612308177
 51
349.1445640201329752
  0
ARC
  5
9327
  8
0
 10
4116.5073426480557828
 20
121.8009580552936058
 30
0.0
 40
0.204259792428594
 50
231.7411825362659101
 51
305.4366819612301924
  0
ARC
  5
9328
  8
0
 10
4116.5519357085286174
 20
121.8575061812965998
 30
0.0
 40
0.2762752879614312
 50
191.4591085724732977
 51
231.7411825362659101
  0
LINE
  5
9329
  8
0
 10
4116.561167487124294
 20
131.0183394842682958
 30
0.0
 11
4116.561167487124294
 21
122.1419942312683986
 31
0.0
  0
LINE
  5
932A
  8
0
 10
4116.0011674871238938
 20
131.0183394842682958
 30
0.0
 11
4116.0011674871238938
 21
122.1419942312683986
 31
0.0
  0
LINE
  5
932B
  8
0
 10
4115.9819548887244309
 20
120.9293958060683991
 30
0.0
 11
4115.9819548887244309
 21
121.5908131288684046
 31
0.0
  0
LINE
  5
932C
  8
0
 10
4116.5803800856247108
 20
120.9293958060683991
 30
0.0
 11
4116.5803800856247108
 21
121.5908131288684046
 31
0.0
  0
LINE
  5
932D
  8
0
 10
4116.5803800856247108
 20
120.9293958060683991
 30
0.0
 11
4115.9819548887244309
 21
120.9293958060683991
 31
0.0
  0
LINE
  5
932E
  8
0
 10
4116.0011674871238938
 20
99.5183394842683953
 30
0.0
 11
4116.0011674871238938
 21
120.9293958060683991
 31
0.0
  0
LINE
  5
932F
  8
0
 10
4116.561167487124294
 20
99.5183394842683953
 30
0.0
 11
4116.561167487124294
 21
120.9293958060683991
 31
0.0
  0
ARC
  5
9330
  8
0
 10
4116.2811674871236391
 20
99.5183394842683953
 30
0.0
 40
0.2800000000000011
 50
180.0
 51
0.0
  0
ARC
  5
9331
  8
0
 10
4115.6523541178694359
 20
137.6478056227855973
 30
0.0
 40
0.181675174061193
 50
344.0625306871785938
 51
15.8281755528971804
  0
ARC
  5
9332
  8
0
 10
4115.893069577420647
 20
137.6236915114014892
 30
0.0
 40
0.0708751581187545
 50
199.4472913860464018
 51
201.3227709706411872
  0
LINE
  5
9333
  8
0
 10
4115.8276423846791658
 20
137.6000574040876074
 30
0.0
 11
4115.8141720727753636
 21
137.6004119460943969
 31
0.0
  0
LINE
  5
9334
  8
0
 10
4115.8299106114727692
 20
137.6819955836733129
 30
0.0
 11
4115.806223875505566
 21
137.6762555043754901
 31
0.0
  0
ARC
  5
9335
  8
0
 10
4115.8800126817550336
 20
137.6783877799497873
 30
0.0
 40
0.056172063638789
 50
160.2620474577391008
 51
177.2793399476618106
  0
ARC
  5
9336
  8
0
 10
4115.8085660185497545
 20
137.6662130681378926
 30
0.0
 40
0.0103119425729312
 50
103.1281131736529062
 51
181.1976196456689934
  0
ARC
  5
9337
  8
0
 10
4116.1410839188247337
 20
137.6731645047078132
 30
0.0
 40
0.3429024963672965
 50
181.1976196456689934
 51
190.8208336056113978
  0
ARC
  5
9338
  8
0
 10
4115.8144111839255856
 20
137.6107252336308022
 30
0.0
 40
0.010316059032829
 50
190.8208336055946859
 51
268.6718487371846891
  0
ARC
  5
9339
  8
0
 10
4115.9700217367144433
 20
137.6547590716224079
 30
0.0
 40
0.1700732198491329
 50
180.9761498392736883
 51
190.7211115785279105
  0
ARC
  5
933A
  8
0
 10
4115.657524877531614
 20
137.6227488016928078
 30
0.0
 40
0.1453928587180252
 50
0.1465081223122111
 51
11.5507532954925605
  0
LINE
  5
933B
  8
0
 10
4115.8592951011905825
 20
137.699371604069114
 30
0.0
 11
4115.8334436237673799
 21
137.7002890082264059
 31
0.0
  0
LINE
  5
933C
  8
0
 10
4115.8653131313049016
 20
137.785388186161299
 30
0.0
 11
4115.826506808241902
 21
137.7764061428713092
 31
0.0
  0
ARC
  5
933D
  8
0
 10
4115.8286683882270154
 20
137.7653129312365081
 30
0.0
 40
0.0113018481821797
 50
101.0262661013454988
 51
178.5322433617996012
  0
ARC
  5
933E
  8
0
 10
4116.0445176337852899
 20
137.7597822711080937
 30
0.0
 40
0.2272219375882955
 50
178.5322433617988054
 51
193.2763388698317044
  0
ARC
  5
933F
  8
0
 10
4115.8336216004272501
 20
137.7111313583496894
 30
0.0
 40
0.0108438107691598
 50
198.9983932983126067
 51
269.0595769716176164
  0
ARC
  5
9340
  8
0
 10
4115.7408235326456634
 20
137.730020686200902
 30
0.0
 40
0.0816759056396375
 50
354.9904600972089952
 51
15.6072977539506201
  0
ARC
  5
9341
  8
0
 10
4115.9005911393896895
 20
137.7448387259832998
 30
0.0
 40
0.0814183384416876
 50
174.9574911682450136
 51
195.6402666829029044
  0
ARC
  5
9342
  8
0
 10
4115.8610564709160826
 20
137.7825652231572917
 30
0.0
 40
0.0187458803128552
 50
103.1230869542652044
 51
187.5515034861712138
  0
ARC
  5
9343
  8
0
 10
4115.7795863904811995
 20
137.748167125349994
 30
0.0
 40
0.0934584477731309
 50
326.0271924454223722
 51
34.2912074171083177
  0
ARC
  5
9344
  8
0
 10
4115.8614710786523574
 20
137.7152109955561912
 30
0.0
 40
0.019759794835637
 50
231.5776471518695985
 51
257.1953129082550049
  0
ARC
  5
9345
  8
0
 10
4115.2415230764872831
 20
137.7413856103189005
 30
0.0
 40
0.572608821712369
 50
354.2176731808758063
 51
5.8326426253952821
  0
ARC
  5
9346
  8
0
 10
4115.8211674871254218
 20
137.6826881116253958
 30
0.0
 40
0.01
 50
174.2176731808814054
 51
180.0
  0
LINE
  5
9347
  8
0
 10
4115.8126080158772311
 20
137.6996380989714908
 30
0.0
 11
4115.7934782023157823
 21
137.7003061268464137
 31
0.0
  0
LINE
  5
9348
  8
0
 10
4115.8126638812591409
 20
137.7823617475910964
 30
0.0
 11
4115.7861661904680659
 21
137.7762442736132869
 31
0.0
  0
LINE
  5
9349
  8
0
 10
4115.7784617390161657
 20
137.7655421154337034
 30
0.0
 11
4115.7838732353338855
 21
137.7093415775865139
 31
0.0
  0
ARC
  5
934A
  8
0
 10
4115.7884157010003037
 20
137.7665005729625989
 30
0.0
 40
0.01
 50
103.0000000737735064
 51
185.5000000211057909
  0
ARC
  5
934B
  8
0
 10
4115.793827197317114
 20
137.7103000351154094
 30
0.0
 40
0.01
 50
185.5000000211900897
 51
267.9999998049852934
  0
ARC
  5
934C
  8
0
 10
4115.6523541178694359
 20
137.8470519565915993
 30
0.0
 40
0.181675174061193
 50
344.0625306871785938
 51
15.8281755528971804
  0
ARC
  5
934D
  8
0
 10
4115.893069577420647
 20
137.8229378452074911
 30
0.0
 40
0.0708751581187545
 50
199.4472913860464018
 51
201.3227709706411872
  0
LINE
  5
934E
  8
0
 10
4115.8276423846791658
 20
137.7993037378934957
 30
0.0
 11
4115.8141720727753636
 21
137.7996582799003136
 31
0.0
  0
LINE
  5
934F
  8
0
 10
4115.8299106114727692
 20
137.8812419174792012
 30
0.0
 11
4115.806223875505566
 21
137.8755018381814068
 31
0.0
  0
ARC
  5
9350
  8
0
 10
4115.8800126817550336
 20
137.877634113755704
 30
0.0
 40
0.056172063638789
 50
160.2620474577391008
 51
177.2793399476618106
  0
ARC
  5
9351
  8
0
 10
4115.8085660185497545
 20
137.8654594019438946
 30
0.0
 40
0.0103119425729312
 50
103.1281131736529062
 51
181.1976196456689934
  0
ARC
  5
9352
  8
0
 10
4116.1410839188247337
 20
137.8724108385137015
 30
0.0
 40
0.3429024963672965
 50
181.1976196456689934
 51
190.8208336056113978
  0
ARC
  5
9353
  8
0
 10
4115.8144111839255856
 20
137.8099715674366905
 30
0.0
 40
0.010316059032829
 50
190.8208336055946859
 51
268.6718487371846891
  0
ARC
  5
9354
  8
0
 10
4115.9700217367144433
 20
137.8540054054284099
 30
0.0
 40
0.1700732198491329
 50
180.9761498392736883
 51
190.7211115785279105
  0
ARC
  5
9355
  8
0
 10
4115.657524877531614
 20
137.8219951354986961
 30
0.0
 40
0.1453928587180252
 50
0.1465081223122111
 51
11.5507532954925605
  0
LINE
  5
9356
  8
0
 10
4115.8592951011905825
 20
137.8986179378750023
 30
0.0
 11
4115.8334436237673799
 21
137.8995353420322942
 31
0.0
  0
LINE
  5
9357
  8
0
 10
4115.8653131313049016
 20
137.9846345199671873
 30
0.0
 11
4115.826506808241902
 21
137.9756524766773111
 31
0.0
  0
ARC
  5
9358
  8
0
 10
4115.8286683882270154
 20
137.9645592650423964
 30
0.0
 40
0.0113018481821797
 50
101.0262661013454988
 51
178.5322433617996012
  0
ARC
  5
9359
  8
0
 10
4116.0445176337852899
 20
137.9590286049140104
 30
0.0
 40
0.2272219375882955
 50
178.5322433617988054
 51
193.2763388698317044
  0
ARC
  5
935A
  8
0
 10
4115.8336216004272501
 20
137.9103776921556062
 30
0.0
 40
0.0108438107691598
 50
198.9983932983126067
 51
269.0595769716176164
  0
ARC
  5
935B
  8
0
 10
4115.7408235326456634
 20
137.9292670200067903
 30
0.0
 40
0.0816759056396375
 50
354.9904600972089952
 51
15.6072977539506201
  0
ARC
  5
935C
  8
0
 10
4115.9005911393896895
 20
137.9440850597893018
 30
0.0
 40
0.0814183384416876
 50
174.9574911682450136
 51
195.6402666829029044
  0
ARC
  5
935D
  8
0
 10
4115.8610564709160826
 20
137.9818115569632937
 30
0.0
 40
0.0187458803128552
 50
103.1230869542652044
 51
187.5515034861712138
  0
ARC
  5
935E
  8
0
 10
4115.7795863904811995
 20
137.9474134591559107
 30
0.0
 40
0.0934584477731309
 50
326.0271924454223722
 51
34.2912074171083177
  0
ARC
  5
935F
  8
0
 10
4115.8614710786523574
 20
137.9144573293621079
 30
0.0
 40
0.019759794835637
 50
231.5776471518695985
 51
257.1953129082550049
  0
ARC
  5
9360
  8
0
 10
4115.2415230764872831
 20
137.9406319441247888
 30
0.0
 40
0.572608821712369
 50
354.2176731808758063
 51
5.851604524821064
  0
ARC
  5
9361
  8
0
 10
4115.8211674871254218
 20
137.8819344454313125
 30
0.0
 40
0.01
 50
174.2176731808814054
 51
180.0
  0
LINE
  5
9362
  8
0
 10
4115.8126080158772311
 20
137.8988844327774075
 30
0.0
 11
4115.7934782023157823
 21
137.899552460652302
 31
0.0
  0
LINE
  5
9363
  8
0
 10
4115.8126638812591409
 20
137.9816080813970984
 30
0.0
 11
4115.7861661904680659
 21
137.9754906074192036
 31
0.0
  0
LINE
  5
9364
  8
0
 10
4115.7784617390161657
 20
137.9647884492395917
 30
0.0
 11
4115.7838732353338855
 21
137.9085879113924875
 31
0.0
  0
ARC
  5
9365
  8
0
 10
4115.7884157010003037
 20
137.9657469067684872
 30
0.0
 40
0.01
 50
103.0000000737735064
 51
185.5000000211057909
  0
ARC
  5
9366
  8
0
 10
4115.793827197317114
 20
137.9095463689214114
 30
0.0
 40
0.01
 50
185.5000000211900897
 51
267.9999998049852934
  0
ARC
  5
9367
  8
0
 10
4115.6523541178694359
 20
138.045877546756202
 30
0.0
 40
0.181675174061193
 50
344.0625306871785938
 51
15.8281755528971804
  0
ARC
  5
9368
  8
0
 10
4115.893069577420647
 20
138.0217634353720939
 30
0.0
 40
0.0708751581187545
 50
199.4472913860464018
 51
201.3227709706411872
  0
LINE
  5
9369
  8
0
 10
4115.8276423846791658
 20
137.9981293280580985
 30
0.0
 11
4115.8141720727753636
 21
137.9984838700650016
 31
0.0
  0
LINE
  5
936A
  8
0
 10
4115.8299106114727692
 20
138.080067507643804
 30
0.0
 11
4115.806223875505566
 21
138.0743274283460948
 31
0.0
  0
ARC
  5
936B
  8
0
 10
4115.8800126817550336
 20
138.076459703920392
 30
0.0
 40
0.056172063638789
 50
160.2620474577391008
 51
177.2793399476618106
  0
ARC
  5
936C
  8
0
 10
4115.8085660185497545
 20
138.0642849921084974
 30
0.0
 40
0.0103119425729312
 50
103.1281131736529062
 51
181.1976196456689934
  0
ARC
  5
936D
  8
0
 10
4116.1410839188247337
 20
138.0712364286783895
 30
0.0
 40
0.3429024963672965
 50
181.1976196456689934
 51
190.8208336056113978
  0
ARC
  5
936E
  8
0
 10
4115.8144111839255856
 20
138.008797157601407
 30
0.0
 40
0.010316059032829
 50
190.8208336055946859
 51
268.6718487371846891
  0
ARC
  5
936F
  8
0
 10
4115.9700217367144433
 20
138.0528309955930126
 30
0.0
 40
0.1700732198491329
 50
180.9761498392736883
 51
190.7211115785279105
  0
ARC
  5
9370
  8
0
 10
4115.657524877531614
 20
138.0208207256632988
 30
0.0
 40
0.1453928587180252
 50
0.1465081223122111
 51
11.5507532954925605
  0
LINE
  5
9371
  8
0
 10
4115.8592951011905825
 20
138.0974435280396904
 30
0.0
 11
4115.8334436237673799
 21
138.0983609321970107
 31
0.0
  0
LINE
  5
9372
  8
0
 10
4115.8653131313049016
 20
138.1834601101319038
 30
0.0
 11
4115.826506808241902
 21
138.1744780668419139
 31
0.0
  0
ARC
  5
9373
  8
0
 10
4115.8286683882270154
 20
138.1633848552071129
 30
0.0
 40
0.0113018481821797
 50
101.0262661013454988
 51
178.5322433617996012
  0
ARC
  5
9374
  8
0
 10
4116.0445176337852899
 20
138.1578541950786985
 30
0.0
 40
0.2272219375882955
 50
178.5322433617988054
 51
193.2763388698317044
  0
ARC
  5
9375
  8
0
 10
4115.8336216004272501
 20
138.1092032823202942
 30
0.0
 40
0.0108438107691598
 50
198.9983932983126067
 51
269.0595769716176164
  0
ARC
  5
9376
  8
0
 10
4115.7408235326456634
 20
138.1280926101715067
 30
0.0
 40
0.0816759056396375
 50
354.9904600972089952
 51
15.6072977539506201
  0
ARC
  5
9377
  8
0
 10
4115.9005911393896895
 20
138.1429106499539046
 30
0.0
 40
0.0814183384416876
 50
174.9574911682450136
 51
195.6402666829029044
  0
ARC
  5
9378
  8
0
 10
4115.8610564709160826
 20
138.1806371471278965
 30
0.0
 40
0.0187458803128552
 50
103.1230869542652044
 51
187.5515034861712138
  0
ARC
  5
9379
  8
0
 10
4115.7795863904811995
 20
138.1462390493205987
 30
0.0
 40
0.0934584477731309
 50
326.0271924454223722
 51
34.2912074171083177
  0
ARC
  5
937A
  8
0
 10
4115.8614710786523574
 20
138.1132829195267959
 30
0.0
 40
0.019759794835637
 50
231.5776471518695985
 51
257.1953129082550049
  0
ARC
  5
937B
  8
0
 10
4115.191575111448401
 20
138.1377994126357862
 30
0.0
 40
0.6225611026234168
 50
354.2556451401945878
 51
5.6934064857757312
  0
LINE
  5
937C
  8
0
 10
4115.8126080158772311
 20
138.0977100229420103
 30
0.0
 11
4115.7934782023157823
 21
138.09837805081699
 31
0.0
  0
LINE
  5
937D
  8
0
 10
4115.8126638812591409
 20
138.1804336715617012
 30
0.0
 11
4115.7861661904680659
 21
138.1743161975838916
 31
0.0
  0
LINE
  5
937E
  8
0
 10
4115.7784617390161657
 20
138.1636140394043082
 30
0.0
 11
4115.7838732353338855
 21
138.1074135015570903
 31
0.0
  0
ARC
  5
937F
  8
0
 10
4115.7884157010003037
 20
138.16457249693309
 30
0.0
 40
0.01
 50
103.0000000737735064
 51
185.5000000211057909
  0
ARC
  5
9380
  8
0
 10
4115.793827197317114
 20
138.1083719590860142
 30
0.0
 40
0.01
 50
185.5000000211900897
 51
267.9999998049852934
  0
ARC
  5
9381
  8
0
 10
4115.6523541178694359
 20
138.2463994498550051
 30
0.0
 40
0.181675174061193
 50
344.0625306871785938
 51
15.8281755528971804
  0
ARC
  5
9382
  8
0
 10
4115.893069577420647
 20
138.2222853384708969
 30
0.0
 40
0.0708751581187545
 50
199.4472913860464018
 51
201.3227709706411872
  0
LINE
  5
9383
  8
0
 10
4115.8276423846791658
 20
138.1986512311569015
 30
0.0
 11
4115.8141720727753636
 21
138.1990057731636909
 31
0.0
  0
LINE
  5
9384
  8
0
 10
4115.8307443073163086
 20
138.280791442810397
 30
0.0
 11
4115.806223875505566
 21
138.2748493314448126
 31
0.0
  0
ARC
  5
9385
  8
0
 10
4115.8800126817550336
 20
138.2769816070191951
 30
0.0
 40
0.056172063638789
 50
160.2620474577391008
 51
177.8097318066593004
  0
ARC
  5
9386
  8
0
 10
4115.8085660185497545
 20
138.2648068952073004
 30
0.0
 40
0.0103119425729312
 50
103.1281131736529062
 51
181.1976196456689934
  0
ARC
  5
9387
  8
0
 10
4116.1410839188247337
 20
138.2717583317771073
 30
0.0
 40
0.3429024963672965
 50
181.1976196456689934
 51
190.8208336056113978
  0
ARC
  5
9388
  8
0
 10
4115.8144111839255856
 20
138.2093190607000963
 30
0.0
 40
0.010316059032829
 50
190.8208336055946859
 51
268.6718487371846891
  0
ARC
  5
9389
  8
0
 10
4115.9700217367144433
 20
138.2533528986917872
 30
0.0
 40
0.1700732198491329
 50
180.9761498392736883
 51
190.7211115785279105
  0
ARC
  5
938A
  8
0
 10
4115.657524877531614
 20
138.2213426287621019
 30
0.0
 40
0.1453928587180252
 50
0.1465081223122111
 51
11.5507532954925605
  0
LINE
  5
938B
  8
0
 10
4115.8592951011905825
 20
138.2979654311384081
 30
0.0
 11
4115.8334436237673799
 21
138.2988828352957
 31
0.0
  0
LINE
  5
938C
  8
0
 10
4115.8653131313049016
 20
138.3839820132305931
 30
0.0
 11
4115.826506808241902
 21
138.3749999699406885
 31
0.0
  0
ARC
  5
938D
  8
0
 10
4115.8286683882270154
 20
138.3639067583058875
 30
0.0
 40
0.0113018481821797
 50
101.0262661013454988
 51
178.5322433617996012
  0
ARC
  5
938E
  8
0
 10
4116.0445176337852899
 20
138.3583760981773878
 30
0.0
 40
0.2272219375882955
 50
178.5322433617988054
 51
193.2763388698317044
  0
ARC
  5
938F
  8
0
 10
4115.8336216004272501
 20
138.309725185419012
 30
0.0
 40
0.0108438107691598
 50
198.9983932983126067
 51
269.0595769716176164
  0
ARC
  5
9390
  8
0
 10
4115.7408235326456634
 20
138.3286145132701961
 30
0.0
 40
0.0816759056396375
 50
354.9904600972089952
 51
15.6072977539506201
  0
ARC
  5
9391
  8
0
 10
4115.9005911393896895
 20
138.3434325530527076
 30
0.0
 40
0.0814183384416876
 50
174.9574911682450136
 51
195.6402666829029044
  0
ARC
  5
9392
  8
0
 10
4115.8610564709160826
 20
138.3811590502266995
 30
0.0
 40
0.0187458803128552
 50
103.1230869542652044
 51
187.5515034861712138
  0
ARC
  5
9393
  8
0
 10
4115.7795863904811995
 20
138.3467609524192881
 30
0.0
 40
0.0934584477731309
 50
326.0271924454223722
 51
34.2912074171083177
  0
ARC
  5
9394
  8
0
 10
4115.8614710786523574
 20
138.3138048226255137
 30
0.0
 40
0.019759794835637
 50
231.5776471518695985
 51
257.1953129082550049
  0
ARC
  5
9395
  8
0
 10
4115.2415230764872831
 20
138.3399794373881946
 30
0.0
 40
0.572608821712369
 50
353.5740796626400879
 51
6.2281158643807411
  0
LINE
  5
9396
  8
0
 10
4115.8126080158772311
 20
138.2982319260408133
 30
0.0
 11
4115.7934782023157823
 21
138.298899953915793
 31
0.0
  0
LINE
  5
9397
  8
0
 10
4115.8126638812591409
 20
138.3809555746605042
 30
0.0
 11
4115.7861661904680659
 21
138.3748381006826094
 31
0.0
  0
LINE
  5
9398
  8
0
 10
4115.7784617390161657
 20
138.3641359425029975
 30
0.0
 11
4115.7838732353338855
 21
138.3079354046558933
 31
0.0
  0
ARC
  5
9399
  8
0
 10
4115.7884157010003037
 20
138.365094400031893
 30
0.0
 40
0.01
 50
103.0000000737735064
 51
185.5000000211057909
  0
ARC
  5
939A
  8
0
 10
4115.793827197317114
 20
138.3088938621847888
 30
0.0
 40
0.01
 50
185.5000000211900897
 51
267.9999998049852934
  0
ARC
  5
939B
  8
0
 10
4115.6523541178694359
 20
138.4488259316501058
 30
0.0
 40
0.181675174061193
 50
344.0625306871785938
 51
15.8281755528971804
  0
ARC
  5
939C
  8
0
 10
4115.893069577420647
 20
138.4247118202659976
 30
0.0
 40
0.0708751581187545
 50
199.4472913860464018
 51
201.3227709706411872
  0
LINE
  5
939D
  8
0
 10
4115.8276423846791658
 20
138.4010777129520022
 30
0.0
 11
4115.8141720727753636
 21
138.4014322549589053
 31
0.0
  0
LINE
  5
939E
  8
0
 10
4115.8307443073163086
 20
138.4832179246054977
 30
0.0
 11
4115.806223875505566
 21
138.4772758132399986
 31
0.0
  0
ARC
  5
939F
  8
0
 10
4115.8800126817550336
 20
138.4794080888142958
 30
0.0
 40
0.056172063638789
 50
160.2620474577391008
 51
177.8097318066593004
  0
ARC
  5
93A0
  8
0
 10
4115.8085660185497545
 20
138.4672333770024011
 30
0.0
 40
0.0103119425729312
 50
103.1281131736529062
 51
181.1976196456689934
  0
ARC
  5
93A1
  8
0
 10
4116.1410839188247337
 20
138.474184813572208
 30
0.0
 40
0.3429024963672965
 50
181.1976196456689934
 51
190.8208336056113978
  0
ARC
  5
93A2
  8
0
 10
4115.8144111839255856
 20
138.4117455424953107
 30
0.0
 40
0.010316059032829
 50
190.8208336055946859
 51
268.6718487371846891
  0
ARC
  5
93A3
  8
0
 10
4115.9700217367144433
 20
138.4557793804868879
 30
0.0
 40
0.1700732198491329
 50
180.9761498392736883
 51
190.7211115785279105
  0
ARC
  5
93A4
  8
0
 10
4115.657524877531614
 20
138.4237691105572026
 30
0.0
 40
0.1453928587180252
 50
0.1465081223122111
 51
11.5507532954925605
  0
LINE
  5
93A5
  8
0
 10
4115.8592951011905825
 20
138.5003919129335941
 30
0.0
 11
4115.8334436237673799
 21
138.501309317090886
 31
0.0
  0
LINE
  5
93A6
  8
0
 10
4115.8653131313049016
 20
138.5864084950258075
 30
0.0
 11
4115.826506808241902
 21
138.5774264517357892
 31
0.0
  0
ARC
  5
93A7
  8
0
 10
4115.8286683882270154
 20
138.5663332401009882
 30
0.0
 40
0.0113018481821797
 50
101.0262661013454988
 51
178.5322433617996012
  0
ARC
  5
93A8
  8
0
 10
4116.0445176337852899
 20
138.5608025799726022
 30
0.0
 40
0.2272219375882955
 50
178.5322433617988054
 51
193.2763388698317044
  0
ARC
  5
93A9
  8
0
 10
4115.8336216004272501
 20
138.5121516672141979
 30
0.0
 40
0.0108438107691598
 50
198.9983932983126067
 51
269.0595769716176164
  0
ARC
  5
93AA
  8
0
 10
4115.7408235326456634
 20
138.5310409950654105
 30
0.0
 40
0.0816759056396375
 50
354.9904600972089952
 51
15.6072977539506201
  0
ARC
  5
93AB
  8
0
 10
4115.9005911393896895
 20
138.5458590348478083
 30
0.0
 40
0.0814183384416876
 50
174.9574911682450136
 51
195.6402666829029044
  0
ARC
  5
93AC
  8
0
 10
4115.8610564709160826
 20
138.5835855320218002
 30
0.0
 40
0.0187458803128552
 50
103.1230869542652044
 51
187.5515034861712138
  0
ARC
  5
93AD
  8
0
 10
4115.7795863904811995
 20
138.5491874342145024
 30
0.0
 40
0.0934584477731309
 50
326.0271924454223722
 51
34.2912074171083177
  0
ARC
  5
93AE
  8
0
 10
4115.8614710786523574
 20
138.5162313044206996
 30
0.0
 40
0.019759794835637
 50
231.5776471518695985
 51
257.1953129082550049
  0
ARC
  5
93AF
  8
0
 10
4115.2415230764872831
 20
138.542405919183409
 30
0.0
 40
0.572608821712369
 50
353.5740796626400879
 51
5.7355284266736408
  0
LINE
  5
93B0
  8
0
 10
4115.8126080158772311
 20
138.500658407835914
 30
0.0
 11
4115.7934782023157823
 21
138.5013264357108937
 31
0.0
  0
LINE
  5
93B1
  8
0
 10
4115.8126638812591409
 20
138.5833820564556049
 30
0.0
 11
4115.7861661904680659
 21
138.5772645824777953
 31
0.0
  0
LINE
  5
93B2
  8
0
 10
4115.7784617390161657
 20
138.5665624242982119
 30
0.0
 11
4115.7838732353338855
 21
138.510361886450994
 31
0.0
  0
ARC
  5
93B3
  8
0
 10
4115.7884157010003037
 20
138.5675208818271074
 30
0.0
 40
0.01
 50
103.0000000737735064
 51
185.5000000211057909
  0
ARC
  5
93B4
  8
0
 10
4115.793827197317114
 20
138.5113203439798895
 30
0.0
 40
0.01
 50
185.5000000211900897
 51
267.9999998049852934
  0
ARC
  5
93B5
  8
0
 10
4115.6523541178694359
 20
138.6465356619409022
 30
0.0
 40
0.181675174061193
 50
344.0625306871785938
 51
15.8281755528971804
  0
ARC
  5
93B6
  8
0
 10
4115.893069577420647
 20
138.622421550556794
 30
0.0
 40
0.0708751581187545
 50
199.4472913860464018
 51
201.3227709706411872
  0
LINE
  5
93B7
  8
0
 10
4115.8276423846791658
 20
138.5987874432427986
 30
0.0
 11
4115.8141720727753636
 21
138.5991419852495881
 31
0.0
  0
LINE
  5
93B8
  8
0
 10
4115.8307443073163086
 20
138.6809276548962089
 30
0.0
 11
4115.806223875505566
 21
138.6749855435307097
 31
0.0
  0
ARC
  5
93B9
  8
0
 10
4115.8800126817550336
 20
138.6771178191050069
 30
0.0
 40
0.056172063638789
 50
160.2620474577391008
 51
177.8097318066666901
  0
ARC
  5
93BA
  8
0
 10
4115.8085660185497545
 20
138.6649431072931975
 30
0.0
 40
0.0103119425729312
 50
103.1281131736529062
 51
181.1976196456689934
  0
ARC
  5
93BB
  8
0
 10
4116.1410839188247337
 20
138.6718945438630044
 30
0.0
 40
0.3429024963672965
 50
181.1976196456689934
 51
190.8208336056113978
  0
ARC
  5
93BC
  8
0
 10
4115.8144111839255856
 20
138.6094552727859934
 30
0.0
 40
0.010316059032829
 50
190.8208336055946859
 51
268.6718487371846891
  0
ARC
  5
93BD
  8
0
 10
4115.9700217367144433
 20
138.6534891107777128
 30
0.0
 40
0.1700732198491329
 50
180.9761498392736883
 51
190.7211115785279105
  0
ARC
  5
93BE
  8
0
 10
4115.657524877531614
 20
138.621478840847999
 30
0.0
 40
0.1453928587180252
 50
0.1465081223122111
 51
11.5507532954925605
  0
LINE
  5
93BF
  8
0
 10
4115.8592951011905825
 20
138.6981016432243052
 30
0.0
 11
4115.8334436237673799
 21
138.6990190473815971
 31
0.0
  0
LINE
  5
93C0
  8
0
 10
4115.8653131313049016
 20
138.7841182253164902
 30
0.0
 11
4115.826506808241902
 21
138.7751361820266141
 31
0.0
  0
ARC
  5
93C1
  8
0
 10
4115.8286683882270154
 20
138.7640429703916993
 30
0.0
 40
0.0113018481821797
 50
101.0262661013454988
 51
178.5322433617996012
  0
ARC
  5
93C2
  8
0
 10
4116.0445176337852899
 20
138.7585123102633133
 30
0.0
 40
0.2272219375882955
 50
178.5322433617988054
 51
193.2763388698317044
  0
ARC
  5
93C3
  8
0
 10
4115.8336216004272501
 20
138.7098613975049091
 30
0.0
 40
0.0108438107691598
 50
198.9983932983126067
 51
269.0595769716176164
  0
ARC
  5
93C4
  8
0
 10
4115.7408235326456634
 20
138.7287507253560932
 30
0.0
 40
0.0816759056396375
 50
354.9904600972089952
 51
15.6072977539506201
  0
ARC
  5
93C5
  8
0
 10
4115.9005911393896895
 20
138.7435687651386047
 30
0.0
 40
0.0814183384416876
 50
174.9574911682450136
 51
195.6402666829029044
  0
ARC
  5
93C6
  8
0
 10
4115.8610564709160826
 20
138.7812952623125966
 30
0.0
 40
0.0187458803128552
 50
103.1230869542652044
 51
187.5515034861712138
  0
ARC
  5
93C7
  8
0
 10
4115.7795863904811995
 20
138.7468971645052136
 30
0.0
 40
0.0934584477731309
 50
326.0271924454223722
 51
34.2912074171083177
  0
ARC
  5
93C8
  8
0
 10
4115.8614710786523574
 20
138.7139410347114108
 30
0.0
 40
0.019759794835637
 50
231.5776471518695985
 51
257.1953129082550049
  0
ARC
  5
93C9
  8
0
 10
4115.2415230764872831
 20
138.7401156494740917
 30
0.0
 40
0.572608821712369
 50
353.5740796626400879
 51
5.8941734538107067
  0
LINE
  5
93CA
  8
0
 10
4115.8126080158772311
 20
138.6983681381267104
 30
0.0
 11
4115.7934782023157823
 21
138.6990361660016049
 31
0.0
  0
LINE
  5
93CB
  8
0
 10
4115.8126638812591409
 20
138.7810917867464013
 30
0.0
 11
4115.7861661904680659
 21
138.7749743127685065
 31
0.0
  0
LINE
  5
93CC
  8
0
 10
4115.7784617390161657
 20
138.7642721545888946
 30
0.0
 11
4115.7838732353338855
 21
138.7080716167417904
 31
0.0
  0
ARC
  5
93CD
  8
0
 10
4115.7884157010003037
 20
138.7652306121177901
 30
0.0
 40
0.01
 50
103.0000000737735064
 51
185.5000000211057909
  0
ARC
  5
93CE
  8
0
 10
4115.793827197317114
 20
138.7090300742706859
 30
0.0
 40
0.01
 50
185.5000000211900897
 51
267.9999998049852934
  0
ARC
  5
93CF
  8
0
 10
4115.6523541178694359
 20
138.8457698274100949
 30
0.0
 40
0.181675174061193
 50
344.0625306871785938
 51
15.8281755528971804
  0
ARC
  5
93D0
  8
0
 10
4115.893069577420647
 20
138.8216557160259867
 30
0.0
 40
0.0708751581187545
 50
199.4472913860464018
 51
201.3227709706411872
  0
LINE
  5
93D1
  8
0
 10
4115.8276423846791658
 20
138.7980216087119913
 30
0.0
 11
4115.8141720727753636
 21
138.7983761507188092
 31
0.0
  0
LINE
  5
93D2
  8
0
 10
4115.8307443073163086
 20
138.8801618203654868
 30
0.0
 11
4115.806223875505566
 21
138.8742197089999877
 31
0.0
  0
ARC
  5
93D3
  8
0
 10
4115.8800126817550336
 20
138.8763519845743133
 30
0.0
 40
0.056172063638789
 50
160.2620474577391008
 51
177.8097318066666901
  0
ARC
  5
93D4
  8
0
 10
4115.8085660185497545
 20
138.8641772727623902
 30
0.0
 40
0.0103119425729312
 50
103.1281131736529062
 51
181.1976196456689934
  0
ARC
  5
93D5
  8
0
 10
4116.1410839188247337
 20
138.8711287093321971
 30
0.0
 40
0.3429024963672965
 50
181.1976196456689934
 51
190.8208336056113978
  0
ARC
  5
93D6
  8
0
 10
4115.8144111839255856
 20
138.8086894382552998
 30
0.0
 40
0.010316059032829
 50
190.8208336055946859
 51
268.6718487371846891
  0
ARC
  5
93D7
  8
0
 10
4115.9700217367144433
 20
138.8527232762469055
 30
0.0
 40
0.1700732198491329
 50
180.9761498392736883
 51
190.7211115785279105
  0
ARC
  5
93D8
  8
0
 10
4115.657524877531614
 20
138.8207130063171917
 30
0.0
 40
0.1453928587180252
 50
0.1465081223122111
 51
11.5507532954925605
  0
LINE
  5
93D9
  8
0
 10
4115.8592951011905825
 20
138.8973358086936116
 30
0.0
 11
4115.8334436237673799
 21
138.8982532128507899
 31
0.0
  0
LINE
  5
93DA
  8
0
 10
4115.8653131313049016
 20
138.9833523907857966
 30
0.0
 11
4115.826506808241902
 21
138.9743703474958068
 31
0.0
  0
ARC
  5
93DB
  8
0
 10
4115.8286683882270154
 20
138.9632771358610057
 30
0.0
 40
0.0113018481821797
 50
101.0262661013454988
 51
178.5322433617996012
  0
ARC
  5
93DC
  8
0
 10
4116.0445176337852899
 20
138.9577464757325913
 30
0.0
 40
0.2272219375882955
 50
178.5322433617988054
 51
193.2763388698317044
  0
ARC
  5
93DD
  8
0
 10
4115.8336216004272501
 20
138.9090955629741018
 30
0.0
 40
0.0108438107691598
 50
198.9983932983126067
 51
269.0595769716176164
  0
ARC
  5
93DE
  8
0
 10
4115.7408235326456634
 20
138.9279848908253996
 30
0.0
 40
0.0816759056396375
 50
354.9904600972089952
 51
15.6072977539506201
  0
ARC
  5
93DF
  8
0
 10
4115.9005911393896895
 20
138.9428029306077974
 30
0.0
 40
0.0814183384416876
 50
174.9574911682450136
 51
195.6402666829029044
  0
ARC
  5
93E0
  8
0
 10
4115.8610564709160826
 20
138.9805294277817893
 30
0.0
 40
0.0187458803128552
 50
103.1230869542652044
 51
187.5515034861712138
  0
ARC
  5
93E1
  8
0
 10
4115.7795863904811995
 20
138.9461313299744063
 30
0.0
 40
0.0934584477731309
 50
326.0271924454223722
 51
34.2912074171083177
  0
ARC
  5
93E2
  8
0
 10
4115.8614710786523574
 20
138.9131752001806035
 30
0.0
 40
0.019759794835637
 50
231.5776471518695985
 51
257.1953129082550049
  0
ARC
  5
93E3
  8
0
 10
4115.2415230764872831
 20
138.9393498149433981
 30
0.0
 40
0.572608821712369
 50
353.5740796626400879
 51
6.0313912762322319
  0
LINE
  5
93E4
  8
0
 10
4115.8126080158772311
 20
138.8976023035959031
 30
0.0
 11
4115.7934782023157823
 21
138.8982703314709113
 31
0.0
  0
LINE
  5
93E5
  8
0
 10
4115.8126638812591409
 20
138.980325952215594
 30
0.0
 11
4115.7861661904680659
 21
138.9742084782378129
 31
0.0
  0
LINE
  5
93E6
  8
0
 10
4115.7784617390161657
 20
138.963506320058201
 30
0.0
 11
4115.7838732353338855
 21
138.9073057822110115
 31
0.0
  0
ARC
  5
93E7
  8
0
 10
4115.7884157010003037
 20
138.9644647775870112
 30
0.0
 40
0.01
 50
103.0000000737735064
 51
185.5000000211057909
  0
ARC
  5
93E8
  8
0
 10
4115.793827197317114
 20
138.9082642397397933
 30
0.0
 40
0.01
 50
185.5000000211900897
 51
267.9999998049852934
  0
LINE
  5
93E9
  8
0
 10
4115.811167487124294
 20
140.1974301880115945
 30
0.0
 11
4115.811167487124294
 21
140.1921955813112959
 31
0.0
  0
LINE
  5
93EA
  8
0
 10
4115.811167487124294
 20
140.0753078073867925
 30
0.0
 11
4115.811167487124294
 21
140.0747049547655934
 31
0.0
  0
LINE
  5
93EB
  8
0
 10
4115.811167487124294
 20
139.9981838542057062
 30
0.0
 11
4115.811167487124294
 21
139.9929492475054076
 31
0.0
  0
ARC
  5
93EC
  8
0
 10
4115.6523541178694359
 20
140.2270780701510944
 30
0.0
 40
0.181675174061193
 50
344.1718244471028925
 51
15.9374693128214098
  0
ARC
  5
93ED
  8
0
 10
4115.893069577420647
 20
140.2511921815352025
 30
0.0
 40
0.0708751581187545
 50
158.6772290293586991
 51
160.5527086139535129
  0
LINE
  5
93EE
  8
0
 10
4115.8276423846791658
 20
140.2748262888491979
 30
0.0
 11
4115.8141720727753636
 21
140.2744717468422948
 31
0.0
  0
LINE
  5
93EF
  8
0
 10
4115.8299106114727692
 20
140.1928881092634924
 30
0.0
 11
4115.806223875505566
 21
140.1986281885612016
 31
0.0
  0
ARC
  5
93F0
  8
0
 10
4115.8800126817550336
 20
140.1964959129869044
 30
0.0
 40
0.056172063638789
 50
182.7206600523381042
 51
199.737952542260814
  0
ARC
  5
93F1
  8
0
 10
4115.8085660185497545
 20
140.2086706247987991
 30
0.0
 40
0.0103119425729312
 50
178.8023803543316887
 51
256.8718868263470085
  0
ARC
  5
93F2
  8
0
 10
4116.1410839188247337
 20
140.2017191882289922
 30
0.0
 40
0.3429024963672965
 50
169.1791663943893127
 51
178.8023803543316887
  0
ARC
  5
93F3
  8
0
 10
4115.8144111839255856
 20
140.2641584593058894
 30
0.0
 40
0.010316059032829
 50
91.3281512628152541
 51
169.1791663944061099
  0
ARC
  5
93F4
  8
0
 10
4115.9700217367144433
 20
140.2201246213143122
 30
0.0
 40
0.1700732198491329
 50
169.2788884214720895
 51
179.0238501607254022
  0
ARC
  5
93F5
  8
0
 10
4115.657524877531614
 20
140.2521348912439976
 30
0.0
 40
0.1453928587180252
 50
348.4492467045066064
 51
359.8534918776878158
  0
LINE
  5
93F6
  8
0
 10
4115.8592951011905825
 20
140.1755120888676061
 30
0.0
 11
4115.8334436237673799
 21
140.1745946847103141
 31
0.0
  0
LINE
  5
93F7
  8
0
 10
4115.8653131313049016
 20
140.0894955067753926
 30
0.0
 11
4115.826506808241902
 21
140.0984775500654109
 31
0.0
  0
ARC
  5
93F8
  8
0
 10
4115.8286683882270154
 20
140.109570761700212
 30
0.0
 40
0.0113018481821797
 50
181.4677566382003135
 51
258.973733898654416
  0
ARC
  5
93F9
  8
0
 10
4116.0445176337852899
 20
140.1151014218285979
 30
0.0
 40
0.2272219375882955
 50
166.7236611301674998
 51
181.4677566382011094
  0
ARC
  5
93FA
  8
0
 10
4115.8336216004272501
 20
140.1637523345870022
 30
0.0
 40
0.0108438107691598
 50
90.9404230283823836
 51
161.0016067016873933
  0
ARC
  5
93FB
  8
0
 10
4115.7408235326456634
 20
140.1448630067357897
 30
0.0
 40
0.0816759056396375
 50
344.3927022460493959
 51
5.0095399027909719
  0
ARC
  5
93FC
  8
0
 10
4115.9005911393896895
 20
140.1300449669533918
 30
0.0
 40
0.0814183384416876
 50
164.3597333170970956
 51
185.0425088317549864
  0
ARC
  5
93FD
  8
0
 10
4115.8610564709160826
 20
140.0923184697793999
 30
0.0
 40
0.0187458803128552
 50
172.4484965138287009
 51
256.8769130457349092
  0
ARC
  5
93FE
  8
0
 10
4115.7795863904811995
 20
140.1267165675866977
 30
0.0
 40
0.0934584477731309
 50
325.7087925828917037
 51
33.9728075545775781
  0
ARC
  5
93FF
  8
0
 10
4115.8614710786523574
 20
140.1596726973805005
 30
0.0
 40
0.019759794835637
 50
102.8046870917449951
 51
128.4223528481304015
  0
ARC
  5
9400
  8
0
 10
4115.2415230764872831
 20
140.1334980826177912
 30
0.0
 40
0.572608821712369
 50
354.1673573746047055
 51
5.7823268191242443
  0
ARC
  5
9401
  8
0
 10
4115.8211674871254218
 20
140.1921955813112959
 30
0.0
 40
0.01
 50
180.0
 51
185.7823268191185946
  0
LINE
  5
9402
  8
0
 10
4115.8126080158772311
 20
140.1752455939652862
 30
0.0
 11
4115.7934782023157823
 21
140.1745775660903064
 31
0.0
  0
LINE
  5
9403
  8
0
 10
4115.8126638812591409
 20
140.0925219453455952
 30
0.0
 11
4115.7861661904680659
 21
140.0986394193234048
 31
0.0
  0
LINE
  5
9404
  8
0
 10
4115.7784617390161657
 20
140.1093415775029882
 30
0.0
 11
4115.7838732353338855
 21
140.1655421153502061
 31
0.0
  0
ARC
  5
9405
  8
0
 10
4115.7884157010003037
 20
140.1083831199740928
 30
0.0
 40
0.01
 50
174.4999999788940954
 51
256.9999999262265078
  0
ARC
  5
9406
  8
0
 10
4115.793827197317114
 20
140.1645836578213107
 30
0.0
 40
0.01
 50
92.0000001950146356
 51
174.4999999788097966
  0
ARC
  5
9407
  8
0
 10
4115.6523541178694359
 20
140.0278317363452061
 30
0.0
 40
0.181675174061193
 50
344.1718244471028925
 51
15.9374693128214098
  0
ARC
  5
9408
  8
0
 10
4115.893069577420647
 20
140.0519458477293142
 30
0.0
 40
0.0708751581187545
 50
158.6772290293586991
 51
160.5527086139535129
  0
LINE
  5
9409
  8
0
 10
4115.8276423846791658
 20
140.0755799550433096
 30
0.0
 11
4115.8141720727753636
 21
140.0752254130364065
 31
0.0
  0
LINE
  5
940A
  8
0
 10
4115.8299106114727692
 20
139.9936417754576041
 30
0.0
 11
4115.806223875505566
 21
139.9993818547553133
 31
0.0
  0
ARC
  5
940B
  8
0
 10
4115.8800126817550336
 20
139.9972495791809877
 30
0.0
 40
0.056172063638789
 50
182.7206600523381042
 51
199.737952542260814
  0
ARC
  5
940C
  8
0
 10
4115.8085660185497545
 20
140.0094242909929108
 30
0.0
 40
0.0103119425729312
 50
178.8023803543316887
 51
256.8718868263470085
  0
ARC
  5
940D
  8
0
 10
4116.1410839188247337
 20
140.0024728544231039
 30
0.0
 40
0.3429024963672965
 50
169.1791663943893127
 51
178.8023803543316887
  0
ARC
  5
940E
  8
0
 10
4115.8144111839255856
 20
140.0649121255000011
 30
0.0
 40
0.010316059032829
 50
91.3281512628152541
 51
169.1791663944061099
  0
ARC
  5
940F
  8
0
 10
4115.9700217367144433
 20
140.0208782875083955
 30
0.0
 40
0.1700732198491329
 50
169.2788884214720895
 51
179.0238501607254022
  0
ARC
  5
9410
  8
0
 10
4115.657524877531614
 20
140.0528885574381093
 30
0.0
 40
0.1453928587180252
 50
348.4492467045066064
 51
359.8534918776878158
  0
LINE
  5
9411
  8
0
 10
4115.8592951011905825
 20
139.9762657550616893
 30
0.0
 11
4115.8334436237673799
 21
139.9753483509043974
 31
0.0
  0
LINE
  5
9412
  8
0
 10
4115.8653131313049016
 20
139.8902491729695043
 30
0.0
 11
4115.826506808241902
 21
139.8992312162594942
 31
0.0
  0
ARC
  5
9413
  8
0
 10
4115.8286683882270154
 20
139.9103244278942952
 30
0.0
 40
0.0113018481821797
 50
181.4677566382003135
 51
258.973733898654416
  0
ARC
  5
9414
  8
0
 10
4116.0445176337852899
 20
139.9158550880227097
 30
0.0
 40
0.2272219375882955
 50
166.7236611301674998
 51
181.4677566382011094
  0
ARC
  5
9415
  8
0
 10
4115.8336216004272501
 20
139.9645060007811139
 30
0.0
 40
0.0108438107691598
 50
90.9404230283823836
 51
161.0016067016873933
  0
ARC
  5
9416
  8
0
 10
4115.7408235326456634
 20
139.9456166729299014
 30
0.0
 40
0.0816759056396375
 50
344.3927022460493959
 51
5.0095399027909719
  0
ARC
  5
9417
  8
0
 10
4115.9005911393896895
 20
139.9307986331475036
 30
0.0
 40
0.0814183384416876
 50
164.3597333170970956
 51
185.0425088317549864
  0
ARC
  5
9418
  8
0
 10
4115.8610564709160826
 20
139.8930721359735116
 30
0.0
 40
0.0187458803128552
 50
172.4484965138287009
 51
256.8769130457349092
  0
ARC
  5
9419
  8
0
 10
4115.7795863904811995
 20
139.9274702337808094
 30
0.0
 40
0.0934584477731309
 50
325.7087925828917037
 51
33.9728075545775781
  0
ARC
  5
941A
  8
0
 10
4115.8614710786523574
 20
139.9604263635746122
 30
0.0
 40
0.019759794835637
 50
102.8046870917449951
 51
128.4223528481304015
  0
ARC
  5
941B
  8
0
 10
4115.2415230764872831
 20
139.9342517488119029
 30
0.0
 40
0.572608821712369
 50
354.1483954751789156
 51
5.7823268191242443
  0
ARC
  5
941C
  8
0
 10
4115.8211674871254218
 20
139.9929492475054076
 30
0.0
 40
0.01
 50
180.0
 51
185.7823268191185946
  0
LINE
  5
941D
  8
0
 10
4115.8126080158772311
 20
139.9759992601593979
 30
0.0
 11
4115.7934782023157823
 21
139.9753312322843897
 31
0.0
  0
LINE
  5
941E
  8
0
 10
4115.8126638812591409
 20
139.8932756115397069
 30
0.0
 11
4115.7861661904680659
 21
139.8993930855174881
 31
0.0
  0
LINE
  5
941F
  8
0
 10
4115.7784617390161657
 20
139.9100952436970999
 30
0.0
 11
4115.7838732353338855
 21
139.9662957815442894
 31
0.0
  0
ARC
  5
9420
  8
0
 10
4115.7884157010003037
 20
139.9091367861682897
 30
0.0
 40
0.01
 50
174.4999999788940954
 51
256.9999999262265078
  0
ARC
  5
9421
  8
0
 10
4115.793827197317114
 20
139.965337324015394
 30
0.0
 40
0.01
 50
92.0000001950146356
 51
174.4999999788105924
  0
ARC
  5
9422
  8
0
 10
4115.6523541178694359
 20
139.8290061461804896
 30
0.0
 40
0.181675174061193
 50
344.1718244471028925
 51
15.9374693128214098
  0
ARC
  5
9423
  8
0
 10
4115.893069577420647
 20
139.8531202575645978
 30
0.0
 40
0.0708751581187545
 50
158.6772290293586991
 51
160.5527086139535129
  0
LINE
  5
9424
  8
0
 10
4115.8276423846791658
 20
139.8767543648785932
 30
0.0
 11
4115.8141720727753636
 21
139.8763998228718037
 31
0.0
  0
LINE
  5
9425
  8
0
 10
4115.8299106114727692
 20
139.7948161852928877
 30
0.0
 11
4115.806223875505566
 21
139.8005562645905968
 31
0.0
  0
ARC
  5
9426
  8
0
 10
4115.8800126817550336
 20
139.7984239890162996
 30
0.0
 40
0.056172063638789
 50
182.7206600523381042
 51
199.737952542260814
  0
ARC
  5
9427
  8
0
 10
4115.8085660185497545
 20
139.8105987008281943
 30
0.0
 40
0.0103119425729312
 50
178.8023803543316887
 51
256.8718868263470085
  0
ARC
  5
9428
  8
0
 10
4116.1410839188247337
 20
139.8036472642583874
 30
0.0
 40
0.3429024963672965
 50
169.1791663943893127
 51
178.8023803543316887
  0
ARC
  5
9429
  8
0
 10
4115.8144111839255856
 20
139.8660865353353131
 30
0.0
 40
0.010316059032829
 50
91.3281512628152541
 51
169.1791663944061099
  0
ARC
  5
942A
  8
0
 10
4115.9700217367144433
 20
139.8220526973437075
 30
0.0
 40
0.1700732198491329
 50
169.2788884214720895
 51
179.0238501607254022
  0
ARC
  5
942B
  8
0
 10
4115.657524877531614
 20
139.8540629672733928
 30
0.0
 40
0.1453928587180252
 50
348.4492467045066064
 51
359.8534918776878158
  0
LINE
  5
942C
  8
0
 10
4115.8592951011905825
 20
139.7774401648970866
 30
0.0
 11
4115.8334436237673799
 21
139.7765227607397946
 31
0.0
  0
LINE
  5
942D
  8
0
 10
4115.8653131313049016
 20
139.6914235828049016
 30
0.0
 11
4115.826506808241902
 21
139.7004056260948062
 31
0.0
  0
ARC
  5
942E
  8
0
 10
4115.8286683882270154
 20
139.7114988377296072
 30
0.0
 40
0.0113018481821797
 50
181.4677566382003135
 51
258.973733898654416
  0
ARC
  5
942F
  8
0
 10
4116.0445176337852899
 20
139.7170294978579932
 30
0.0
 40
0.2272219375882955
 50
166.7236611301674998
 51
181.4677566382011094
  0
ARC
  5
9430
  8
0
 10
4115.8336216004272501
 20
139.7656804106165112
 30
0.0
 40
0.0108438107691598
 50
90.9404230283823836
 51
161.0016067016873933
  0
ARC
  5
9431
  8
0
 10
4115.7408235326456634
 20
139.7467910827652133
 30
0.0
 40
0.0816759056396375
 50
344.3927022460493959
 51
5.0095399027909719
  0
ARC
  5
9432
  8
0
 10
4115.9005911393896895
 20
139.7319730429829008
 30
0.0
 40
0.0814183384416876
 50
164.3597333170970956
 51
185.0425088317549864
  0
ARC
  5
9433
  8
0
 10
4115.8610564709160826
 20
139.6942465458087952
 30
0.0
 40
0.0187458803128552
 50
172.4484965138287009
 51
256.8769130457349092
  0
ARC
  5
9434
  8
0
 10
4115.7795863904811995
 20
139.7286446436162066
 30
0.0
 40
0.0934584477731309
 50
325.7087925828917037
 51
33.9728075545775781
  0
ARC
  5
9435
  8
0
 10
4115.8614710786523574
 20
139.7616007734098957
 30
0.0
 40
0.019759794835637
 50
102.8046870917449951
 51
128.4223528481304015
  0
ARC
  5
9436
  8
0
 10
4115.191575111448401
 20
139.7370842803009907
 30
0.0
 40
0.6225611026234168
 50
354.3065935142242893
 51
5.74435485980616
  0
LINE
  5
9437
  8
0
 10
4115.8126080158772311
 20
139.7771736699947098
 30
0.0
 11
4115.7934782023157823
 21
139.7765056421197869
 31
0.0
  0
LINE
  5
9438
  8
0
 10
4115.8126638812591409
 20
139.6944500213749905
 30
0.0
 11
4115.7861661904680659
 21
139.7005674953528001
 31
0.0
  0
LINE
  5
9439
  8
0
 10
4115.7784617390161657
 20
139.7112696535324972
 30
0.0
 11
4115.7838732353338855
 21
139.7674701913796014
 31
0.0
  0
ARC
  5
943A
  8
0
 10
4115.7884157010003037
 20
139.7103111960036017
 30
0.0
 40
0.01
 50
174.4999999788940954
 51
256.9999999262265078
  0
ARC
  5
943B
  8
0
 10
4115.793827197317114
 20
139.7665117338507059
 30
0.0
 40
0.01
 50
92.0000001950146356
 51
174.4999999788105924
  0
ARC
  5
943C
  8
0
 10
4115.6523541178694359
 20
139.6284842430818003
 30
0.0
 40
0.181675174061193
 50
344.1718244471028925
 51
15.9374693128214098
  0
ARC
  5
943D
  8
0
 10
4115.893069577420647
 20
139.6525983544659084
 30
0.0
 40
0.0708751581187545
 50
158.6772290293586991
 51
160.5527086139535129
  0
LINE
  5
943E
  8
0
 10
4115.8276423846791658
 20
139.6762324617797901
 30
0.0
 11
4115.8141720727753636
 21
139.6758779197730007
 31
0.0
  0
LINE
  5
943F
  8
0
 10
4115.8307443073163086
 20
139.5940922501264083
 30
0.0
 11
4115.806223875505566
 21
139.6000343614919075
 31
0.0
  0
ARC
  5
9440
  8
0
 10
4115.8800126817550336
 20
139.5979020859176103
 30
0.0
 40
0.056172063638789
 50
182.1902681933405859
 51
199.737952542260814
  0
ARC
  5
9441
  8
0
 10
4115.8085660185497545
 20
139.610076797729505
 30
0.0
 40
0.0103119425729312
 50
178.8023803543316887
 51
256.8718868263470085
  0
ARC
  5
9442
  8
0
 10
4116.1410839188247337
 20
139.6031253611596128
 30
0.0
 40
0.3429024963672965
 50
169.1791663943893127
 51
178.8023803543316887
  0
ARC
  5
9443
  8
0
 10
4115.8144111839255856
 20
139.6655646322365953
 30
0.0
 40
0.010316059032829
 50
91.3281512628152541
 51
169.1791663944061099
  0
ARC
  5
9444
  8
0
 10
4115.9700217367144433
 20
139.6215307942449897
 30
0.0
 40
0.1700732198491329
 50
169.2788884214720895
 51
179.0238501607254022
  0
ARC
  5
9445
  8
0
 10
4115.657524877531614
 20
139.6535410641745898
 30
0.0
 40
0.1453928587180252
 50
348.4492467045066064
 51
359.8534918776878158
  0
LINE
  5
9446
  8
0
 10
4115.8592951011905825
 20
139.576918261798312
 30
0.0
 11
4115.8334436237673799
 21
139.5760008576409916
 31
0.0
  0
LINE
  5
9447
  8
0
 10
4115.8653131313049016
 20
139.4909016797060985
 30
0.0
 11
4115.826506808241902
 21
139.4998837229960884
 31
0.0
  0
ARC
  5
9448
  8
0
 10
4115.8286683882270154
 20
139.5109769346308894
 30
0.0
 40
0.0113018481821797
 50
181.4677566382003135
 51
258.973733898654416
  0
ARC
  5
9449
  8
0
 10
4116.0445176337852899
 20
139.5165075947593039
 30
0.0
 40
0.2272219375882955
 50
166.7236611301674998
 51
181.4677566382011094
  0
ARC
  5
944A
  8
0
 10
4115.8336216004272501
 20
139.5651585075177081
 30
0.0
 40
0.0108438107691598
 50
90.9404230283823836
 51
161.0016067016873933
  0
ARC
  5
944B
  8
0
 10
4115.7408235326456634
 20
139.5462691796664956
 30
0.0
 40
0.0816759056396375
 50
344.3927022460493959
 51
5.0095399027909719
  0
ARC
  5
944C
  8
0
 10
4115.9005911393896895
 20
139.5314511398840978
 30
0.0
 40
0.0814183384416876
 50
164.3597333170970956
 51
185.0425088317549864
  0
ARC
  5
944D
  8
0
 10
4115.8610564709160826
 20
139.4937246427101059
 30
0.0
 40
0.0187458803128552
 50
172.4484965138287009
 51
256.8769130457349092
  0
ARC
  5
944E
  8
0
 10
4115.7795863904811995
 20
139.5281227405174036
 30
0.0
 40
0.0934584477731309
 50
325.7087925828917037
 51
33.9728075545775781
  0
ARC
  5
944F
  8
0
 10
4115.8614710786523574
 20
139.5610788703112064
 30
0.0
 40
0.019759794835637
 50
102.8046870917449951
 51
128.4223528481304015
  0
ARC
  5
9450
  8
0
 10
4115.2415230764872831
 20
139.5349042555484971
 30
0.0
 40
0.572608821712369
 50
353.7718841356193025
 51
6.4259203373598686
  0
LINE
  5
9451
  8
0
 10
4115.8126080158772311
 20
139.5766517668959068
 30
0.0
 11
4115.7934782023157823
 21
139.5759837390210123
 31
0.0
  0
LINE
  5
9452
  8
0
 10
4115.8126638812591409
 20
139.4939281182763011
 30
0.0
 11
4115.7861661904680659
 21
139.5000455922541107
 31
0.0
  0
LINE
  5
9453
  8
0
 10
4115.7784617390161657
 20
139.5107477504336941
 30
0.0
 11
4115.7838732353338855
 21
139.566948288280912
 31
0.0
  0
ARC
  5
9454
  8
0
 10
4115.7884157010003037
 20
139.5097892929049124
 30
0.0
 40
0.01
 50
174.4999999788940954
 51
256.9999999262265078
  0
ARC
  5
9455
  8
0
 10
4115.793827197317114
 20
139.5659898307519882
 30
0.0
 40
0.01
 50
92.0000001950146356
 51
174.4999999788105924
  0
ARC
  5
9456
  8
0
 10
4115.6523541178694359
 20
139.4260577612865859
 30
0.0
 40
0.181675174061193
 50
344.1718244471028925
 51
15.9374693128214098
  0
ARC
  5
9457
  8
0
 10
4115.893069577420647
 20
139.450171872670694
 30
0.0
 40
0.0708751581187545
 50
158.6772290293586991
 51
160.5527086139535129
  0
LINE
  5
9458
  8
0
 10
4115.8276423846791658
 20
139.4738059799846894
 30
0.0
 11
4115.8141720727753636
 21
139.4734514379777863
 31
0.0
  0
LINE
  5
9459
  8
0
 10
4115.8307443073163086
 20
139.3916657683311939
 30
0.0
 11
4115.806223875505566
 21
139.3976078796966931
 31
0.0
  0
ARC
  5
945A
  8
0
 10
4115.8800126817550336
 20
139.3954756041223959
 30
0.0
 40
0.056172063638789
 50
182.1902681933405859
 51
199.737952542260814
  0
ARC
  5
945B
  8
0
 10
4115.8085660185497545
 20
139.4076503159342906
 30
0.0
 40
0.0103119425729312
 50
178.8023803543316887
 51
256.8718868263470085
  0
ARC
  5
945C
  8
0
 10
4116.1410839188247337
 20
139.4006988793645121
 30
0.0
 40
0.3429024963672965
 50
169.1791663943893127
 51
178.8023803543316887
  0
ARC
  5
945D
  8
0
 10
4115.8144111839255856
 20
139.4631381504414094
 30
0.0
 40
0.010316059032829
 50
91.3281512628152541
 51
169.1791663944061099
  0
ARC
  5
945E
  8
0
 10
4115.9700217367144433
 20
139.4191043124498037
 30
0.0
 40
0.1700732198491329
 50
169.2788884214720895
 51
179.0238501607254022
  0
ARC
  5
945F
  8
0
 10
4115.657524877531614
 20
139.4511145823794891
 30
0.0
 40
0.1453928587180252
 50
348.4492467045066064
 51
359.8534918776878158
  0
LINE
  5
9460
  8
0
 10
4115.8592951011905825
 20
139.3744917800030976
 30
0.0
 11
4115.8334436237673799
 21
139.3735743758458057
 31
0.0
  0
LINE
  5
9461
  8
0
 10
4115.8653131313049016
 20
139.2884751979109126
 30
0.0
 11
4115.826506808241902
 21
139.2974572412009024
 31
0.0
  0
ARC
  5
9462
  8
0
 10
4115.8286683882270154
 20
139.3085504528357035
 30
0.0
 40
0.0113018481821797
 50
181.4677566382003135
 51
258.973733898654416
  0
ARC
  5
9463
  8
0
 10
4116.0445176337852899
 20
139.3140811129640895
 30
0.0
 40
0.2272219375882955
 50
166.7236611301674998
 51
181.4677566382011094
  0
ARC
  5
9464
  8
0
 10
4115.8336216004272501
 20
139.3627320257226074
 30
0.0
 40
0.0108438107691598
 50
90.9404230283823836
 51
161.0016067016873933
  0
ARC
  5
9465
  8
0
 10
4115.7408235326456634
 20
139.3438426978713096
 30
0.0
 40
0.0816759056396375
 50
344.3927022460493959
 51
5.0095399027909719
  0
ARC
  5
9466
  8
0
 10
4115.9005911393896895
 20
139.3290246580889118
 30
0.0
 40
0.0814183384416876
 50
164.3597333170970956
 51
185.0425088317549864
  0
ARC
  5
9467
  8
0
 10
4115.8610564709160826
 20
139.2912981609148915
 30
0.0
 40
0.0187458803128552
 50
172.4484965138287009
 51
256.8769130457349092
  0
ARC
  5
9468
  8
0
 10
4115.7795863904811995
 20
139.3256962587223029
 30
0.0
 40
0.0934584477731309
 50
325.7087925828917037
 51
33.9728075545775781
  0
ARC
  5
9469
  8
0
 10
4115.8614710786523574
 20
139.3586523885161057
 30
0.0
 40
0.019759794835637
 50
102.8046870917449951
 51
128.4223528481304015
  0
ARC
  5
946A
  8
0
 10
4115.2415230764872831
 20
139.3324777737533111
 30
0.0
 40
0.572608821712369
 50
354.2644715733272278
 51
6.4259203373598686
  0
LINE
  5
946B
  8
0
 10
4115.8126080158772311
 20
139.3742252851008061
 30
0.0
 11
4115.7934782023157823
 21
139.3735572572257979
 31
0.0
  0
LINE
  5
946C
  8
0
 10
4115.8126638812591409
 20
139.2915016364810867
 30
0.0
 11
4115.7861661904680659
 21
139.2976191104588963
 31
0.0
  0
LINE
  5
946D
  8
0
 10
4115.7784617390161657
 20
139.3083212686385082
 30
0.0
 11
4115.7838732353338855
 21
139.3645218064856977
 31
0.0
  0
ARC
  5
946E
  8
0
 10
4115.7884157010003037
 20
139.307362811109698
 30
0.0
 40
0.01
 50
174.4999999788940954
 51
256.9999999262265078
  0
ARC
  5
946F
  8
0
 10
4115.793827197317114
 20
139.3635633489568022
 30
0.0
 40
0.01
 50
92.0000001950146356
 51
174.4999999788105924
  0
ARC
  5
9470
  8
0
 10
4115.6523541178694359
 20
139.2283480309959032
 30
0.0
 40
0.181675174061193
 50
344.1718244471028925
 51
15.9374693128214098
  0
ARC
  5
9471
  8
0
 10
4115.893069577420647
 20
139.2524621423800113
 30
0.0
 40
0.0708751581187545
 50
158.6772290293586991
 51
160.5527086139535129
  0
LINE
  5
9472
  8
0
 10
4115.8276423846791658
 20
139.276096249693893
 30
0.0
 11
4115.8141720727753636
 21
139.2757417076871036
 31
0.0
  0
LINE
  5
9473
  8
0
 10
4115.8307443073163086
 20
139.1939560380405112
 30
0.0
 11
4115.806223875505566
 21
139.1998981494060104
 31
0.0
  0
ARC
  5
9474
  8
0
 10
4115.8800126817550336
 20
139.1977658738317132
 30
0.0
 40
0.056172063638789
 50
182.1902681933333099
 51
199.737952542260814
  0
ARC
  5
9475
  8
0
 10
4115.8085660185497545
 20
139.2099405856436078
 30
0.0
 40
0.0103119425729312
 50
178.8023803543316887
 51
256.8718868263470085
  0
ARC
  5
9476
  8
0
 10
4116.1410839188247337
 20
139.2029891490738009
 30
0.0
 40
0.3429024963672965
 50
169.1791663943893127
 51
178.8023803543316887
  0
ARC
  5
9477
  8
0
 10
4115.8144111839255856
 20
139.2654284201506982
 30
0.0
 40
0.010316059032829
 50
91.3281512628152541
 51
169.1791663944061099
  0
ARC
  5
9478
  8
0
 10
4115.9700217367144433
 20
139.2213945821590926
 30
0.0
 40
0.1700732198491329
 50
169.2788884214720895
 51
179.0238501607254022
  0
ARC
  5
9479
  8
0
 10
4115.657524877531614
 20
139.2534048520888064
 30
0.0
 40
0.1453928587180252
 50
348.4492467045066064
 51
359.8534918776878158
  0
LINE
  5
947A
  8
0
 10
4115.8592951011905825
 20
139.1767820497123864
 30
0.0
 11
4115.8334436237673799
 21
139.1758646455550945
 31
0.0
  0
LINE
  5
947B
  8
0
 10
4115.8653131313049016
 20
139.0907654676202014
 30
0.0
 11
4115.826506808241902
 21
139.0997475109101913
 31
0.0
  0
ARC
  5
947C
  8
0
 10
4115.8286683882270154
 20
139.1108407225449923
 30
0.0
 40
0.0113018481821797
 50
181.4677566382003135
 51
258.973733898654416
  0
ARC
  5
947D
  8
0
 10
4116.0445176337852899
 20
139.1163713826734067
 30
0.0
 40
0.2272219375882955
 50
166.7236611301674998
 51
181.4677566382011094
  0
ARC
  5
947E
  8
0
 10
4115.8336216004272501
 20
139.165022295431811
 30
0.0
 40
0.0108438107691598
 50
90.9404230283823836
 51
161.0016067016873933
  0
ARC
  5
947F
  8
0
 10
4115.7408235326456634
 20
139.1461329675805985
 30
0.0
 40
0.0816759056396375
 50
344.3927022460493959
 51
5.0095399027909719
  0
ARC
  5
9480
  8
0
 10
4115.9005911393896895
 20
139.1313149277982006
 30
0.0
 40
0.0814183384416876
 50
164.3597333170970956
 51
185.0425088317549864
  0
ARC
  5
9481
  8
0
 10
4115.8610564709160826
 20
139.0935884306242087
 30
0.0
 40
0.0187458803128552
 50
172.4484965138287009
 51
256.8769130457349092
  0
ARC
  5
9482
  8
0
 10
4115.7795863904811995
 20
139.1279865284315065
 30
0.0
 40
0.0934584477731309
 50
325.7087925828917037
 51
33.9728075545775781
  0
ARC
  5
9483
  8
0
 10
4115.8614710786523574
 20
139.1609426582253093
 30
0.0
 40
0.019759794835637
 50
102.8046870917449951
 51
128.4223528481304015
  0
ARC
  5
9484
  8
0
 10
4115.2415230764872831
 20
139.1347680434626
 30
0.0
 40
0.572608821712369
 50
354.1058265461892915
 51
6.4259203373598686
  0
LINE
  5
9485
  8
0
 10
4115.8126080158772311
 20
139.1765155548100097
 30
0.0
 11
4115.7934782023157823
 21
139.1758475269350868
 31
0.0
  0
LINE
  5
9486
  8
0
 10
4115.8126638812591409
 20
139.093791906190404
 30
0.0
 11
4115.7861661904680659
 21
139.0999093801682136
 31
0.0
  0
LINE
  5
9487
  8
0
 10
4115.7784617390161657
 20
139.110611538347797
 30
0.0
 11
4115.7838732353338855
 21
139.1668120761949865
 31
0.0
  0
ARC
  5
9488
  8
0
 10
4115.7884157010003037
 20
139.1096530808189868
 30
0.0
 40
0.01
 50
174.4999999788940954
 51
256.9999999262265078
  0
ARC
  5
9489
  8
0
 10
4115.793827197317114
 20
139.1658536186660911
 30
0.0
 40
0.01
 50
92.0000001950146356
 51
174.4999999788105924
  0
ARC
  5
948A
  8
0
 10
4115.6523541178694359
 20
139.0291138655265968
 30
0.0
 40
0.181675174061193
 50
344.1718244471028925
 51
15.9374693128214098
  0
ARC
  5
948B
  8
0
 10
4115.893069577420647
 20
139.0532279769107049
 30
0.0
 40
0.0708751581187545
 50
158.6772290293586991
 51
160.5527086139535129
  0
LINE
  5
948C
  8
0
 10
4115.8276423846791658
 20
139.076862084224814
 30
0.0
 11
4115.8141720727753636
 21
139.0765075422179109
 31
0.0
  0
LINE
  5
948D
  8
0
 10
4115.8307443073163086
 20
138.9947218725712901
 30
0.0
 11
4115.806223875505566
 21
139.0006639839367892
 31
0.0
  0
ARC
  5
948E
  8
0
 10
4115.8800126817550336
 20
138.9985317083624921
 30
0.0
 40
0.056172063638789
 50
182.1902681933333099
 51
199.737952542260814
  0
ARC
  5
948F
  8
0
 10
4115.8085660185497545
 20
139.0107064201743867
 30
0.0
 40
0.0103119425729312
 50
178.8023803543316887
 51
256.8718868263470085
  0
ARC
  5
9490
  8
0
 10
4116.1410839188247337
 20
139.0037549836044946
 30
0.0
 40
0.3429024963672965
 50
169.1791663943893127
 51
178.8023803543316887
  0
ARC
  5
9491
  8
0
 10
4115.8144111839255856
 20
139.0661942546815055
 30
0.0
 40
0.010316059032829
 50
91.3281512628152541
 51
169.1791663944061099
  0
ARC
  5
9492
  8
0
 10
4115.9700217367144433
 20
139.0221604166897862
 30
0.0
 40
0.1700732198491329
 50
169.2788884214720895
 51
179.0238501607254022
  0
ARC
  5
9493
  8
0
 10
4115.657524877531614
 20
139.0541706866195
 30
0.0
 40
0.1453928587180252
 50
348.4492467045066064
 51
359.8534918776878158
  0
LINE
  5
9494
  8
0
 10
4115.811167487124294
 20
140.2739512885715101
 30
0.0
 11
4115.811167487124294
 21
140.7674418464683868
 31
0.0
  0
LINE
  5
9496
  8
0
 10
4116.2811674871745709
 20
121.8026189783947046
 30
0.0
 11
4116.2811674871745709
 21
121.9301883816419974
 31
0.0
  0
LINE
  5
9563
  8
0
 10
4116.6703447766485624
 20
131.4942304795760037
 30
0.0
 11
4115.8919901976978508
 21
131.4942304795760037
 31
0.0
  0
LINE
  5
9564
  8
0
 10
4115.8933722115225464
 20
131.5580359765108085
 30
0.0
 11
4116.6689627628247763
 21
131.5580359765108085
 31
0.0
  0
ENDSEC
  0
EOF
