  0
SECTION
  2
HEADER
  9
$ACADVER
  1
AC1009
  9
$INSBASE
 10
4122.9316389572177286
 20
122.7620480000519052
 30
0.0
  9
$EXTMIN
 10
4122.2749334815971451
 20
122.1818021511113983
 30
-0.0000000000112498
  9
$EXTMAX
 10
4129.5215827484653346
 20
123.3107108301078938
 30
0.0000000000002956
  9
$LIMMIN
 10
0.0
 20
0.0
  9
$LIMMAX
 10
11.6929133858000007
 20
8.2677165353999982
  9
$ORTHOMODE
 70
     0
  9
$REGENMODE
 70
     1
  9
$FILLMODE
 70
     1
  9
$QTEXTMODE
 70
     0
  9
$MIRRTEXT
 70
     0
  9
$DRAGMODE
 70
     2
  9
$LTSCALE
 40
0.6431102362
  9
$OSMODE
 70
  4095
  9
$ATTMODE
 70
     1
  9
$TEXTSIZE
 40
0.2
  9
$TRACEWID
 40
0.05
  9
$TEXTSTYLE
  7
STANDARD
  9
$CLAYER
  8
0
  9
$CELTYPE
  6
BYLAYER
  9
$CECOLOR
 62
   256
  9
$DIMSCALE
 40
1.0
  9
$DIMASZ
 40
0.1875
  9
$DIMEXO
 40
0.0625
  9
$DIMDLI
 40
0.4443307087
  9
$DIMRND
 40
0.0
  9
$DIMDLE
 40
0.0
  9
$DIMEXE
 40
0.125
  9
$DIMTP
 40
0.01
  9
$DIMTM
 40
0.01
  9
$DIMTXT
 40
2.0
  9
$DIMCEN
 40
0.1052362205
  9
$DIMTSZ
 40
0.0
  9
$DIMTOL
 70
     1
  9
$DIMLIM
 70
     0
  9
$DIMTIH
 70
     1
  9
$DIMTOH
 70
     1
  9
$DIMSE1
 70
     0
  9
$DIMSE2
 70
     0
  9
$DIMTAD
 70
     0
  9
$DIMZIN
 70
     0
  9
$DIMBLK
  1

  9
$DIMASO
 70
     1
  9
$DIMSHO
 70
     1
  9
$DIMPOST
  1
\X
  9
$DIMAPOST
  1

  9
$DIMALT
 70
     1
  9
$DIMALTD
 70
     2
  9
$DIMALTF
 40
25.3999999999999986
  9
$DIMLFAC
 40
1.0
  9
$DIMTOFL
 70
     0
  9
$DIMTVP
 40
0.0
  9
$DIMTIX
 70
     0
  9
$DIMSOXD
 70
     0
  9
$DIMSAH
 70
     0
  9
$DIMBLK1
  1

  9
$DIMBLK2
  1

  9
$DIMSTYLE
  2
STANDARD
  9
$DIMCLRD
 70
     0
  9
$DIMCLRE
 70
     0
  9
$DIMCLRT
 70
     0
  9
$DIMTFAC
 40
1.0
  9
$DIMGAP
 40
0.09
  9
$LUNITS
 70
     2
  9
$LUPREC
 70
     4
  9
$SKETCHINC
 40
0.1
  9
$FILLETRAD
 40
0.0
  9
$AUNITS
 70
     0
  9
$AUPREC
 70
     0
  9
$MENU
  1
.
  9
$ELEVATION
 40
0.0
  9
$PELEVATION
 40
0.0
  9
$THICKNESS
 40
0.0
  9
$LIMCHECK
 70
     0
  9
$BLIPMODE
 70
     0
  9
$CHAMFERA
 40
0.0
  9
$CHAMFERB
 40
0.0
  9
$SKPOLY
 70
     0
  9
$TDCREATE
 40
2458060.468368056230247
  9
$TDUPDATE
 40
2460098.4561226852238178
  9
$TDINDWG
 40
0.3397871528
  9
$TDUSRTIMER
 40
0.3397871528
  9
$USRTIMER
 70
     1
  9
$ANGBASE
 50
0.0
  9
$ANGDIR
 70
     0
  9
$PDMODE
 70
     0
  9
$PDSIZE
 40
0.3125
  9
$PLINEWID
 40
0.0
  9
$COORDS
 70
     1
  9
$SPLFRAME
 70
     0
  9
$SPLINETYPE
 70
     6
  9
$SPLINESEGS
 70
     8
  9
$ATTDIA
 70
     1
  9
$ATTREQ
 70
     1
  9
$HANDLING
 70
     1
  9
$HANDSEED
  5
980D
  9
$SURFTAB1
 70
     6
  9
$SURFTAB2
 70
     6
  9
$SURFTYPE
 70
     6
  9
$SURFU
 70
     6
  9
$SURFV
 70
     6
  9
$UCSNAME
  2

  9
$UCSORG
 10
0.0
 20
0.0
 30
0.0
  9
$UCSXDIR
 10
1.0
 20
0.0
 30
0.0
  9
$UCSYDIR
 10
0.0
 20
1.0
 30
0.0
  9
$PUCSNAME
  2

  9
$PUCSORG
 10
0.0
 20
0.0
 30
0.0
  9
$PUCSXDIR
 10
1.0
 20
0.0
 30
0.0
  9
$PUCSYDIR
 10
0.0
 20
1.0
 30
0.0
  9
$USERI1
 70
     0
  9
$USERI2
 70
     0
  9
$USERI3
 70
     0
  9
$USERI4
 70
     0
  9
$USERI5
 70
     0
  9
$USERR1
 40
0.0
  9
$USERR2
 40
0.0
  9
$USERR3
 40
0.0
  9
$USERR4
 40
0.0
  9
$USERR5
 40
0.0
  9
$WORLDVIEW
 70
     1
  9
$SHADEDGE
 70
     3
  9
$SHADEDIF
 70
    70
  9
$TILEMODE
 70
     1
  9
$MAXACTVP
 70
    64
  9
$PLIMCHECK
 70
     0
  9
$PEXTMIN
 10
1.0000000000000000E+20
 20
1.0000000000000000E+20
 30
1.0000000000000000E+20
  9
$PEXTMAX
 10
-1.0000000000000000E+20
 20
-1.0000000000000000E+20
 30
-1.0000000000000000E+20
  9
$PLIMMIN
 10
0.0
 20
0.0
  9
$PLIMMAX
 10
12.0
 20
9.0
  9
$UNITMODE
 70
     0
  9
$VISRETAIN
 70
     1
  9
$PLINEGEN
 70
     0
  9
$PSLTSCALE
 70
     1
  0
ENDSEC
  0
SECTION
  2
TABLES
  0
TABLE
  2
VPORT
 70
     1
  0
VPORT
  2
*ACTIVE
 70
     0
 10
0.0
 20
0.0
 11
1.0
 21
1.0
 12
97.1113928806571636
 22
-13.1281026402496899
 13
0.0
 23
0.0
 14
1.0
 24
1.0
 15
0.0
 25
0.0
 16
0.0
 26
0.0
 36
47.0568789906323275
 17
4028.786865234375
 27
135.8743591308592897
 37
0.0
 40
4.5093772954970399
 41
1.614155251141552
 42
50.0
 43
0.0
 44
0.0
 50
0.0
 51
0.0
 71
     0
 72
   100
 73
     1
 74
     1
 75
     0
 76
     0
 77
     0
 78
     0
  0
ENDTAB
  0
TABLE
  2
LTYPE
 70
     2
  0
LTYPE
  2
CONTINUOUS
 70
     0
  3
Solid line
 72
    65
 73
     0
 40
0.0
  0
LTYPE
  2
PHANTOM2
 70
     0
  3
___ _ _ ___ _ _ ___ _ _ ___ _ _
 72
    65
 73
     6
 40
1.25
 49
0.625
 49
-0.125
 49
0.125
 49
-0.125
 49
0.125
 49
-0.125
  0
ENDTAB
  0
TABLE
  2
LAYER
 70
     2
  0
LAYER
  2
0
 70
     0
 62
   255
  6
CONTINUOUS
  0
LAYER
  2
DEFPOINTS
 70
     0
 62
     7
  6
CONTINUOUS
  0
ENDTAB
  0
TABLE
  2
STYLE
 70
     1
  0
STYLE
  2
STANDARD
 70
     0
 40
0.0
 41
0.8
 50
0.0
 71
     0
 42
0.2
  3
txt
  4

  0
ENDTAB
  0
TABLE
  2
VIEW
 70
     0
  0
ENDTAB
  0
TABLE
  2
UCS
 70
     0
  0
ENDTAB
  0
TABLE
  2
APPID
 70
    10
  0
APPID
  2
ACAD
 70
     0
  0
APPID
  2
ACAD_MLEADERVER
 70
     0
  0
APPID
  2
ACAD_EXEMPT_FROM_CAD_STANDARDS
 70
     0
  0
APPID
  2
ACAD_NAV_VCDISPLAY
 70
     0
  0
APPID
  2
ACAECLAYERSTANDARD
 70
     0
  0
APPID
  2
ACCMTRANSPARENCY
 70
     0
  0
APPID
  2
ACAD_DSTYLE_DIMJAG
 70
     0
  0
APPID
  2
ACAD_DSTYLE_DIMTALN
 70
     0
  0
APPID
  2
ACDBATTR
 70
     0
  0
APPID
  2
ACADANNOTATIVE
 70
     0
  0
ENDTAB
  0
TABLE
  2
DIMSTYLE
 70
     1
  0
DIMSTYLE
  2
STANDARD
 70
     0
  3

  4

  5

  6

  7

 40
1.0
 41
0.1875
 42
0.0625
 43
0.38
 44
0.125
 45
0.0
 46
0.0
 47
0.01
 48
0.01
140
0.15625
141
0.09
142
0.0
143
25.3999999999999986
144
1.0
145
0.0
146
1.0
147
0.09
 71
     1
 72
     0
 73
     1
 74
     1
 75
     0
 76
     0
 77
     0
 78
     4
170
     0
171
     2
172
     0
173
     0
174
     0
175
     0
176
     0
177
     0
178
     0
  0
ENDTAB
  0
ENDSEC
  0
SECTION
  2
BLOCKS
  0
BLOCK
  8
0
  2
$MODEL_SPACE
 70
     0
 10
0.0
 20
0.0
 30
0.0
  3
$MODEL_SPACE
  1

  0
ENDBLK
  5
21
  8
0
  0
BLOCK
 67
     1
  8
0
  2
$PAPER_SPACE
 70
     0
 10
0.0
 20
0.0
 30
0.0
  3
$PAPER_SPACE
  1

  0
ENDBLK
  5
1D
 67
     1
  8
0
  0
ENDSEC
  0
SECTION
  2
ENTITIES
  0
ATTDEF
  5
3930
  8
DEFPOINTS
 10
4122.9270955109022907
 20
122.7592292222042971
 30
0.0
 40
0.001
  1
P24843-00
  3

  2
MODELNUMBER
 70
     0
1001
ACDBATTR
1070
     0
1070
     1
  0
ATTDEF
  5
3931
  8
DEFPOINTS
 10
4122.9270955109022907
 20
122.7575625555376035
 30
0.0
 40
0.001
  1
ONE
  3

  2
TRADENAME
 70
     0
1001
ACDBATTR
1070
     0
1070
     1
  0
ATTDEF
  5
3932
  8
DEFPOINTS
 10
4122.9270955109022907
 20
122.7558958888708958
 30
0.0
 40
0.001
  1
HANDSHOWER
  3

  2
PRODUCT
 70
     0
1001
ACDBATTR
1070
     0
1070
     1
  0
ARC
  5
9571
  8
0
 10
4122.931708313190029
 20
123.1103287814992058
 30
0.0
 40
0.8902807841285875
 50
264.7477029110805233
 51
269.9955364593354261
  0
ARC
  5
9572
  8
0
 10
4122.9295323632677537
 20
123.0866585043885948
 30
0.0
 40
0.8665107025856549
 50
251.7933473388117989
 51
264.7477029110805233
  0
ARC
  5
9573
  8
0
 10
4122.8788867546163601
 20
122.9326792693190953
 30
0.0
 40
0.7044163396108276
 50
239.5353521700477017
 51
251.7933473388117989
  0
ARC
  5
9574
  8
0
 10
4122.8409892982463134
 20
122.8682512852299027
 30
0.0
 40
0.6296688825757555
 50
232.3689264104114045
 51
239.5353521700477017
  0
ARC
  5
9575
  8
0
 10
4122.6079381947083675
 20
122.5659675313010979
 30
0.0
 40
0.2479775350849805
 50
187.4362773156393871
 51
232.3689264104118877
  0
ARC
  5
9576
  8
0
 10
4123.4477579905760649
 20
122.6477995308075037
 30
0.0
 40
1.091672589606131
 50
180.739954403430886
 51
185.9902502302510925
  0
ARC
  5
9577
  8
0
 10
4123.051719862293794
 20
122.6228810597706058
 30
0.0
 40
0.695627582253839
 50
156.1548328032519066
 51
179.1087433052369136
  0
ARC
  5
9578
  8
0
 10
4123.1874909266116447
 20
122.5625212660283978
 30
0.0
 40
0.8442108999480273
 50
145.1597651855236109
 51
156.1331234016346912
  0
ARC
  5
9579
  8
0
 10
4123.041940721201172
 20
122.6638329502351041
 30
0.0
 40
0.6668724674184576
 50
130.9401035557029047
 51
145.1597651855236109
  0
ARC
  5
957A
  8
0
 10
4123.0418773260807939
 20
122.6639060321375041
 30
0.0
 40
0.6667757208132024
 50
119.1045133492795998
 51
130.9401035557023931
  0
ARC
  5
957B
  8
0
 10
4122.9421042716458032
 20
122.8431296068731058
 30
0.0
 40
0.4616519724749669
 50
104.2027992920307042
 51
119.1045133492795998
  0
ARC
  5
957C
  8
0
 10
4122.940506971927789
 20
122.8494407772978008
 30
0.0
 40
0.455141808228055
 50
95.4196022835433837
 51
104.2027992920307042
  0
ARC
  5
957D
  8
0
 10
4122.9415570107512394
 20
122.6896604349329039
 30
0.0
 40
0.6144676134439547
 50
90.9248451546583851
 51
94.1097994341729276
  0
ARC
  5
957E
  8
0
 10
4278.4436845070131312
 20
135.6861311164099106
 30
0.0
 40
156.2410902833306068
 50
184.939697125722887
 51
184.9440990314909072
  0
ARC
  5
957F
  8
0
 10
4122.7946953435930482
 20
122.2216183022814988
 30
0.0
 40
0.010808542189428
 50
184.9440990314909072
 51
255.245498416676611
  0
ARC
  5
9580
  8
0
 10
4122.827299452121224
 20
122.3454178752494954
 30
0.0
 40
0.1388294864133065
 50
255.245498416676611
 51
280.6137501895826745
  0
ARC
  5
9581
  8
0
 10
4122.8485270362143638
 20
122.2201012060427985
 30
0.0
 40
0.011954424444254
 50
291.3029626615643792
 51
346.08216814842649
  0
ARC
  5
9582
  8
0
 10
4123.071090179402745
 20
122.1820854676700066
 30
0.0
 40
0.2138663842168563
 50
169.0120754284249074
 51
170.5428593413811882
  0
ARC
  5
9583
  8
0
 10
4122.8248206128419042
 20
122.2804390929023981
 30
0.0
 40
0.0716393307340544
 50
255.6916621304264936
 51
279.0765842809279889
  0
ARC
  5
9584
  8
0
 10
4122.8185073244367231
 20
122.1422546741308963
 30
0.0
 40
0.069704512907222
 50
75.3623301134844326
 51
99.4059162978484636
  0
LINE
  5
9585
  8
0
 10
4122.6737408679646251
 20
122.2587626723989018
 30
0.0
 11
4122.6744009022640967
 21
122.2425783996086039
 31
0.0
  0
LINE
  5
9586
  8
0
 10
4122.750401478790991
 20
122.2348240996281987
 30
0.0
 11
4122.7512732960376525
 21
122.238681793242506
 31
0.0
  0
ARC
  5
9587
  8
0
 10
4122.685805492160398
 20
122.2426278592668041
 30
0.0
 40
0.0114046971474995
 50
180.2484799478469029
 51
256.3434937365835253
  0
ARC
  5
9588
  8
0
 10
4122.7283686949231196
 20
122.4178069500492967
 30
0.0
 40
0.191680430613779
 50
256.3434937365835253
 51
273.8071255301509836
  0
ARC
  5
9589
  8
0
 10
4122.7404219413501778
 20
122.2366772582192027
 30
0.0
 40
0.0101501410974185
 50
273.8071255301509836
 51
349.4802372987016952
  0
ARC
  5
958A
  8
0
 10
4122.718603642684684
 20
122.306246043680602
 30
0.0
 40
0.0782411213775303
 50
253.9925501234486944
 51
275.5734035492063185
  0
ARC
  5
958B
  8
0
 10
4122.7047643377636632
 20
122.1546766227000944
 30
0.0
 40
0.0767529529993152
 50
73.7807496222757919
 51
95.7852040503635322
  0
ARC
  5
958C
  8
0
 10
4122.9315696012463377
 20
123.1103287814992058
 30
0.0
 40
0.8902807841285875
 50
270.0044635406645739
 51
275.2522970889194767
  0
ARC
  5
958D
  8
0
 10
4122.9337455511677035
 20
123.0866585043885948
 30
0.0
 40
0.8665107025856549
 50
275.2522970889194767
 51
288.2066526611881727
  0
ARC
  5
958E
  8
0
 10
4122.9843911598190971
 20
122.9326792693190953
 30
0.0
 40
0.7044163396108276
 50
288.2066526611881727
 51
300.4646478299522983
  0
ARC
  5
958F
  8
0
 10
4123.0222886161900533
 20
122.8682512852299027
 30
0.0
 40
0.6296688825757555
 50
300.4646478299522983
 51
307.6310735895887092
  0
ARC
  5
9590
  8
0
 10
4123.2553397197279992
 20
122.5659675313010979
 30
0.0
 40
0.2479775350849805
 50
307.6310735895880839
 51
352.5637226843605276
  0
ARC
  5
9591
  8
0
 10
4122.4155199238593923
 20
122.6477995308075037
 30
0.0
 40
1.091672589606131
 50
354.0097497697487938
 51
359.260045596569114
  0
ARC
  5
9592
  8
0
 10
4122.8115580521407537
 20
122.6228810597706058
 30
0.0
 40
0.695627582253839
 50
0.8912566947631246
 51
23.8451671967481289
  0
ARC
  5
9593
  8
0
 10
4122.6757869878219935
 20
122.5625212660283978
 30
0.0
 40
0.8442108999480273
 50
23.8668765983652484
 51
34.840234814476382
  0
ARC
  5
9594
  8
0
 10
4122.8213371932342852
 20
122.6638329502351041
 30
0.0
 40
0.6668724674184576
 50
34.840234814476382
 51
49.0598964442970384
  0
ARC
  5
9595
  8
0
 10
4122.8214005883528444
 20
122.6639060321375041
 30
0.0
 40
0.6667757208132024
 50
49.0598964442975571
 51
60.8954866507204002
  0
ARC
  5
9596
  8
0
 10
4122.921173642787835
 20
122.8431296068731058
 30
0.0
 40
0.4616519724749669
 50
60.8954866507204002
 51
75.7972007079692531
  0
ARC
  5
9597
  8
0
 10
4122.9227709425076682
 20
122.8494407772978008
 30
0.0
 40
0.455141808228055
 50
75.7972007079692531
 51
84.5803977164566163
  0
ARC
  5
9598
  8
0
 10
4122.9217209036842178
 20
122.6896604349329039
 30
0.0
 40
0.6144676134439547
 50
85.8902005658270724
 51
89.0751548453416291
  0
ARC
  5
9599
  8
0
 10
3967.4195934074218712
 20
135.6861311164099106
 30
0.0
 40
156.2410902833306068
 50
355.0559009685089791
 51
355.0603028742763172
  0
ARC
  5
959A
  8
0
 10
4123.0685825708433185
 20
122.2216183022814988
 30
0.0
 40
0.010808542189428
 50
284.7545015833234174
 51
355.0559009685089791
  0
ARC
  5
959B
  8
0
 10
4123.0359784623142332
 20
122.3454178752494954
 30
0.0
 40
0.1388294864133065
 50
259.3862498104173255
 51
284.7545015833234174
  0
ARC
  5
959C
  8
0
 10
4123.0147508782210934
 20
122.2201012060427985
 30
0.0
 40
0.011954424444254
 50
193.91783185157351
 51
248.6970373384355923
  0
ARC
  5
959D
  8
0
 10
4122.7921877350318027
 20
122.1820854676700066
 30
0.0
 40
0.2138663842168563
 50
9.4571406586188065
 51
10.9879245715750908
  0
ARC
  5
959E
  8
0
 10
4123.038457301593553
 20
122.2804390929023981
 30
0.0
 40
0.0716393307340544
 50
260.9234157190718975
 51
284.3083378695735064
  0
ARC
  5
959F
  8
0
 10
4123.0447705899987341
 20
122.1422546741308963
 30
0.0
 40
0.069704512907222
 50
80.5940837021515648
 51
104.6376698865155959
  0
LINE
  5
95A0
  8
0
 10
4123.1895370464717416
 20
122.2587626723989018
 30
0.0
 11
4123.1888770121713605
 21
122.2425783996086039
 31
0.0
  0
LINE
  5
95A1
  8
0
 10
4123.1128764356435568
 20
122.2348240996281987
 30
0.0
 11
4123.1120046183968952
 21
122.238681793242506
 31
0.0
  0
ARC
  5
95A2
  8
0
 10
4123.1774724222750592
 20
122.2426278592668041
 30
0.0
 40
0.0114046971474995
 50
283.6565062634164747
 51
359.7515200521522729
  0
ARC
  5
95A3
  8
0
 10
4123.1349092195123376
 20
122.4178069500492967
 30
0.0
 40
0.191680430613779
 50
266.1928744698490164
 51
283.6565062634164747
  0
ARC
  5
95A4
  8
0
 10
4123.1228559730861889
 20
122.2366772582192027
 30
0.0
 40
0.0101501410974185
 50
190.5197627012983048
 51
266.1928744698489027
  0
ARC
  5
95A5
  8
0
 10
4123.1446742717507732
 20
122.306246043680602
 30
0.0
 40
0.0782411213775303
 50
264.4265964507936815
 51
286.0074498765512203
  0
ARC
  5
95A6
  8
0
 10
4123.158513576671794
 20
122.1546766227000944
 30
0.0
 40
0.0767529529993152
 50
84.2147959496364678
 51
106.2192503777241939
  0
LINE
  5
95A7
  8
0
 10
4122.8905418101512623
 20
122.2210002743567969
 30
0.0
 11
4122.8934979866180583
 21
122.1986563605382941
 31
0.0
  0
ARC
  5
95A8
  8
0
 10
4122.9043926879858191
 20
122.2003642004275008
 30
0.0
 40
0.011027748409873
 50
188.90911209902481
 51
253.8815989693277118
  0
ARC
  5
95A9
  8
0
 10
4122.9279740103784206
 20
122.3292939824641934
 30
0.0
 40
0.142045056591204
 50
259.1892034317741036
 51
271.4784695834986792
  0
LINE
  5
95AA
  8
0
 10
4122.9727361042841949
 20
122.2210002743567969
 30
0.0
 11
4122.9697799278173989
 21
122.1986563605382941
 31
0.0
  0
ARC
  5
95AB
  8
0
 10
4122.9588852264496381
 20
122.2003642004275008
 30
0.0
 40
0.011027748409873
 50
286.118401030672203
 51
351.0908879009753036
  0
ARC
  5
95AC
  8
0
 10
4122.9353039040561271
 20
122.3292939824641934
 30
0.0
 40
0.142045056591204
 50
268.5215304165013208
 51
280.8107965682260101
  0
ARC
  5
95AD
  8
0
 10
4122.9316730542423102
 20
122.264304869826006
 30
0.0
 40
0.0756530686411081
 50
258.9496729638108832
 51
281.0240822389667983
  0
ARC
  5
95AE
  8
0
 10
4122.9316389632167557
 20
122.1154546615310039
 30
0.0
 40
0.0759895297769265
 50
78.9991521704255746
 51
100.9746030322832979
  0
LINE
  5
95AF
  8
0
 10
4128.4088414694178937
 20
122.6900480000383027
 30
0.0
 11
4128.6702402133178111
 21
122.2372920945383044
 31
0.0
  0
LINE
  5
95B0
  8
0
 10
4129.1930377012176905
 20
122.2372920945383044
 30
0.0
 11
4128.6702402133178111
 21
122.2372920945383044
 31
0.0
  0
LINE
  5
95B1
  8
0
 10
4129.4544364451176079
 20
122.6900480000383027
 30
0.0
 11
4129.1930377012176905
 21
122.2372920945383044
 31
0.0
  0
LINE
  5
95B2
  8
0
 10
4129.1930377012176905
 20
123.1428039056383028
 30
0.0
 11
4129.4544364451176079
 21
122.6900480000383027
 31
0.0
  0
LINE
  5
95B3
  8
0
 10
4128.6702402133178111
 20
123.1428039056383028
 30
0.0
 11
4129.1930377012176905
 21
123.1428039056383028
 31
0.0
  0
LINE
  5
95B4
  8
0
 10
4128.4088414694178937
 20
122.6900480000383027
 30
0.0
 11
4128.6702402133178111
 21
123.1428039056383028
 31
0.0
  0
CIRCLE
  5
95B5
  8
0
 10
4128.9316389573014021
 20
122.6900480000058025
 30
0.0
 40
0.4527559055329159
  0
CIRCLE
  5
95B6
  8
0
 10
4128.9316389572177286
 20
122.6900480000383027
 30
0.0
 40
0.3031496063000008
  0
CIRCLE
  5
95B7
  8
0
 10
4128.9316389572177286
 20
122.6900480000383027
 30
0.0
 40
0.1579999999999995
  0
CIRCLE
  5
95B8
  8
0
 10
4128.9316389572177286
 20
122.6900480000383027
 30
0.0
 40
0.2799999999999999
  0
LINE
  5
95B9
  8
0
 10
4128.5704995447813417
 20
122.4100480000383016
 30
0.0
 11
4123.448165956732737
 21
122.4100480000383016
 31
0.0
  0
LINE
  5
95BA
  8
0
 10
4128.5704995447440524
 20
122.9700480000383038
 30
0.0
 11
4123.4151204745921859
 21
122.9700480000383038
 31
0.0
  0
ENDSEC
  0
EOF
