  0
SECTION
  2
HEADER
  9
$ACADVER
  1
AC1009
  9
$INSBASE
 10
491.6436482982458074
 20
80.3728664011301532
 30
0.0
  9
$EXTMIN
 10
485.9421836613503274
 20
78.9263996580146738
 30
-0.0000000000112498
  9
$EXTMAX
 10
491.6711418085891978
 20
81.4059101099214359
 30
0.0000000000002956
  9
$LIMMIN
 10
0.0
 20
0.0
  9
$LIMMAX
 10
11.6929133858000007
 20
8.2677165353999982
  9
$ORTHOMODE
 70
     0
  9
$REGENMODE
 70
     1
  9
$FILLMODE
 70
     1
  9
$QTEXTMODE
 70
     0
  9
$MIRRTEXT
 70
     0
  9
$DRAGMODE
 70
     2
  9
$LTSCALE
 40
0.6431102362
  9
$OSMODE
 70
  4095
  9
$ATTMODE
 70
     1
  9
$TEXTSIZE
 40
0.2
  9
$TRACEWID
 40
0.05
  9
$TEXTSTYLE
  7
STANDARD
  9
$CLAYER
  8
0
  9
$CELTYPE
  6
BYLAYER
  9
$CECOLOR
 62
   256
  9
$DIMSCALE
 40
1.0
  9
$DIMASZ
 40
0.1875
  9
$DIMEXO
 40
0.0625
  9
$DIMDLI
 40
0.4443307087
  9
$DIMRND
 40
0.0
  9
$DIMDLE
 40
0.0
  9
$DIMEXE
 40
0.125
  9
$DIMTP
 40
0.01
  9
$DIMTM
 40
0.01
  9
$DIMTXT
 40
1.0
  9
$DIMCEN
 40
0.1052362205
  9
$DIMTSZ
 40
0.0
  9
$DIMTOL
 70
     1
  9
$DIMLIM
 70
     0
  9
$DIMTIH
 70
     0
  9
$DIMTOH
 70
     1
  9
$DIMSE1
 70
     0
  9
$DIMSE2
 70
     0
  9
$DIMTAD
 70
     0
  9
$DIMZIN
 70
     0
  9
$DIMBLK
  1

  9
$DIMASO
 70
     1
  9
$DIMSHO
 70
     1
  9
$DIMPOST
  1
\X
  9
$DIMAPOST
  1

  9
$DIMALT
 70
     1
  9
$DIMALTD
 70
     2
  9
$DIMALTF
 40
25.3999999999999986
  9
$DIMLFAC
 40
1.0
  9
$DIMTOFL
 70
     0
  9
$DIMTVP
 40
0.0
  9
$DIMTIX
 70
     0
  9
$DIMSOXD
 70
     0
  9
$DIMSAH
 70
     0
  9
$DIMBLK1
  1

  9
$DIMBLK2
  1

  9
$DIMSTYLE
  2
STANDARD
  9
$DIMCLRD
 70
     0
  9
$DIMCLRE
 70
     0
  9
$DIMCLRT
 70
     0
  9
$DIMTFAC
 40
1.0
  9
$DIMGAP
 40
0.09
  9
$LUNITS
 70
     2
  9
$LUPREC
 70
     4
  9
$SKETCHINC
 40
0.1
  9
$FILLETRAD
 40
0.0
  9
$AUNITS
 70
     0
  9
$AUPREC
 70
     0
  9
$MENU
  1
.
  9
$ELEVATION
 40
0.0
  9
$PELEVATION
 40
0.0
  9
$THICKNESS
 40
0.0
  9
$LIMCHECK
 70
     0
  9
$BLIPMODE
 70
     0
  9
$CHAMFERA
 40
0.0
  9
$CHAMFERB
 40
0.0
  9
$SKPOLY
 70
     0
  9
$TDCREATE
 40
2458172.5207638889551163
  9
$TDUPDATE
 40
2459723.5526967588812113
  9
$TDINDWG
 40
0.3286430324
  9
$TDUSRTIMER
 40
0.3286430324
  9
$USRTIMER
 70
     1
  9
$ANGBASE
 50
0.0
  9
$ANGDIR
 70
     0
  9
$PDMODE
 70
     0
  9
$PDSIZE
 40
0.3125
  9
$PLINEWID
 40
0.0
  9
$COORDS
 70
     1
  9
$SPLFRAME
 70
     0
  9
$SPLINETYPE
 70
     6
  9
$SPLINESEGS
 70
     8
  9
$ATTDIA
 70
     1
  9
$ATTREQ
 70
     1
  9
$HANDLING
 70
     1
  9
$HANDSEED
  5
11EF7
  9
$SURFTAB1
 70
     6
  9
$SURFTAB2
 70
     6
  9
$SURFTYPE
 70
     6
  9
$SURFU
 70
     6
  9
$SURFV
 70
     6
  9
$UCSNAME
  2

  9
$UCSORG
 10
0.0
 20
0.0
 30
0.0
  9
$UCSXDIR
 10
1.0
 20
0.0
 30
0.0
  9
$UCSYDIR
 10
0.0
 20
1.0
 30
0.0
  9
$PUCSNAME
  2

  9
$PUCSORG
 10
0.0
 20
0.0
 30
0.0
  9
$PUCSXDIR
 10
1.0
 20
0.0
 30
0.0
  9
$PUCSYDIR
 10
0.0
 20
1.0
 30
0.0
  9
$USERI1
 70
     0
  9
$USERI2
 70
     0
  9
$USERI3
 70
     0
  9
$USERI4
 70
     0
  9
$USERI5
 70
     0
  9
$USERR1
 40
0.0
  9
$USERR2
 40
0.0
  9
$USERR3
 40
0.0
  9
$USERR4
 40
0.0
  9
$USERR5
 40
0.0
  9
$WORLDVIEW
 70
     1
  9
$SHADEDGE
 70
     3
  9
$SHADEDIF
 70
    70
  9
$TILEMODE
 70
     1
  9
$MAXACTVP
 70
    64
  9
$PLIMCHECK
 70
     0
  9
$PEXTMIN
 10
1.0000000000000000E+20
 20
1.0000000000000000E+20
 30
1.0000000000000000E+20
  9
$PEXTMAX
 10
-1.0000000000000000E+20
 20
-1.0000000000000000E+20
 30
-1.0000000000000000E+20
  9
$PLIMMIN
 10
0.0
 20
0.0
  9
$PLIMMAX
 10
12.0
 20
9.0
  9
$UNITMODE
 70
     0
  9
$VISRETAIN
 70
     1
  9
$PLINEGEN
 70
     0
  9
$PSLTSCALE
 70
     1
  0
ENDSEC
  0
SECTION
  2
TABLES
  0
TABLE
  2
VPORT
 70
     1
  0
VPORT
  2
*ACTIVE
 70
     0
 10
0.0
 20
0.0
 11
1.0
 21
1.0
 12
59.1773736269160509
 22
10.4636133717493696
 13
0.0
 23
0.0
 14
1.0
 24
1.0
 15
0.0
 25
0.0
 16
0.0
 26
0.0
 36
14.6338572656650907
 17
429.6292891080536833
 27
69.7025415122186871
 37
0.0
 40
2.4988564372272459
 41
2.481770833333333
 42
50.0
 43
0.0
 44
0.0
 50
0.0
 51
0.0
 71
     0
 72
   100
 73
     1
 74
     1
 75
     0
 76
     0
 77
     0
 78
     0
  0
ENDTAB
  0
TABLE
  2
LTYPE
 70
     2
  0
LTYPE
  2
CONTINUOUS
 70
     0
  3
Solid line
 72
    65
 73
     0
 40
0.0
  0
LTYPE
  2
PHANTOM2
 70
     0
  3
___ _ _ ___ _ _ ___ _ _ ___ _ _
 72
    65
 73
     6
 40
1.25
 49
0.625
 49
-0.125
 49
0.125
 49
-0.125
 49
0.125
 49
-0.125
  0
ENDTAB
  0
TABLE
  2
LAYER
 70
     2
  0
LAYER
  2
0
 70
     0
 62
   255
  6
CONTINUOUS
  0
LAYER
  2
DEFPOINTS
 70
     0
 62
     7
  6
CONTINUOUS
  0
ENDTAB
  0
TABLE
  2
STYLE
 70
     1
  0
STYLE
  2
STANDARD
 70
     0
 40
0.0
 41
0.8
 50
0.0
 71
     0
 42
0.2
  3
txt
  4

  0
ENDTAB
  0
TABLE
  2
VIEW
 70
     0
  0
ENDTAB
  0
TABLE
  2
UCS
 70
     0
  0
ENDTAB
  0
TABLE
  2
APPID
 70
    10
  0
APPID
  2
ACAD
 70
     0
  0
APPID
  2
ACAD_MLEADERVER
 70
     0
  0
APPID
  2
ACAD_EXEMPT_FROM_CAD_STANDARDS
 70
     0
  0
APPID
  2
ACAD_DSTYLE_DIMJAG
 70
     0
  0
APPID
  2
ACAD_DSTYLE_DIMTALN
 70
     0
  0
APPID
  2
ACAD_NAV_VCDISPLAY
 70
     0
  0
APPID
  2
ACAECLAYERSTANDARD
 70
     0
  0
APPID
  2
ACCMTRANSPARENCY
 70
     0
  0
APPID
  2
DCO15
 70
     0
  0
APPID
  2
ACDBATTR
 70
     0
  0
ENDTAB
  0
TABLE
  2
DIMSTYLE
 70
     1
  0
DIMSTYLE
  2
STANDARD
 70
     0
  3

  4

  5

  6

  7

 40
1.0
 41
0.1875
 42
0.0625
 43
0.38
 44
0.125
 45
0.0
 46
0.0
 47
0.01
 48
0.01
140
0.15625
141
0.09
142
0.0
143
25.3999999999999986
144
1.0
145
0.0
146
1.0
147
0.09
 71
     1
 72
     0
 73
     1
 74
     1
 75
     0
 76
     0
 77
     0
 78
     4
170
     0
171
     2
172
     0
173
     0
174
     0
175
     0
176
     0
177
     0
178
     0
  0
ENDTAB
  0
ENDSEC
  0
SECTION
  2
BLOCKS
  0
BLOCK
  8
0
  2
$MODEL_SPACE
 70
     0
 10
0.0
 20
0.0
 30
0.0
  3
$MODEL_SPACE
  1

  0
ENDBLK
  5
21
  8
0
  0
BLOCK
 67
     1
  8
0
  2
$PAPER_SPACE
 70
     0
 10
0.0
 20
0.0
 30
0.0
  3
$PAPER_SPACE
  1

  0
ENDBLK
  5
1D
 67
     1
  8
0
  0
ENDSEC
  0
SECTION
  2
ENTITIES
  0
ATTDEF
  5
100F7
  8
DEFPOINTS
 10
491.6454093357381794
 20
80.3729848954987887
 30
0.0
 40
0.001
  1
P24762-00
  3

  2
MODELNUMBER
 70
     0
1001
ACDBATTR
1070
     0
1070
     1
  0
ATTDEF
  5
100F8
  8
DEFPOINTS
 10
491.6454093357381794
 20
80.3713182288321235
 30
0.0
 40
0.001
  1
PER SE
  3

  2
TRADENAME
 70
     0
1001
ACDBATTR
1070
     0
1070
     1
  0
ATTDEF
  5
100F9
  8
DEFPOINTS
 10
491.6454093357381794
 20
80.3696515621654441
 30
0.0
 40
0.001
  1
SHOWER ARM
  3

  2
PRODUCT
 70
     0
1001
ACDBATTR
1070
     0
1070
     1
  0
LINE
  5
11E57
  8
0
 10
491.6436482982458074
 20
81.4033664011301852
 30
0.0
 11
491.6436482982458074
 21
79.3423664011301639
 31
0.0
  0
LINE
  5
11E58
  8
0
 10
491.3938176895218817
 20
81.3115189299226415
 30
0.0
 11
491.3938176895218817
 21
79.4342138723377076
 31
0.0
  0
LINE
  5
11E59
  8
0
 10
488.5636476741458978
 20
81.0183777802301535
 30
0.0
 11
490.7442252142457733
 21
81.0526330296301722
 31
0.0
  0
LINE
  5
11E5A
  8
0
 10
485.9814397743998029
 20
79.9009480997812318
 30
0.0
 11
486.9431049968524121
 21
78.9392828774286954
 31
0.0
  0
LINE
  5
11E5B
  8
0
 10
485.9814397743979271
 20
79.9575166422771559
 30
0.0
 11
486.112688399107185
 21
80.0887652669909187
 31
0.0
  0
ARC
  5
11E5C
  8
0
 10
488.8265620623228074
 20
77.51681096800246
 30
0.0
 40
3.7389917325370461
 50
119.8014598527205976
 51
136.5379667316717018
  0
ARC
  5
11E5D
  8
0
 10
487.8057523165896896
 20
79.2971384032333191
 30
0.0
 40
1.686769493083651
 50
98.6643116600569243
 51
119.7676699017088993
  0
ARC
  5
11E5E
  8
0
 10
488.2222930473143947
 20
76.563646313322792
 30
0.0
 40
4.4518165425850009
 50
93.4814284674096143
 51
98.6643116600569243
  0
ARC
  5
11E5F
  8
0
 10
488.3884622728318732
 20
73.8322745876230755
 30
0.0
 40
7.188238241713429
 50
88.6034995397475171
 51
93.4814284674096143
  0
ARC
  5
11E60
  8
0
 10
486.0097240456457826
 20
79.9292323710301673
 30
0.0
 40
0.04
 50
135.0000000009684129
 51
225.0000000029754119
  0
ARC
  5
11E61
  8
0
 10
490.7588865826706979
 20
83.415286005952666
 30
0.0
 40
2.3626984662139239
 50
269.6444574134833942
 51
278.6374705552948967
  0
ARC
  5
11E62
  8
0
 10
491.0390649824067282
 20
81.5708517390862369
 30
0.0
 40
0.4971053432447917
 50
278.6374705552948967
 51
303.8729209923686199
  0
ARC
  5
11E63
  8
0
 10
491.1958037502394063
 20
81.3119887145268763
 30
0.0
 40
0.1953314396974754
 50
308.0246569301896784
 51
343.4446594460598021
  0
ARC
  5
11E64
  8
0
 10
490.2184885153467917
 20
81.5124502731589189
 30
0.0
 40
1.1923808419970301
 50
347.5963953838838165
 51
350.2986430842436789
  0
ARC
  5
11E65
  8
0
 10
491.4609700679990283
 20
81.3033730583020855
 30
0.0
 40
0.0676446388090145
 50
110.133354019065905
 51
173.0835684978160032
  0
ARC
  5
11E66
  8
0
 10
491.6435504135525889
 20
80.8042940137565608
 30
0.0
 40
0.599072395370479
 50
89.9906382269174969
 51
110.0986781966817034
  0
LINE
  5
11E67
  8
0
 10
488.5636476741458978
 20
79.7273550220301672
 30
0.0
 11
490.7442252142457733
 21
79.6930997726301769
 31
0.0
  0
ARC
  5
11E68
  8
0
 10
488.5141377988189788
 20
77.9099685931907686
 30
0.0
 40
1.8180606864141069
 50
88.4395143388684062
 51
114.4117112227573045
  0
ARC
  5
11E69
  8
0
 10
490.7588865826706979
 20
77.3304467963076689
 30
0.0
 40
2.3626984662139239
 50
81.3625294447051033
 51
90.3555425865166058
  0
ARC
  5
11E6A
  8
0
 10
491.0390649824067282
 20
79.1748810631741122
 30
0.0
 40
0.4971053432447917
 50
56.1270790076314299
 51
81.3625294447051033
  0
ARC
  5
11E6B
  8
0
 10
491.1958037502394063
 20
79.4337440877334728
 30
0.0
 40
0.1953314396974754
 50
16.5553405539402014
 51
51.9753430698102576
  0
ARC
  5
11E6C
  8
0
 10
490.2184885153467917
 20
79.233282529101416
 30
0.0
 40
1.1923808419970301
 50
9.7013569157563246
 51
12.4036046161161799
  0
ARC
  5
11E6D
  8
0
 10
491.4609700679990283
 20
79.4423597439582636
 30
0.0
 40
0.0676446388090145
 50
186.9164315021839968
 51
249.866645980934095
  0
ARC
  5
11E6E
  8
0
 10
491.6435504135525889
 20
79.941438788503774
 30
0.0
 40
0.599072395370479
 50
249.9013218033182966
 51
270.0093617730825031
  0
ARC
  5
11E6F
  8
0
 10
489.0053743142847225
 20
77.3330490415571177
 30
0.0
 40
2.5549796402771929
 50
119.1012023313008967
 51
136.5675745821154123
  0
LINE
  5
11E70
  8
0
 10
486.9996735393457925
 20
78.9392828774301734
 30
0.0
 11
487.1499846076305857
 21
79.0895939452453405
 31
0.0
  0
ARC
  5
11E71
  8
0
 10
486.9713892680983918
 20
78.9675671486776309
 30
0.0
 40
0.04
 50
225.0000000029754119
 51
314.999999910484803
  0
ENDSEC
  0
EOF
