  0
SECTION
  2
HEADER
  9
$ACADVER
  1
AC1009
  9
$INSBASE
 10
492.9425836125784031
 20
83.5654966785386506
 30
0.0
  9
$EXTMIN
 10
491.7284590875132722
 20
77.8869936378946477
 30
-0.0000000000000058
  9
$EXTMAX
 10
494.1257452483698103
 20
83.5740454228928655
 30
0.0000000000000104
  9
$LIMMIN
 10
0.0
 20
0.0
  9
$LIMMAX
 10
11.6929133858000007
 20
8.2677165353999982
  9
$ORTHOMODE
 70
     0
  9
$REGENMODE
 70
     1
  9
$FILLMODE
 70
     1
  9
$QTEXTMODE
 70
     0
  9
$MIRRTEXT
 70
     0
  9
$DRAGMODE
 70
     2
  9
$LTSCALE
 40
0.6431102362
  9
$OSMODE
 70
  4095
  9
$ATTMODE
 70
     1
  9
$TEXTSIZE
 40
0.2
  9
$TRACEWID
 40
0.05
  9
$TEXTSTYLE
  7
STANDARD
  9
$CLAYER
  8
0
  9
$CELTYPE
  6
BYLAYER
  9
$CECOLOR
 62
   256
  9
$DIMSCALE
 40
1.0
  9
$DIMASZ
 40
0.1875
  9
$DIMEXO
 40
0.0625
  9
$DIMDLI
 40
0.4443307087
  9
$DIMRND
 40
0.0
  9
$DIMDLE
 40
0.0
  9
$DIMEXE
 40
0.125
  9
$DIMTP
 40
0.01
  9
$DIMTM
 40
0.01
  9
$DIMTXT
 40
1.0
  9
$DIMCEN
 40
0.1052362205
  9
$DIMTSZ
 40
0.0
  9
$DIMTOL
 70
     1
  9
$DIMLIM
 70
     0
  9
$DIMTIH
 70
     0
  9
$DIMTOH
 70
     1
  9
$DIMSE1
 70
     0
  9
$DIMSE2
 70
     0
  9
$DIMTAD
 70
     0
  9
$DIMZIN
 70
     0
  9
$DIMBLK
  1

  9
$DIMASO
 70
     1
  9
$DIMSHO
 70
     1
  9
$DIMPOST
  1
\X
  9
$DIMAPOST
  1

  9
$DIMALT
 70
     1
  9
$DIMALTD
 70
     2
  9
$DIMALTF
 40
25.3999999999999986
  9
$DIMLFAC
 40
1.0
  9
$DIMTOFL
 70
     0
  9
$DIMTVP
 40
0.0
  9
$DIMTIX
 70
     0
  9
$DIMSOXD
 70
     0
  9
$DIMSAH
 70
     0
  9
$DIMBLK1
  1

  9
$DIMBLK2
  1

  9
$DIMSTYLE
  2
STANDARD
  9
$DIMCLRD
 70
     0
  9
$DIMCLRE
 70
     0
  9
$DIMCLRT
 70
     0
  9
$DIMTFAC
 40
1.0
  9
$DIMGAP
 40
0.09
  9
$LUNITS
 70
     2
  9
$LUPREC
 70
     4
  9
$SKETCHINC
 40
0.1
  9
$FILLETRAD
 40
0.0
  9
$AUNITS
 70
     0
  9
$AUPREC
 70
     0
  9
$MENU
  1
.
  9
$ELEVATION
 40
0.0
  9
$PELEVATION
 40
0.0
  9
$THICKNESS
 40
0.0
  9
$LIMCHECK
 70
     0
  9
$BLIPMODE
 70
     0
  9
$CHAMFERA
 40
0.0
  9
$CHAMFERB
 40
0.0
  9
$SKPOLY
 70
     0
  9
$TDCREATE
 40
2458172.5207638889551163
  9
$TDUPDATE
 40
2459723.5526273148134351
  9
$TDINDWG
 40
0.3293953472
  9
$TDUSRTIMER
 40
0.3293953472
  9
$USRTIMER
 70
     1
  9
$ANGBASE
 50
0.0
  9
$ANGDIR
 70
     0
  9
$PDMODE
 70
     0
  9
$PDSIZE
 40
0.3125
  9
$PLINEWID
 40
0.0
  9
$COORDS
 70
     1
  9
$SPLFRAME
 70
     0
  9
$SPLINETYPE
 70
     6
  9
$SPLINESEGS
 70
     8
  9
$ATTDIA
 70
     1
  9
$ATTREQ
 70
     1
  9
$HANDLING
 70
     1
  9
$HANDSEED
  5
11F81
  9
$SURFTAB1
 70
     6
  9
$SURFTAB2
 70
     6
  9
$SURFTYPE
 70
     6
  9
$SURFU
 70
     6
  9
$SURFV
 70
     6
  9
$UCSNAME
  2

  9
$UCSORG
 10
0.0
 20
0.0
 30
0.0
  9
$UCSXDIR
 10
1.0
 20
0.0
 30
0.0
  9
$UCSYDIR
 10
0.0
 20
1.0
 30
0.0
  9
$PUCSNAME
  2

  9
$PUCSORG
 10
0.0
 20
0.0
 30
0.0
  9
$PUCSXDIR
 10
1.0
 20
0.0
 30
0.0
  9
$PUCSYDIR
 10
0.0
 20
1.0
 30
0.0
  9
$USERI1
 70
     0
  9
$USERI2
 70
     0
  9
$USERI3
 70
     0
  9
$USERI4
 70
     0
  9
$USERI5
 70
     0
  9
$USERR1
 40
0.0
  9
$USERR2
 40
0.0
  9
$USERR3
 40
0.0
  9
$USERR4
 40
0.0
  9
$USERR5
 40
0.0
  9
$WORLDVIEW
 70
     1
  9
$SHADEDGE
 70
     3
  9
$SHADEDIF
 70
    70
  9
$TILEMODE
 70
     1
  9
$MAXACTVP
 70
    64
  9
$PLIMCHECK
 70
     0
  9
$PEXTMIN
 10
1.0000000000000000E+20
 20
1.0000000000000000E+20
 30
1.0000000000000000E+20
  9
$PEXTMAX
 10
-1.0000000000000000E+20
 20
-1.0000000000000000E+20
 30
-1.0000000000000000E+20
  9
$PLIMMIN
 10
0.0
 20
0.0
  9
$PLIMMAX
 10
12.0
 20
9.0
  9
$UNITMODE
 70
     0
  9
$VISRETAIN
 70
     1
  9
$PLINEGEN
 70
     0
  9
$PSLTSCALE
 70
     1
  0
ENDSEC
  0
SECTION
  2
TABLES
  0
TABLE
  2
VPORT
 70
     1
  0
VPORT
  2
*ACTIVE
 70
     0
 10
0.0
 20
0.0
 11
1.0
 21
1.0
 12
63.2978130598878508
 22
11.0279780181750606
 13
0.0
 23
0.0
 14
1.0
 24
1.0
 15
0.0
 25
0.0
 16
0.0
 26
0.0
 36
14.6338572656650907
 17
429.6292891080536833
 27
69.7025415122186871
 37
0.0
 40
5.7314241006158753
 41
2.481770833333333
 42
50.0
 43
0.0
 44
0.0
 50
0.0
 51
0.0
 71
     0
 72
   100
 73
     1
 74
     1
 75
     0
 76
     0
 77
     0
 78
     0
  0
ENDTAB
  0
TABLE
  2
LTYPE
 70
     2
  0
LTYPE
  2
CONTINUOUS
 70
     0
  3
Solid line
 72
    65
 73
     0
 40
0.0
  0
LTYPE
  2
PHANTOM2
 70
     0
  3
___ _ _ ___ _ _ ___ _ _ ___ _ _
 72
    65
 73
     6
 40
1.25
 49
0.625
 49
-0.125
 49
0.125
 49
-0.125
 49
0.125
 49
-0.125
  0
ENDTAB
  0
TABLE
  2
LAYER
 70
     2
  0
LAYER
  2
0
 70
     0
 62
   255
  6
CONTINUOUS
  0
LAYER
  2
DEFPOINTS
 70
     0
 62
     7
  6
CONTINUOUS
  0
ENDTAB
  0
TABLE
  2
STYLE
 70
     1
  0
STYLE
  2
STANDARD
 70
     0
 40
0.0
 41
0.8
 50
0.0
 71
     0
 42
0.2
  3
txt
  4

  0
ENDTAB
  0
TABLE
  2
VIEW
 70
     0
  0
ENDTAB
  0
TABLE
  2
UCS
 70
     0
  0
ENDTAB
  0
TABLE
  2
APPID
 70
    10
  0
APPID
  2
ACAD
 70
     0
  0
APPID
  2
ACAD_MLEADERVER
 70
     0
  0
APPID
  2
ACAD_EXEMPT_FROM_CAD_STANDARDS
 70
     0
  0
APPID
  2
ACAD_DSTYLE_DIMJAG
 70
     0
  0
APPID
  2
ACAD_DSTYLE_DIMTALN
 70
     0
  0
APPID
  2
ACAD_NAV_VCDISPLAY
 70
     0
  0
APPID
  2
ACAECLAYERSTANDARD
 70
     0
  0
APPID
  2
ACCMTRANSPARENCY
 70
     0
  0
APPID
  2
DCO15
 70
     0
  0
APPID
  2
ACDBATTR
 70
     0
  0
ENDTAB
  0
TABLE
  2
DIMSTYLE
 70
     1
  0
DIMSTYLE
  2
STANDARD
 70
     0
  3

  4

  5

  6

  7

 40
1.0
 41
0.1875
 42
0.0625
 43
0.38
 44
0.125
 45
0.0
 46
0.0
 47
0.01
 48
0.01
140
0.15625
141
0.09
142
0.0
143
25.3999999999999986
144
1.0
145
0.0
146
1.0
147
0.09
 71
     1
 72
     0
 73
     1
 74
     1
 75
     0
 76
     0
 77
     0
 78
     4
170
     0
171
     2
172
     0
173
     0
174
     0
175
     0
176
     0
177
     0
178
     0
  0
ENDTAB
  0
ENDSEC
  0
SECTION
  2
BLOCKS
  0
BLOCK
  8
0
  2
$MODEL_SPACE
 70
     0
 10
0.0
 20
0.0
 30
0.0
  3
$MODEL_SPACE
  1

  0
ENDBLK
  5
21
  8
0
  0
BLOCK
 67
     1
  8
0
  2
$PAPER_SPACE
 70
     0
 10
0.0
 20
0.0
 30
0.0
  3
$PAPER_SPACE
  1

  0
ENDBLK
  5
1D
 67
     1
  8
0
  0
ENDSEC
  0
SECTION
  2
ENTITIES
  0
ATTDEF
  5
100F7
  8
DEFPOINTS
 10
492.9390500602420957
 20
83.5705169948545574
 30
0.0
 40
0.001
  1
P24762-00
  3

  2
MODELNUMBER
 70
     0
1001
ACDBATTR
1070
     0
1070
     1
  0
ATTDEF
  5
100F8
  8
DEFPOINTS
 10
492.9390500602420957
 20
83.5688503281878923
 30
0.0
 40
0.001
  1
PER SE
  3

  2
TRADENAME
 70
     0
1001
ACDBATTR
1070
     0
1070
     1
  0
ATTDEF
  5
100F9
  8
DEFPOINTS
 10
492.9390500602420957
 20
83.5671836615212129
 30
0.0
 40
0.001
  1
SHOWER ARM
  3

  2
PRODUCT
 70
     0
1001
ACDBATTR
1070
     0
1070
     1
  0
LINE
  5
11EE0
  8
0
 10
491.7613336125784826
 20
83.5654966785386506
 30
0.0
 11
494.123833612578494
 21
83.5654966785386506
 31
0.0
  0
ARC
  5
11EE1
  8
0
 10
492.3609586125784858
 20
83.5654966785386506
 30
0.0
 40
0.5996250000000209
 50
180.0000000000007958
 51
200.0307431866002048
  0
ARC
  5
11EE2
  8
0
 10
491.861477949205721
 20
83.3833970149612185
 30
0.0
 40
0.0679848768355559
 50
200.030743186599409
 51
265.9517550205922021
  0
LINE
  5
11EE3
  8
0
 10
491.8566784595050194
 20
83.315581763159301
 30
0.0
 11
494.0284887656519004
 21
83.315581763159301
 31
0.0
  0
ARC
  5
11EE4
  8
0
 10
490.9431329732498739
 20
82.6699069351580818
 30
0.0
 40
1.319687275887838
 50
359.8389637681112845
 51
12.7730813955623201
  0
ARC
  5
11EE5
  8
0
 10
491.7049707549494997
 20
82.84261587221296
 30
0.0
 40
0.5385181632345705
 50
12.7730813955623201
 51
45.5972675265421827
  0
ARC
  5
11EE6
  8
0
 10
491.8427922835422237
 20
82.9489049902357465
 30
0.0
 40
0.3669396158559354
 50
49.3622737634255486
 51
87.8312254479541963
  0
LINE
  5
11EE7
  8
0
 10
492.2628150366784894
 20
82.6661978105386481
 30
0.0
 11
492.2970722252783844
 21
80.4854966698386391
 31
0.0
  0
LINE
  5
11EE8
  8
0
 10
492.2970722252783844
 20
80.4854966698386391
 30
0.0
 11
492.2650186994783894
 21
79.459919294338647
 31
0.0
  0
ARC
  5
11EE9
  8
0
 10
509.5785070255471965
 20
78.1953353959027737
 30
0.0
 40
17.3596097436867609
 50
175.8225123399504923
 51
178.8192104947204086
  0
ARC
  5
11EEA
  8
0
 10
493.6781158886129788
 20
78.4775433940384062
 30
0.0
 40
1.457490391148945
 50
177.0296848917180057
 51
185.1435779556015859
  0
ARC
  5
11EEB
  8
0
 10
492.8094674230770238
 20
78.4133197060972407
 30
0.0
 40
0.5867089759044161
 50
194.5745683175805993
 51
208.6157979909216067
  0
ARC
  5
11EEC
  8
0
 10
492.665514697353899
 20
78.3668179296647054
 30
0.0
 40
0.4389703975564406
 50
212.2889122751385003
 51
255.6565934598534113
  0
ARC
  5
11EED
  8
0
 10
492.9481556179219979
 20
79.4493608171711969
 30
0.0
 40
1.557798356367875
 50
255.4488275850000036
 51
269.7950613639715129
  0
ARC
  5
11EEE
  8
0
 10
492.7839878634475212
 20
78.4088422505828078
 30
0.0
 40
0.5609264682006931
 50
186.3424100398922008
 51
194.7868561444198008
  0
ARC
  5
11EEF
  8
0
 10
493.5242086125783771
 20
83.5654966785386506
 30
0.0
 40
0.5996250000000209
 50
339.9692568133997952
 51
359.9999999999992042
  0
ARC
  5
11EF0
  8
0
 10
494.0236892759513125
 20
83.3833970149612185
 30
0.0
 40
0.0679848768355559
 50
274.0482449794077979
 51
339.969256813400591
  0
ARC
  5
11EF1
  8
0
 10
494.9420342519068754
 20
82.6699069351580818
 30
0.0
 40
1.319687275887838
 50
167.2269186044377136
 51
180.1610362318886018
  0
ARC
  5
11EF2
  8
0
 10
494.1801964702074201
 20
82.84261587221296
 30
0.0
 40
0.5385181632345705
 50
134.4027324734578031
 51
167.2269186044377136
  0
ARC
  5
11EF3
  8
0
 10
494.0423749416145824
 20
82.9489049902357465
 30
0.0
 40
0.3669396158559354
 50
92.1687745520458037
 51
130.6377262365743945
  0
LINE
  5
11EF4
  8
0
 10
493.6223521884784873
 20
82.6661978105386481
 30
0.0
 11
493.5880949998784217
 21
80.4854966698386391
 31
0.0
  0
LINE
  5
11EF5
  8
0
 10
493.5880949998784217
 20
80.4854966698386391
 30
0.0
 11
493.6201485256784167
 21
79.459919294338647
 31
0.0
  0
ARC
  5
11EF6
  8
0
 10
476.3066601996096097
 20
78.1953353959027737
 30
0.0
 40
17.3596097436867609
 50
1.1807895052795809
 51
4.1774876600494562
  0
ARC
  5
11EF7
  8
0
 10
492.2070513365438273
 20
78.4775433940384062
 30
0.0
 40
1.457490391148945
 50
354.8564220443984141
 51
2.970315108282009
  0
ARC
  5
11EF8
  8
0
 10
493.075699802079896
 20
78.4133197060972407
 30
0.0
 40
0.5867089759044161
 50
331.3842020090784217
 51
345.4254316824194007
  0
ARC
  5
11EF9
  8
0
 10
493.2196525278030776
 20
78.3668179296647054
 30
0.0
 40
0.4389703975564406
 50
284.343406540146475
 51
327.7110877248614997
  0
ARC
  5
11EFA
  8
0
 10
492.9282565309551956
 20
79.5169739121901102
 30
0.0
 40
1.6254646279683549
 50
270.5050198724279085
 51
284.2510911786022234
  0
ARC
  5
11EFB
  8
0
 10
493.1011793617093986
 20
78.4088422505828078
 30
0.0
 40
0.5609264682006931
 50
345.2131438555801992
 51
353.6575899601078277
  0
ENDSEC
  0
EOF
