  0
SECTION
  2
HEADER
  9
$ACADVER
  1
AC1009
  9
$INSBASE
 10
495.1875628470282891
 20
82.2976034354871473
 30
0.0
  9
$EXTMIN
 10
493.9709797476535869
 20
80.8462700015367091
 30
-0.0000000000000058
  9
$EXTMAX
 10
496.3749867962359872
 20
83.3325528042672659
 30
0.0000000000000104
  9
$LIMMIN
 10
0.0
 20
0.0
  9
$LIMMAX
 10
11.6929133858000007
 20
8.2677165353999982
  9
$ORTHOMODE
 70
     0
  9
$REGENMODE
 70
     1
  9
$FILLMODE
 70
     1
  9
$QTEXTMODE
 70
     0
  9
$MIRRTEXT
 70
     0
  9
$DRAGMODE
 70
     2
  9
$LTSCALE
 40
0.6431102362
  9
$OSMODE
 70
  4095
  9
$ATTMODE
 70
     1
  9
$TEXTSIZE
 40
0.2
  9
$TRACEWID
 40
0.05
  9
$TEXTSTYLE
  7
STANDARD
  9
$CLAYER
  8
0
  9
$CELTYPE
  6
BYLAYER
  9
$CECOLOR
 62
   256
  9
$DIMSCALE
 40
1.0
  9
$DIMASZ
 40
0.1875
  9
$DIMEXO
 40
0.0625
  9
$DIMDLI
 40
0.4443307087
  9
$DIMRND
 40
0.0
  9
$DIMDLE
 40
0.0
  9
$DIMEXE
 40
0.125
  9
$DIMTP
 40
0.01
  9
$DIMTM
 40
0.01
  9
$DIMTXT
 40
1.0
  9
$DIMCEN
 40
0.1052362205
  9
$DIMTSZ
 40
0.0
  9
$DIMTOL
 70
     1
  9
$DIMLIM
 70
     0
  9
$DIMTIH
 70
     0
  9
$DIMTOH
 70
     1
  9
$DIMSE1
 70
     0
  9
$DIMSE2
 70
     0
  9
$DIMTAD
 70
     0
  9
$DIMZIN
 70
     0
  9
$DIMBLK
  1

  9
$DIMASO
 70
     1
  9
$DIMSHO
 70
     1
  9
$DIMPOST
  1
\X
  9
$DIMAPOST
  1

  9
$DIMALT
 70
     1
  9
$DIMALTD
 70
     2
  9
$DIMALTF
 40
25.3999999999999986
  9
$DIMLFAC
 40
1.0
  9
$DIMTOFL
 70
     0
  9
$DIMTVP
 40
0.0
  9
$DIMTIX
 70
     0
  9
$DIMSOXD
 70
     0
  9
$DIMSAH
 70
     0
  9
$DIMBLK1
  1

  9
$DIMBLK2
  1

  9
$DIMSTYLE
  2
STANDARD
  9
$DIMCLRD
 70
     0
  9
$DIMCLRE
 70
     0
  9
$DIMCLRT
 70
     0
  9
$DIMTFAC
 40
1.0
  9
$DIMGAP
 40
0.09
  9
$LUNITS
 70
     2
  9
$LUPREC
 70
     4
  9
$SKETCHINC
 40
0.1
  9
$FILLETRAD
 40
0.0
  9
$AUNITS
 70
     0
  9
$AUPREC
 70
     0
  9
$MENU
  1
.
  9
$ELEVATION
 40
0.0
  9
$PELEVATION
 40
0.0
  9
$THICKNESS
 40
0.0
  9
$LIMCHECK
 70
     0
  9
$BLIPMODE
 70
     0
  9
$CHAMFERA
 40
0.0
  9
$CHAMFERB
 40
0.0
  9
$SKPOLY
 70
     0
  9
$TDCREATE
 40
2458172.5207638889551163
  9
$TDUPDATE
 40
2459723.5527546289376915
  9
$TDINDWG
 40
0.3291870139
  9
$TDUSRTIMER
 40
0.3291870139
  9
$USRTIMER
 70
     1
  9
$ANGBASE
 50
0.0
  9
$ANGDIR
 70
     0
  9
$PDMODE
 70
     0
  9
$PDSIZE
 40
0.3125
  9
$PLINEWID
 40
0.0
  9
$COORDS
 70
     1
  9
$SPLFRAME
 70
     0
  9
$SPLINETYPE
 70
     6
  9
$SPLINESEGS
 70
     8
  9
$ATTDIA
 70
     1
  9
$ATTREQ
 70
     1
  9
$HANDLING
 70
     1
  9
$HANDSEED
  5
12120
  9
$SURFTAB1
 70
     6
  9
$SURFTAB2
 70
     6
  9
$SURFTYPE
 70
     6
  9
$SURFU
 70
     6
  9
$SURFV
 70
     6
  9
$UCSNAME
  2

  9
$UCSORG
 10
0.0
 20
0.0
 30
0.0
  9
$UCSXDIR
 10
1.0
 20
0.0
 30
0.0
  9
$UCSYDIR
 10
0.0
 20
1.0
 30
0.0
  9
$PUCSNAME
  2

  9
$PUCSORG
 10
0.0
 20
0.0
 30
0.0
  9
$PUCSXDIR
 10
1.0
 20
0.0
 30
0.0
  9
$PUCSYDIR
 10
0.0
 20
1.0
 30
0.0
  9
$USERI1
 70
     0
  9
$USERI2
 70
     0
  9
$USERI3
 70
     0
  9
$USERI4
 70
     0
  9
$USERI5
 70
     0
  9
$USERR1
 40
0.0
  9
$USERR2
 40
0.0
  9
$USERR3
 40
0.0
  9
$USERR4
 40
0.0
  9
$USERR5
 40
0.0
  9
$WORLDVIEW
 70
     1
  9
$SHADEDGE
 70
     3
  9
$SHADEDIF
 70
    70
  9
$TILEMODE
 70
     1
  9
$MAXACTVP
 70
    64
  9
$PLIMCHECK
 70
     0
  9
$PEXTMIN
 10
1.0000000000000000E+20
 20
1.0000000000000000E+20
 30
1.0000000000000000E+20
  9
$PEXTMAX
 10
-1.0000000000000000E+20
 20
-1.0000000000000000E+20
 30
-1.0000000000000000E+20
  9
$PLIMMIN
 10
0.0
 20
0.0
  9
$PLIMMAX
 10
12.0
 20
9.0
  9
$UNITMODE
 70
     0
  9
$VISRETAIN
 70
     1
  9
$PLINEGEN
 70
     0
  9
$PSLTSCALE
 70
     1
  0
ENDSEC
  0
SECTION
  2
TABLES
  0
TABLE
  2
VPORT
 70
     1
  0
VPORT
  2
*ACTIVE
 70
     0
 10
0.0
 20
0.0
 11
1.0
 21
1.0
 12
65.5436941638911321
 22
12.3868698906833004
 13
0.0
 23
0.0
 14
1.0
 24
1.0
 15
0.0
 25
0.0
 16
0.0
 26
0.0
 36
14.6338572656650907
 17
429.6292891080536833
 27
69.7025415122186871
 37
0.0
 40
2.5056816282395071
 41
2.481770833333333
 42
50.0
 43
0.0
 44
0.0
 50
0.0
 51
0.0
 71
     0
 72
   100
 73
     1
 74
     1
 75
     0
 76
     0
 77
     0
 78
     0
  0
ENDTAB
  0
TABLE
  2
LTYPE
 70
     2
  0
LTYPE
  2
CONTINUOUS
 70
     0
  3
Solid line
 72
    65
 73
     0
 40
0.0
  0
LTYPE
  2
PHANTOM2
 70
     0
  3
___ _ _ ___ _ _ ___ _ _ ___ _ _
 72
    65
 73
     6
 40
1.25
 49
0.625
 49
-0.125
 49
0.125
 49
-0.125
 49
0.125
 49
-0.125
  0
ENDTAB
  0
TABLE
  2
LAYER
 70
     2
  0
LAYER
  2
0
 70
     0
 62
   255
  6
CONTINUOUS
  0
LAYER
  2
DEFPOINTS
 70
     0
 62
     7
  6
CONTINUOUS
  0
ENDTAB
  0
TABLE
  2
STYLE
 70
     1
  0
STYLE
  2
STANDARD
 70
     0
 40
0.0
 41
0.8
 50
0.0
 71
     0
 42
0.2
  3
txt
  4

  0
ENDTAB
  0
TABLE
  2
VIEW
 70
     0
  0
ENDTAB
  0
TABLE
  2
UCS
 70
     0
  0
ENDTAB
  0
TABLE
  2
APPID
 70
    10
  0
APPID
  2
ACAD
 70
     0
  0
APPID
  2
ACAD_MLEADERVER
 70
     0
  0
APPID
  2
ACAD_EXEMPT_FROM_CAD_STANDARDS
 70
     0
  0
APPID
  2
ACAD_DSTYLE_DIMJAG
 70
     0
  0
APPID
  2
ACAD_DSTYLE_DIMTALN
 70
     0
  0
APPID
  2
ACAD_NAV_VCDISPLAY
 70
     0
  0
APPID
  2
ACAECLAYERSTANDARD
 70
     0
  0
APPID
  2
ACCMTRANSPARENCY
 70
     0
  0
APPID
  2
DCO15
 70
     0
  0
APPID
  2
ACDBATTR
 70
     0
  0
ENDTAB
  0
TABLE
  2
DIMSTYLE
 70
     1
  0
DIMSTYLE
  2
STANDARD
 70
     0
  3

  4

  5

  6

  7

 40
1.0
 41
0.1875
 42
0.0625
 43
0.38
 44
0.125
 45
0.0
 46
0.0
 47
0.01
 48
0.01
140
0.15625
141
0.09
142
0.0
143
25.3999999999999986
144
1.0
145
0.0
146
1.0
147
0.09
 71
     1
 72
     0
 73
     1
 74
     1
 75
     0
 76
     0
 77
     0
 78
     4
170
     0
171
     2
172
     0
173
     0
174
     0
175
     0
176
     0
177
     0
178
     0
  0
ENDTAB
  0
ENDSEC
  0
SECTION
  2
BLOCKS
  0
BLOCK
  8
0
  2
$MODEL_SPACE
 70
     0
 10
0.0
 20
0.0
 30
0.0
  3
$MODEL_SPACE
  1

  0
ENDBLK
  5
21
  8
0
  0
BLOCK
 67
     1
  8
0
  2
$PAPER_SPACE
 70
     0
 10
0.0
 20
0.0
 30
0.0
  3
$PAPER_SPACE
  1

  0
ENDBLK
  5
1D
 67
     1
  8
0
  0
ENDSEC
  0
SECTION
  2
ENTITIES
  0
ATTDEF
  5
100F7
  8
DEFPOINTS
 10
495.1832808567248776
 20
82.3016871868521065
 30
0.0
 40
0.001
  1
P24762-00
  3

  2
MODELNUMBER
 70
     0
1001
ACDBATTR
1070
     0
1070
     1
  0
ATTDEF
  5
100F8
  8
DEFPOINTS
 10
495.1832808567248776
 20
82.3000205201854556
 30
0.0
 40
0.001
  1
PER SE
  3

  2
TRADENAME
 70
     0
1001
ACDBATTR
1070
     0
1070
     1
  0
ATTDEF
  5
100F9
  8
DEFPOINTS
 10
495.1832808567248776
 20
82.2983538535187904
 30
0.0
 40
0.001
  1
SHOWER ARM
  3

  2
PRODUCT
 70
     0
1001
ACDBATTR
1070
     0
1070
     1
  0
ARC
  5
1201E
  8
0
 10
499.8912249963113936
 20
82.2967097849392957
 30
0.0
 40
5.884912217135521
 50
175.2226625172181116
 51
179.9912993765987039
  0
ARC
  5
1201F
  8
0
 10
494.5873014889090769
 20
82.7399726126844399
 30
0.0
 40
0.5624986193157177
 50
94.8916555302111107
 51
175.2219052956384928
  0
ARC
  5
12020
  8
0
 10
495.187562104719575
 20
75.7242707603621881
 30
0.0
 40
7.6038326751250027
 50
89.9999944066173043
 51
94.8903946359375965
  0
ARC
  5
12021
  8
0
 10
494.5873168035050185
 20
81.8552589947923224
 30
0.0
 40
0.5625276054228183
 50
184.7872507142434131
 51
258.1391598278560195
  0
ARC
  5
12022
  8
0
 10
499.8541116055188809
 20
82.2963439178465563
 30
0.0
 40
5.8477601826956978
 50
182.7677485575275114
 51
184.7872507142442089
  0
ARC
  5
12023
  8
0
 10
499.8871503528100106
 20
82.2979411408844754
 30
0.0
 40
5.8808375154779933
 50
180.0032901936064036
 51
182.7677485575275114
  0
ARC
  5
12024
  8
0
 10
495.1909871810212849
 20
80.3253946976481785
 30
0.0
 40
1.556862744970652
 50
90.1260226980667483
 51
104.6236197357877984
  0
ARC
  5
12025
  8
0
 10
494.9147984324401932
 20
81.3917791499477801
 30
0.0
 40
0.4552990699121575
 50
104.8736149557282005
 51
145.6531031384193113
  0
ARC
  5
12026
  8
0
 10
495.0728259764662198
 20
81.3603380650958456
 30
0.0
 40
0.6068117444930849
 50
151.6314043561785923
 51
167.097668217906886
  0
ARC
  5
12027
  8
0
 10
495.2422324547018775
 20
81.3359259042557738
 30
0.0
 40
0.7775186622405271
 50
168.1316713982481019
 51
177.2568611305379989
  0
ARC
  5
12028
  8
0
 10
495.2355471894318839
 20
81.4072554816496705
 30
0.0
 40
0.7706980425062566
 50
182.5373048559546021
 51
192.4822487409940095
  0
ARC
  5
12029
  8
0
 10
495.0910956990933869
 20
81.3857102843228404
 30
0.0
 40
0.6250872202358077
 50
193.4158881547793953
 51
208.5594340509217091
  0
ARC
  5
1202A
  8
0
 10
494.8917572966212219
 20
81.3039646361614672
 30
0.0
 40
0.4115951714543397
 50
211.8323398178505101
 51
257.151546871683081
  0
ARC
  5
1202B
  8
0
 10
495.1924413958565196
 20
82.4042257362246886
 30
0.0
 40
1.5519292211613831
 50
255.361159690374194
 51
269.8198882303684059
  0
ARC
  5
1202C
  8
0
 10
495.1939806505313868
 20
80.9763250905631651
 30
0.0
 40
0.7537052416320347
 50
90.4878797145445333
 51
110.3944617636997947
  0
ARC
  5
1202D
  8
0
 10
495.1260215806130986
 20
81.1823595495920785
 30
0.0
 40
0.536964536039002
 50
111.2587986911971996
 51
128.9978573679561009
  0
ARC
  5
1202E
  8
0
 10
494.9606752250705881
 20
81.3587190893569101
 30
0.0
 40
0.2963705924052756
 50
125.6087123653333038
 51
198.0065260570468979
  0
ARC
  5
1202F
  8
0
 10
495.0570438512198166
 20
81.4277791977686576
 30
0.0
 40
0.410937492486657
 50
203.0166158623551951
 51
247.9753566042832063
  0
ARC
  5
12030
  8
0
 10
495.1867464909232126
 20
81.6964359497291639
 30
0.0
 40
0.708895532095414
 50
246.3999332539839031
 51
270.0659811885121826
  0
ARC
  5
12031
  8
0
 10
495.196394919130114
 20
81.6717686342214648
 30
0.0
 40
0.7121213681461434
 50
230.2675018943459122
 51
269.2893719348377886
  0
ARC
  5
12032
  8
0
 10
494.9343652177583976
 20
81.3420458582725274
 30
0.0
 40
0.2912087823935749
 50
184.0624414284270927
 51
228.4473249067332858
  0
ARC
  5
12033
  8
0
 10
494.9367299109458145
 20
81.3422138035907381
 30
0.0
 40
0.2935794319881351
 50
155.1781852845049912
 51
184.0624414284270927
  0
ARC
  5
12034
  8
0
 10
494.9728788219106832
 20
81.3254939570099111
 30
0.0
 40
0.3334077765888238
 50
135.9858663421217955
 51
155.1781852845049912
  0
ARC
  5
12035
  8
0
 10
494.9065302793733849
 20
81.3895976370055934
 30
0.0
 40
0.2411504685541478
 50
119.4093149749069056
 51
135.9858663421217955
  0
ARC
  5
12036
  8
0
 10
495.1803677151095258
 20
81.6231267690955491
 30
0.0
 40
0.4867399737068085
 50
238.6463548976506956
 51
246.588920428938593
  0
ARC
  5
12037
  8
0
 10
495.2000440244955826
 20
81.7788116117331896
 30
0.0
 40
0.6424928753653476
 50
256.7067757659344807
 51
268.886892282510928
  0
ARC
  5
12038
  8
0
 10
495.0871850138415766
 20
81.4701909034873069
 30
0.0
 40
0.307652300192127
 50
212.9236153851703079
 51
238.6463548976506956
  0
ARC
  5
12039
  8
0
 10
495.0126178263594738
 20
81.4219076180701933
 30
0.0
 40
0.2188179537957674
 50
180.2798834012205873
 51
212.9236153851697111
  0
ARC
  5
1203A
  8
0
 10
495.1922313237479898
 20
81.2065064046399527
 30
0.0
 40
0.3555754717129276
 50
90.7522782629424682
 51
113.2313366821095997
  0
ARC
  5
1203B
  8
0
 10
495.1323132824380764
 20
81.346094772449689
 30
0.0
 40
0.2036706195777445
 50
113.2313366821095997
 51
145.4828506920601967
  0
ARC
  5
1203C
  8
0
 10
495.071250329838108
 20
81.3880890926248384
 30
0.0
 40
0.1295611930032877
 50
145.4828506920601967
 51
194.886678382954301
  0
ARC
  5
1203D
  8
0
 10
495.1125095711677204
 20
81.4088465262662027
 30
0.0
 40
0.1750242455510294
 50
197.9852985512694943
 51
241.3506542636293091
  0
ARC
  5
1203E
  8
0
 10
495.1912614809546085
 20
81.5557331018333969
 30
0.0
 40
0.3416875132667779
 50
241.5710106535956072
 51
269.3797834442960948
  0
ARC
  5
1203F
  8
0
 10
495.1916515783182717
 20
81.5469827836076746
 30
0.0
 40
0.3162402996194643
 50
235.4256446670729872
 51
269.2591912729474757
  0
ARC
  5
12040
  8
0
 10
495.0986171711533075
 20
81.405102192009025
 30
0.0
 40
0.1466745786509482
 50
197.2783743267027887
 51
233.8980596498433897
  0
ARC
  5
12041
  8
0
 10
495.0709379339003249
 20
81.3964925290077161
 30
0.0
 40
0.1176872284460458
 50
159.2862545062779134
 51
197.2783743267027887
  0
ARC
  5
12042
  8
0
 10
495.1017148675740032
 20
81.3848544563529543
 30
0.0
 40
0.1505910941986733
 50
129.0227203919752128
 51
159.2862545062785955
  0
ARC
  5
12043
  8
0
 10
495.1749780599034807
 20
81.293349873015373
 30
0.0
 40
0.2678101700391855
 50
109.9875651932883045
 51
128.8738192110918988
  0
ARC
  5
12044
  8
0
 10
495.0136706159408959
 20
81.4169939932947813
 30
0.0
 40
0.2199017455364197
 50
140.0076602587550951
 51
178.9981984171562033
  0
ARC
  5
12045
  8
0
 10
495.0812829859170279
 20
81.3602758810529139
 30
0.0
 40
0.3081535264253309
 50
121.2603625090043948
 51
140.0076602587550951
  0
ARC
  5
12046
  8
0
 10
495.2296263408795767
 20
81.1159132590987042
 30
0.0
 40
0.5940186029385111
 50
107.3451851275121953
 51
121.2603625090043948
  0
ARC
  5
12047
  8
0
 10
495.1929451858978268
 20
81.1925425360574877
 30
0.0
 40
0.5100834466147232
 50
90.6045893592090152
 51
105.9782913554826962
  0
ARC
  5
12048
  8
0
 10
495.0058926891529723
 20
81.4604369184644952
 30
0.0
 40
0.2158845585228227
 50
160.0361828224700105
 51
190.764788826465491
  0
ARC
  5
12049
  8
0
 10
495.0439097105274868
 20
81.4466270366079925
 30
0.0
 40
0.2563321388099468
 50
134.1646945805084101
 51
160.0361828224700105
  0
ARC
  5
1204A
  8
0
 10
495.170074893960475
 20
81.3167284789645493
 30
0.0
 40
0.4374157901662296
 50
123.3519510650899065
 51
134.1646945805084101
  0
ARC
  5
1204B
  8
0
 10
494.9727938737299837
 20
81.5192357188694388
 30
0.0
 40
0.1851298447123684
 50
145.7514528061516046
 51
179.6708811025440866
  0
ARC
  5
1204C
  8
0
 10
495.1079612140097765
 20
81.5184592809594193
 30
0.0
 40
0.3202994150088743
 50
179.6708811025440866
 51
187.6889742289764058
  0
ARC
  5
1204D
  8
0
 10
494.998848597635515
 20
81.5618667019672188
 30
0.0
 40
0.2133008817617437
 50
169.581480077184807
 51
188.6383495192175133
  0
ARC
  5
1204E
  8
0
 10
495.1991078195534897
 20
81.1708429288029407
 30
0.0
 40
0.4730940501082733
 50
91.3983347937271304
 51
109.6401526629425973
  0
ARC
  5
1204F
  8
0
 10
495.1142115700076261
 20
81.3484838538757487
 30
0.0
 40
0.2779917969848714
 50
105.4628106630718065
 51
158.3697307887780141
  0
ARC
  5
12050
  8
0
 10
495.028613453207015
 20
81.3824268668679025
 30
0.0
 40
0.1859094114227902
 50
158.3697307887780141
 51
205.8886675661732966
  0
ARC
  5
12051
  8
0
 10
495.0976337507592007
 20
81.4159244541056921
 30
0.0
 40
0.2626289645038739
 50
205.8886675661732966
 51
225.9179476803440139
  0
ARC
  5
12052
  8
0
 10
495.1133797398941283
 20
81.4321832423559897
 30
0.0
 40
0.2852626643605771
 50
225.9179476803440139
 51
257.6388409121379937
  0
ARC
  5
12053
  8
0
 10
490.4839006977451845
 20
82.2967097849392957
 30
0.0
 40
5.884912217135521
 50
0.0087006234012911
 51
4.7773374827819151
  0
ARC
  5
12054
  8
0
 10
495.7878242051475013
 20
82.7399726126844399
 30
0.0
 40
0.5624986193157177
 50
4.7780947043614503
 51
85.1083444697888751
  0
ARC
  5
12055
  8
0
 10
495.1875635893370031
 20
75.7242707603621881
 30
0.0
 40
7.6038326751250027
 50
85.1096053640624177
 51
90.0000055933826957
  0
ARC
  5
12056
  8
0
 10
495.7878088905515028
 20
81.8552589947923224
 30
0.0
 40
0.5625276054228183
 50
281.8608401721439805
 51
355.2127492857565016
  0
ARC
  5
12057
  8
0
 10
490.5210140885375836
 20
82.2963439178465563
 30
0.0
 40
5.8477601826956978
 50
355.2127492857558195
 51
357.2322514424724886
  0
ARC
  5
12058
  8
0
 10
490.4879753412465107
 20
82.2979411408844754
 30
0.0
 40
5.8808375154779933
 50
357.2322514424724886
 51
359.9967098063934827
  0
ARC
  5
12059
  8
0
 10
495.1702157143275826
 20
80.217824994587815
 30
0.0
 40
1.664519077934481
 50
75.8474882907843693
 51
89.4028692753622352
  0
ARC
  5
1205A
  8
0
 10
495.4603272616163849
 20
81.3917791499477801
 30
0.0
 40
0.4552990699121575
 50
34.34689686158071
 51
75.126385044271828
  0
ARC
  5
1205B
  8
0
 10
495.3022997175903015
 20
81.3603380650958456
 30
0.0
 40
0.6068117444930849
 50
12.9023317820930803
 51
28.3685956438214006
  0
ARC
  5
1205C
  8
0
 10
495.1328932393547007
 20
81.3359259042557738
 30
0.0
 40
0.7775186622405271
 50
2.7431388694619909
 51
11.8683286017518697
  0
ARC
  5
1205D
  8
0
 10
495.1395785046246942
 20
81.4072554816496705
 30
0.0
 40
0.7706980425062566
 50
347.5177512590058768
 51
357.4626951440454263
  0
ARC
  5
1205E
  8
0
 10
495.2840299949631913
 20
81.3857102843228404
 30
0.0
 40
0.6250872202358077
 50
331.4405659490784046
 51
346.584111845220491
  0
ARC
  5
1205F
  8
0
 10
495.4833683974355267
 20
81.3039646361614672
 30
0.0
 40
0.4115951714543397
 50
282.848453128316919
 51
328.1676601821495183
  0
ARC
  5
12060
  8
0
 10
495.188457526945399
 20
82.3598318239859424
 30
0.0
 40
1.507527906436376
 50
269.9659963931316042
 51
284.8529556861283822
  0
ARC
  5
12061
  8
0
 10
495.1722581891061168
 20
80.9280996246816215
 30
0.0
 40
0.8020494177733571
 50
70.2110394417454415
 51
88.9066190800106853
  0
ARC
  5
12062
  8
0
 10
495.2491041134434226
 20
81.1823595495920785
 30
0.0
 40
0.536964536039002
 50
51.0021426320439133
 51
68.741201308802772
  0
ARC
  5
12063
  8
0
 10
495.41445046898599
 20
81.3587190893569101
 30
0.0
 40
0.2963705924052756
 50
341.9934739429530168
 51
54.3912876346666607
  0
ARC
  5
12064
  8
0
 10
495.3180818428367047
 20
81.4277791977686576
 30
0.0
 40
0.410937492486657
 50
292.0246433957167937
 51
336.9833841376446912
  0
ARC
  5
12065
  8
0
 10
495.1759591540302949
 20
81.7560586800166647
 30
0.0
 40
0.7686053882313065
 50
270.8650315280863197
 51
292.6690540294169978
  0
ARC
  5
12066
  8
0
 10
495.1740093316356024
 20
81.6845862535118243
 30
0.0
 40
0.7250109128118919
 50
271.0711624530921995
 51
309.3719637177219965
  0
ARC
  5
12067
  8
0
 10
495.4407604762981236
 20
81.3420458582725274
 30
0.0
 40
0.2912087823935749
 50
311.5526750932667142
 51
355.9375585715728789
  0
ARC
  5
12068
  8
0
 10
495.4383957831108205
 20
81.3422138035907381
 30
0.0
 40
0.2935794319881351
 50
355.9375585715728789
 51
24.8218147154950017
  0
ARC
  5
12069
  8
0
 10
495.4022468721460086
 20
81.3254939570099111
 30
0.0
 40
0.3334077765888238
 50
24.8218147154950017
 51
44.0141336578781903
  0
ARC
  5
1206A
  8
0
 10
495.4685954146831932
 20
81.3895976370055934
 30
0.0
 40
0.2411504685541478
 50
44.0141336578781903
 51
60.5906850250931228
  0
ARC
  5
1206B
  8
0
 10
495.1947579789472229
 20
81.6231267690955491
 30
0.0
 40
0.4867399737068085
 50
293.4110795710612933
 51
301.3536451023492759
  0
ARC
  5
1206C
  8
0
 10
495.1703019566260764
 20
81.8166301295011351
 30
0.0
 40
0.6804091267563795
 50
271.4536581585899739
 51
282.9526737929684828
  0
ARC
  5
1206D
  8
0
 10
495.2879406802148878
 20
81.4701909034873069
 30
0.0
 40
0.307652300192127
 50
301.3536451023492759
 51
327.0763846148295784
  0
ARC
  5
1206E
  8
0
 10
495.3625078676971043
 20
81.4219076180701933
 30
0.0
 40
0.2188179537957674
 50
327.0763846148303173
 51
359.7201165987793843
  0
ARC
  5
1206F
  8
0
 10
495.1828943703085883
 20
81.2065064046399527
 30
0.0
 40
0.3555754717129276
 50
66.7686633178903861
 51
89.2477217370575175
  0
ARC
  5
12070
  8
0
 10
495.2428124116186154
 20
81.346094772449689
 30
0.0
 40
0.2036706195777445
 50
34.5171493079398033
 51
66.7686633178903861
  0
ARC
  5
12071
  8
0
 10
495.303875364218527
 20
81.3880890926248384
 30
0.0
 40
0.1295611930032877
 50
345.1133216170455853
 51
34.5171493079398033
  0
ARC
  5
12072
  8
0
 10
495.2626161228888009
 20
81.4088465262662027
 30
0.0
 40
0.1750242455510294
 50
298.6493457363707762
 51
342.0147014487304773
  0
ARC
  5
12073
  8
0
 10
495.1732075736331922
 20
81.596866396476031
 30
0.0
 40
0.3830698605709932
 50
272.147621867934788
 51
296.9015840341754142
  0
ARC
  5
12074
  8
0
 10
495.1848176015005834
 20
81.5427623011912033
 30
0.0
 40
0.3120054616472577
 50
270.5041354443387718
 51
304.8110286156434086
  0
ARC
  5
12075
  8
0
 10
495.2765085229033275
 20
81.405102192009025
 30
0.0
 40
0.1466745786509482
 50
306.1019403501564966
 51
342.7216256732971829
  0
ARC
  5
12076
  8
0
 10
495.3041877601561964
 20
81.3964925290077161
 30
0.0
 40
0.1176872284460458
 50
342.7216256732971829
 51
20.7137454937221115
  0
ARC
  5
12077
  8
0
 10
495.273410826482575
 20
81.3848544563529543
 30
0.0
 40
0.1505910941986733
 50
20.7137454937213512
 51
50.9772796080247872
  0
ARC
  5
12078
  8
0
 10
495.2001476341529838
 20
81.293349873015373
 30
0.0
 40
0.2678101700391855
 50
51.1261807889080586
 51
70.0124348067116671
  0
ARC
  5
12079
  8
0
 10
495.3614550781156254
 20
81.4169939932947813
 30
0.0
 40
0.2199017455364197
 50
1.0018015828438449
 51
39.9923397412448978
  0
ARC
  5
1207A
  8
0
 10
495.2938427081396071
 20
81.3602758810529139
 30
0.0
 40
0.3081535264253309
 50
39.9923397412442725
 51
58.739637490995527
  0
ARC
  5
1207B
  8
0
 10
495.1454993531770015
 20
81.1159132590987042
 30
0.0
 40
0.5940186029385111
 50
58.739637490995527
 51
72.6548148724877763
  0
ARC
  5
1207C
  8
0
 10
495.17727464571459
 20
81.1588788649138877
 30
0.0
 40
0.5438160476157154
 50
74.5011359951579664
 51
88.9159832901509333
  0
ARC
  5
1207D
  8
0
 10
495.3692330049037196
 20
81.4604369184644952
 30
0.0
 40
0.2158845585228227
 50
349.2352111735344238
 51
19.9638171775300108
  0
ARC
  5
1207E
  8
0
 10
495.3312159835290913
 20
81.4466270366079925
 30
0.0
 40
0.2563321388099468
 50
19.9638171775300108
 51
45.8353054194915615
  0
ARC
  5
1207F
  8
0
 10
495.2050508000962168
 20
81.3167284789645493
 30
0.0
 40
0.4374157901662296
 50
45.8353054194915615
 51
56.6480489349100367
  0
ARC
  5
12080
  8
0
 10
495.4023318203264807
 20
81.5192357188694388
 30
0.0
 40
0.1851298447123684
 50
0.3291188974558273
 51
34.2485471938484523
  0
ARC
  5
12081
  8
0
 10
495.2671644800466879
 20
81.5184592809594193
 30
0.0
 40
0.3202994150088743
 50
352.3110257710237079
 51
0.3291188974558273
  0
ARC
  5
12082
  8
0
 10
495.3762770964210063
 20
81.5618667019672188
 30
0.0
 40
0.2133008817617437
 50
351.3616504807824867
 51
10.4185199228151806
  0
ARC
  5
12083
  8
0
 10
495.1760178745030885
 20
81.1708429288029407
 30
0.0
 40
0.4730940501082733
 50
70.3598473370573032
 51
88.6016652062728554
  0
ARC
  5
12084
  8
0
 10
495.2609141240491226
 20
81.3484838538757487
 30
0.0
 40
0.2779917969848714
 50
21.6302692112219717
 51
74.5371893369313341
  0
ARC
  5
12085
  8
0
 10
495.3465122408496768
 20
81.3824268668679025
 30
0.0
 40
0.1859094114227902
 50
334.1113324338267034
 51
21.6302692112219717
  0
ARC
  5
12086
  8
0
 10
495.2774919432973206
 20
81.4159244541056921
 30
0.0
 40
0.2626289645038739
 50
314.0820523196559861
 51
334.1113324338267034
  0
ARC
  5
12087
  8
0
 10
495.2617459541625067
 20
81.4321832423559897
 30
0.0
 40
0.2852626643605771
 50
282.36115908786212
 51
314.0820523196559861
  0
ARC
  5
12089
  8
0
 10
495.2503526624599886
 20
74.1374213970498204
 30
0.0
 40
9.0978903744750124
 50
90.395434527472716
 51
94.295522171958126
  0
ARC
  5
1208A
  8
0
 10
494.6044872810940092
 20
82.7124766461511172
 30
0.0
 40
0.4985498607948084
 50
94.0917950324521399
 51
96.3824340068842957
  0
ARC
  5
1208B
  8
0
 10
494.6051110509062028
 20
82.7069001798109156
 30
0.0
 40
0.5041611053645979
 50
96.3824340068842957
 51
130.2248788801406931
  0
ARC
  5
1208C
  8
0
 10
494.5715393193253249
 20
82.7465919871113869
 30
0.0
 40
0.4521755234392888
 50
130.2248788801406931
 51
176.1422452292831906
  0
ARC
  5
1208D
  8
0
 10
500.0260052789122938
 20
82.2971614399442331
 30
0.0
 40
5.9250797402583144
 50
175.3547154289780963
 51
184.5001573037374101
  0
ARC
  5
1208E
  8
0
 10
494.5973381473889958
 20
81.8632949794981641
 30
0.0
 40
0.4791518506165839
 50
183.7126275034327989
 51
253.933813149289108
  0
ARC
  5
1208F
  8
0
 10
494.8522360860285971
 20
82.6329279013671538
 30
0.0
 40
0.3253945071834683
 50
96.5047978768615167
 51
173.4947920812691962
  0
ARC
  5
12090
  8
0
 10
495.2183196206186722
 20
79.1411076494656953
 30
0.0
 40
3.8363402184816011
 50
90.4593576420519554
 51
96.029127744450463
  0
ARC
  5
12091
  8
0
 10
480.922910268371993
 20
83.1380225849293879
 30
0.0
 40
13.6140805849051194
 50
354.8027482955116056
 51
358.0290336830527735
  0
ARC
  5
12092
  8
0
 10
498.7746593366312027
 20
81.5142495295359311
 30
0.0
 40
4.3113645624689809
 50
174.8027482955116056
 51
181.8756494212204018
  0
ARC
  5
12093
  8
0
 10
495.1247730315965896
 20
74.1374213970498204
 30
0.0
 40
9.0978903744750124
 50
85.7044778280418456
 51
89.604565472527284
  0
ARC
  5
12094
  8
0
 10
495.7700146431503754
 20
82.7069001798109156
 30
0.0
 40
0.5041611053645979
 50
49.7751211198592785
 51
83.6175659931189443
  0
ARC
  5
12095
  8
0
 10
495.8035863747311964
 20
82.7465919871113869
 30
0.0
 40
0.4521755234392888
 50
3.8577547707168138
 51
49.7751211198592785
  0
ARC
  5
12096
  8
0
 10
490.3491204151442844
 20
82.2971614399442331
 30
0.0
 40
5.9250797402583144
 50
355.4998426962625899
 51
4.6452845710218842
  0
ARC
  5
12097
  8
0
 10
495.7777875466675823
 20
81.8632949794981641
 30
0.0
 40
0.4791518506165839
 50
286.0661868507110057
 51
356.2873724965671727
  0
ARC
  5
12098
  8
0
 10
495.522889608027981
 20
82.6329279013671538
 30
0.0
 40
0.3253945071834683
 50
6.505207918730755
 51
83.4952021231384833
  0
ARC
  5
12099
  8
0
 10
495.1568060734380197
 20
79.1411076494656953
 30
0.0
 40
3.8363402184816011
 50
83.970872255549537
 51
89.540642357948073
  0
ARC
  5
1209A
  8
0
 10
509.4522154256845852
 20
83.1380225849293879
 30
0.0
 40
13.6140805849051194
 50
181.970966316947198
 51
185.1972517044883944
  0
ARC
  5
1209B
  8
0
 10
491.6004663574253186
 20
81.5142495295359311
 30
0.0
 40
4.3113645624689809
 50
358.1243505787796266
 51
5.1972517044884299
  0
ENDSEC
  0
EOF
