  0
SECTION
  2
HEADER
  9
$ACADVER
  1
AC1009
  9
$INSBASE
 10
4198.1721083139682378
 20
196.6244893770146973
 30
0.0
  9
$EXTMIN
 10
4191.0922836880909017
 20
190.3917507943646967
 30
0.0
  9
$EXTMAX
 10
4205.2519329398437549
 20
197.5355260230647048
 30
0.0
  9
$LIMMIN
 10
0.0
 20
0.0
  9
$LIMMAX
 10
11.6929133858000007
 20
8.2677165353999982
  9
$ORTHOMODE
 70
     1
  9
$REGENMODE
 70
     1
  9
$FILLMODE
 70
     1
  9
$QTEXTMODE
 70
     0
  9
$MIRRTEXT
 70
     0
  9
$DRAGMODE
 70
     2
  9
$LTSCALE
 40
0.6431102362
  9
$OSMODE
 70
  4095
  9
$ATTMODE
 70
     1
  9
$TEXTSIZE
 40
0.2
  9
$TRACEWID
 40
0.05
  9
$TEXTSTYLE
  7
STANDARD
  9
$CLAYER
  8
0
  9
$CELTYPE
  6
BYLAYER
  9
$CECOLOR
 62
   256
  9
$DIMSCALE
 40
1.0
  9
$DIMASZ
 40
0.1875
  9
$DIMEXO
 40
0.0625
  9
$DIMDLI
 40
0.4443307087
  9
$DIMRND
 40
0.0
  9
$DIMDLE
 40
0.0
  9
$DIMEXE
 40
0.125
  9
$DIMTP
 40
0.01
  9
$DIMTM
 40
0.01
  9
$DIMTXT
 40
2.0
  9
$DIMCEN
 40
0.1052362205
  9
$DIMTSZ
 40
0.0
  9
$DIMTOL
 70
     1
  9
$DIMLIM
 70
     0
  9
$DIMTIH
 70
     1
  9
$DIMTOH
 70
     1
  9
$DIMSE1
 70
     0
  9
$DIMSE2
 70
     0
  9
$DIMTAD
 70
     0
  9
$DIMZIN
 70
     0
  9
$DIMBLK
  1

  9
$DIMASO
 70
     1
  9
$DIMSHO
 70
     1
  9
$DIMPOST
  1
\X
  9
$DIMAPOST
  1

  9
$DIMALT
 70
     1
  9
$DIMALTD
 70
     2
  9
$DIMALTF
 40
25.3999999999999986
  9
$DIMLFAC
 40
1.0
  9
$DIMTOFL
 70
     0
  9
$DIMTVP
 40
0.0
  9
$DIMTIX
 70
     0
  9
$DIMSOXD
 70
     0
  9
$DIMSAH
 70
     0
  9
$DIMBLK1
  1

  9
$DIMBLK2
  1

  9
$DIMSTYLE
  2
STANDARD
  9
$DIMCLRD
 70
     0
  9
$DIMCLRE
 70
     0
  9
$DIMCLRT
 70
     0
  9
$DIMTFAC
 40
1.0
  9
$DIMGAP
 40
0.09
  9
$LUNITS
 70
     2
  9
$LUPREC
 70
     4
  9
$SKETCHINC
 40
0.1
  9
$FILLETRAD
 40
0.0
  9
$AUNITS
 70
     0
  9
$AUPREC
 70
     0
  9
$MENU
  1
.
  9
$ELEVATION
 40
0.0
  9
$PELEVATION
 40
0.0
  9
$THICKNESS
 40
0.0
  9
$LIMCHECK
 70
     0
  9
$BLIPMODE
 70
     0
  9
$CHAMFERA
 40
0.0
  9
$CHAMFERB
 40
0.0
  9
$SKPOLY
 70
     0
  9
$TDCREATE
 40
2458060.468368056230247
  9
$TDUPDATE
 40
2459485.7352430559694767
  9
$TDINDWG
 40
0.4367084491
  9
$TDUSRTIMER
 40
0.4367084491
  9
$USRTIMER
 70
     1
  9
$ANGBASE
 50
0.0
  9
$ANGDIR
 70
     0
  9
$PDMODE
 70
     0
  9
$PDSIZE
 40
0.3125
  9
$PLINEWID
 40
0.0
  9
$COORDS
 70
     1
  9
$SPLFRAME
 70
     0
  9
$SPLINETYPE
 70
     6
  9
$SPLINESEGS
 70
     8
  9
$ATTDIA
 70
     1
  9
$ATTREQ
 70
     1
  9
$HANDLING
 70
     1
  9
$HANDSEED
  5
F00E
  9
$SURFTAB1
 70
     6
  9
$SURFTAB2
 70
     6
  9
$SURFTYPE
 70
     6
  9
$SURFU
 70
     6
  9
$SURFV
 70
     6
  9
$UCSNAME
  2

  9
$UCSORG
 10
0.0
 20
0.0
 30
0.0
  9
$UCSXDIR
 10
1.0
 20
0.0
 30
0.0
  9
$UCSYDIR
 10
0.0
 20
1.0
 30
0.0
  9
$PUCSNAME
  2

  9
$PUCSORG
 10
0.0
 20
0.0
 30
0.0
  9
$PUCSXDIR
 10
1.0
 20
0.0
 30
0.0
  9
$PUCSYDIR
 10
0.0
 20
1.0
 30
0.0
  9
$USERI1
 70
     0
  9
$USERI2
 70
     0
  9
$USERI3
 70
     0
  9
$USERI4
 70
     0
  9
$USERI5
 70
     0
  9
$USERR1
 40
0.0
  9
$USERR2
 40
0.0
  9
$USERR3
 40
0.0
  9
$USERR4
 40
0.0
  9
$USERR5
 40
0.0
  9
$WORLDVIEW
 70
     1
  9
$SHADEDGE
 70
     3
  9
$SHADEDIF
 70
    70
  9
$TILEMODE
 70
     1
  9
$MAXACTVP
 70
    64
  9
$PLIMCHECK
 70
     0
  9
$PEXTMIN
 10
1.0000000000000000E+20
 20
1.0000000000000000E+20
 30
1.0000000000000000E+20
  9
$PEXTMAX
 10
-1.0000000000000000E+20
 20
-1.0000000000000000E+20
 30
-1.0000000000000000E+20
  9
$PLIMMIN
 10
0.0
 20
0.0
  9
$PLIMMAX
 10
12.0
 20
9.0
  9
$UNITMODE
 70
     0
  9
$VISRETAIN
 70
     1
  9
$PLINEGEN
 70
     0
  9
$PSLTSCALE
 70
     1
  0
ENDSEC
  0
SECTION
  2
TABLES
  0
TABLE
  2
VPORT
 70
     1
  0
VPORT
  2
*ACTIVE
 70
     0
 10
0.0
 20
0.0
 11
1.0
 21
1.0
 12
394.6075585400822092
 22
67.9631785433583815
 13
0.0
 23
0.0
 14
1.0
 24
1.0
 15
0.0
 25
0.0
 16
0.0
 26
0.0
 36
17.1152628219792007
 17
3803.5440673828129547
 27
125.9952621967499056
 37
0.0
 40
7.819683514071146
 41
2.7718023255813948
 42
50.0
 43
0.0
 44
0.0
 50
0.0
 51
0.0
 71
     0
 72
   100
 73
     1
 74
     1
 75
     0
 76
     0
 77
     0
 78
     0
  0
ENDTAB
  0
TABLE
  2
LTYPE
 70
     2
  0
LTYPE
  2
CONTINUOUS
 70
     0
  3
Solid line
 72
    65
 73
     0
 40
0.0
  0
LTYPE
  2
PHANTOM2
 70
     0
  3
___ _ _ ___ _ _ ___ _ _ ___ _ _
 72
    65
 73
     6
 40
1.25
 49
0.625
 49
-0.125
 49
0.125
 49
-0.125
 49
0.125
 49
-0.125
  0
ENDTAB
  0
TABLE
  2
LAYER
 70
     2
  0
LAYER
  2
0
 70
     0
 62
   255
  6
CONTINUOUS
  0
LAYER
  2
DEFPOINTS
 70
     0
 62
     7
  6
CONTINUOUS
  0
ENDTAB
  0
TABLE
  2
STYLE
 70
     1
  0
STYLE
  2
STANDARD
 70
     0
 40
0.0
 41
0.8
 50
0.0
 71
     0
 42
0.2
  3
txt
  4

  0
ENDTAB
  0
TABLE
  2
VIEW
 70
     0
  0
ENDTAB
  0
TABLE
  2
UCS
 70
     0
  0
ENDTAB
  0
TABLE
  2
APPID
 70
     9
  0
APPID
  2
ACAD
 70
     0
  0
APPID
  2
ACAD_MLEADERVER
 70
     0
  0
APPID
  2
ACAD_EXEMPT_FROM_CAD_STANDARDS
 70
     0
  0
APPID
  2
ACAD_NAV_VCDISPLAY
 70
     0
  0
APPID
  2
ACAECLAYERSTANDARD
 70
     0
  0
APPID
  2
ACCMTRANSPARENCY
 70
     0
  0
APPID
  2
ACAD_DSTYLE_DIMJAG
 70
     0
  0
APPID
  2
ACAD_DSTYLE_DIMTALN
 70
     0
  0
APPID
  2
ACDBATTR
 70
     0
  0
ENDTAB
  0
TABLE
  2
DIMSTYLE
 70
     1
  0
DIMSTYLE
  2
STANDARD
 70
     0
  3

  4

  5

  6

  7

 40
1.0
 41
0.1875
 42
0.0625
 43
0.38
 44
0.125
 45
0.0
 46
0.0
 47
0.01
 48
0.01
140
0.15625
141
0.09
142
0.0
143
25.3999999999999986
144
1.0
145
0.0
146
1.0
147
0.09
 71
     1
 72
     0
 73
     1
 74
     1
 75
     0
 76
     0
 77
     0
 78
     4
170
     0
171
     2
172
     0
173
     0
174
     0
175
     0
176
     0
177
     0
178
     0
  0
ENDTAB
  0
ENDSEC
  0
SECTION
  2
BLOCKS
  0
BLOCK
  8
0
  2
$MODEL_SPACE
 70
     0
 10
0.0
 20
0.0
 30
0.0
  3
$MODEL_SPACE
  1

  0
ENDBLK
  5
21
  8
0
  0
BLOCK
 67
     1
  8
0
  2
$PAPER_SPACE
 70
     0
 10
0.0
 20
0.0
 30
0.0
  3
$PAPER_SPACE
  1

  0
ENDBLK
  5
1D
 67
     1
  8
0
  0
BLOCK
  8
0
  2
_FILLED
 70
     0
 10
0.0
 20
0.0
 30
0.0
  3
_FILLED
  1

  0
SOLID
  5
EDB1
  8
0
  6
BYBLOCK
 62
     0
 10
0.0
 20
0.0
 30
0.0
 11
-1.0
 21
0.1666666667
 31
0.0
 12
-1.0
 22
-0.1666666667
 32
0.0
 13
-1.0
 23
-0.1666666667
 33
0.0
  0
ENDBLK
  5
EDB2
  8
0
  6
BYBLOCK
 62
     0
  0
ENDSEC
  0
SECTION
  2
ENTITIES
  0
ATTDEF
  5
E8BE
  8
DEFPOINTS
 10
4198.1729766372709491
 20
196.6292423995998888
 30
0.0
 40
0.001
  1
P24736-LV
  3

  2
MODELNUMBER
 70
     0
1001
ACDBATTR
1070
     0
1070
     1
  0
ATTDEF
  5
E8BF
  8
DEFPOINTS
 10
4198.1729766372709491
 20
196.6275757329331952
 30
0.0
 40
0.001
  1
PER SE
  3

  2
TRADENAME
 70
     0
1001
ACDBATTR
1070
     0
1070
     1
  0
ATTDEF
  5
E8C0
  8
DEFPOINTS
 10
4198.1729766372709491
 20
196.6259090662665869
 30
0.0
 40
0.001
  1
BATHROOM SINK FAUCET
  3

  2
PRODUCT
 70
     0
1001
ACDBATTR
1070
     0
1070
     1
  0
ARC
  5
EE1E
  8
0
 10
4198.1721083131169507
 20
190.3566221747666134
 30
0.0
 40
6.7598622276980729
 50
89.9999999928087959
 51
95.4956952106112169
  0
ARC
  5
EE1F
  8
0
 10
4197.5381144542316179
 20
196.9460894314644861
 30
0.0
 40
0.1399659339335631
 50
95.4956952106112169
 51
170.8432126763734118
  0
ARC
  5
EE20
  8
0
 10
4199.5332659103351034
 20
196.6244894432674926
 30
0.0
 40
2.160870653408919
 50
170.8432126763734118
 51
189.1567939619237961
  0
ARC
  5
EE21
  8
0
 10
4197.5380895153866732
 20
196.3028851979912019
 30
0.0
 40
0.139940635437581
 50
189.1567939619237961
 51
263.327929971450601
  0
ARC
  5
EE22
  8
0
 10
4189.08146136209416
 20
195.6018620628761084
 30
0.0
 40
8.4590779583859934
 50
1.5237740424125961
 51
3.8096083631574289
  0
ARC
  5
EE23
  8
0
 10
4128.7168620954389553
 20
193.9960945479676013
 30
0.0
 40
68.8450310761088105
 50
359.7830500514535856
 51
1.5237740424125961
  0
ARC
  5
EE24
  8
0
 10
4299.6591558519539831
 20
193.3489982221335879
 30
0.0
 40
102.0984874568117959
 50
179.7831500587525966
 51
181.4912783608280904
  0
ARC
  5
EE25
  8
0
 10
4197.898784640606209
 20
190.6953050992034093
 30
0.0
 40
0.3035543050237093
 50
180.6412779562641049
 51
269.9979994820834008
  0
LINE
  5
EE26
  8
0
 10
4197.8987740418160683
 20
190.3917507943646967
 30
0.0
 11
4198.1721083139682378
 21
190.3917507943646967
 31
0.0
  0
ARC
  5
EE27
  8
0
 10
4198.1554785687476397
 20
188.3435066647618044
 30
0.0
 40
9.1872194421468762
 50
89.8962556116836282
 51
93.9078290841503076
  0
ARC
  5
EE28
  8
0
 10
4198.116274810966388
 20
188.5898683793986947
 30
0.0
 40
8.9387865980203713
 50
93.7647452933202317
 51
95.0039516982917291
  0
ARC
  5
EE29
  8
0
 10
4197.3693774307921558
 20
197.122075936868498
 30
0.0
 40
0.3739502984505292
 50
95.029446318683199
 51
172.3423750908939951
  0
ARC
  5
EE2A
  8
0
 10
4201.4052385008508281
 20
196.6242092872979015
 30
0.0
 40
4.4403836271330048
 50
172.9148393322948891
 51
179.9963859072747141
  0
ARC
  5
EE2B
  8
0
 10
4197.3690166032220077
 20
196.1266391792719048
 30
0.0
 40
0.3736081712263349
 50
186.9897973933894093
 51
264.9331985706766091
  0
ARC
  5
EE2C
  8
0
 10
4197.8059162822637518
 20
200.4839334327305096
 30
0.0
 40
4.752728528522038
 50
264.325975952027477
 51
266.7906357043427192
  0
ARC
  5
EE2D
  8
0
 10
4193.8431922217951069
 20
196.9650594340606062
 30
0.0
 40
0.1658752908284001
 50
99.8449932359135488
 51
143.1691182753910141
  0
ARC
  5
EE2E
  8
0
 10
4194.1721017678528369
 20
194.3417442974613039
 30
0.0
 40
2.8095561631106731
 50
82.6940587244947523
 51
97.3056805338493547
  0
ARC
  5
EE2F
  8
0
 10
4194.500881937212398
 20
196.9642436464139905
 30
0.0
 40
0.1667017528242961
 50
11.3656687549854603
 51
80.1547460224195589
  0
ARC
  5
EE30
  8
0
 10
4192.751114298014727
 20
196.6125195455389019
 30
0.0
 40
1.9514697025360961
 50
0.3514403142741452
 51
11.3656687704883907
  0
ARC
  5
EE32
  8
0
 10
4192.4745805022694185
 20
196.6245077659013134
 30
0.0
 40
1.382296814176815
 50
168.4162557680355974
 51
180.0007622137148928
  0
ARC
  5
EE33
  8
0
 10
4191.2669407341063561
 20
196.8720435970714107
 30
0.0
 40
0.1495487469064501
 50
90.3226163071313977
 51
168.4162675321666995
  0
ARC
  5
EE34
  8
0
 10
4189.4704506600655805
 20
515.9204273694695075
 30
0.0
 40
318.9038928022570758
 50
270.3226163071313977
 51
270.6790420129665904
  0
ARC
  5
EE35
  8
0
 10
4193.1640779971812663
 20
202.7460746782302863
 30
0.0
 40
5.7077885998927327
 50
270.8611039843896151
 51
275.4927286110004729
  0
ARC
  5
EE36
  8
0
 10
4195.0786265524566261
 20
196.8550882007131975
 30
0.0
 40
2.1081765124862901
 50
171.4811857491405078
 51
175.0818687032949015
  0
ARC
  5
EE37
  8
0
 10
4193.3820847743827471
 20
197.1092076337714047
 30
0.0
 40
0.3927084448716993
 50
97.3044262670132838
 51
171.4811857491405078
  0
ARC
  5
EE38
  8
0
 10
4194.1721083060756428
 20
187.9304425337568034
 30
0.0
 40
9.6050834893079031
 50
84.9831508107068458
 51
95.0168549601469863
  0
ARC
  5
EE39
  8
0
 10
4194.9792680954096795
 20
197.1251652544900992
 30
0.0
 40
0.3750004541095122
 50
7.0578572706126499
 51
84.983317157322233
  0
ARC
  5
EE3A
  8
0
 10
4190.9354167413530377
 20
196.6244950446024973
 30
0.0
 40
4.4497279827644229
 50
359.9999270227609145
 51
7.0578845952420242
  0
ARC
  5
EE3B
  8
0
 10
4193.8431922217951069
 20
196.2839193199687884
 30
0.0
 40
0.1658752908284001
 50
216.8308817246089859
 51
260.1550067640864086
  0
ARC
  5
EE3C
  8
0
 10
4194.1721017678528369
 20
198.9072344565680908
 30
0.0
 40
2.8095561631106731
 50
262.6943194661507164
 51
277.3059412755051767
  0
ARC
  5
EE3D
  8
0
 10
4194.500881937212398
 20
196.2847351076154894
 30
0.0
 40
0.1667017528242961
 50
279.8452539775805121
 51
348.6343312450144936
  0
ARC
  5
EE3E
  8
0
 10
4192.7511142980138175
 20
196.6364592084906064
 30
0.0
 40
1.9514697025362111
 50
348.6343312295131796
 51
359.6485596857258997
  0
ARC
  5
EE3F
  8
0
 10
4192.4745805022994318
 20
196.6244709881314066
 30
0.0
 40
1.3822968142082039
 50
179.9992377864170123
 51
191.5837442318278931
  0
ARC
  5
EE40
  8
0
 10
4191.2669407341063561
 20
196.3769351569580977
 30
0.0
 40
0.1495487469064501
 50
191.5837324678333005
 51
269.6773836928686023
  0
ARC
  5
EE41
  8
0
 10
4189.4704506600655805
 20
-122.6714486154399992
 30
0.0
 40
318.9038928022570758
 50
89.3209579870333101
 51
89.6773836928686165
  0
ARC
  5
EE42
  8
0
 10
4193.1640779971812663
 20
190.5029040757991936
 30
0.0
 40
5.7077885998927327
 50
84.5072713889994844
 51
89.1388960156103991
  0
ARC
  5
EE43
  8
0
 10
4195.0786265524566261
 20
196.3938905533161972
 30
0.0
 40
2.1081765124862901
 50
184.9181312967050985
 51
188.5188142508594922
  0
ARC
  5
EE44
  8
0
 10
4193.3820847743827471
 20
196.1397711202581036
 30
0.0
 40
0.3927084448716993
 50
188.5188142508594922
 51
262.695573732986702
  0
ARC
  5
EE45
  8
0
 10
4194.1721083060756428
 20
205.3185362202725912
 30
0.0
 40
9.6050834893079031
 50
264.9831450398530137
 51
275.0168491892932252
  0
ARC
  5
EE46
  8
0
 10
4194.9792680954096795
 20
196.1238134995394091
 30
0.0
 40
0.3750004541095122
 50
275.0166828426777101
 51
352.9421427293872853
  0
ARC
  5
EE47
  8
0
 10
4190.9354167413703181
 20
196.6244837094259026
 30
0.0
 40
4.4497279827482119
 50
352.9421154047449818
 51
0.0000729772504935
  0
ARC
  5
EE48
  8
0
 10
4201.4652671600133544
 20
196.6278918088123078
 30
0.0
 40
4.5004135636253197
 50
180.0433171303922961
 51
186.9776245475156884
  0
ARC
  5
EE49
  8
0
 10
4198.1721083148177058
 20
190.3566221747666134
 30
0.0
 40
6.7598622276980729
 50
84.5043047893888257
 51
90.0000000071912041
  0
ARC
  5
EE4A
  8
0
 10
4198.8061021737021292
 20
196.9460894314644861
 30
0.0
 40
0.1399659339335631
 50
9.1567873236266077
 51
84.5043047893888257
  0
ARC
  5
EE4B
  8
0
 10
4196.8109507175986437
 20
196.6244894432674926
 30
0.0
 40
2.160870653408919
 50
350.8432060380761754
 51
9.1567873236266077
  0
ARC
  5
EE4C
  8
0
 10
4198.8061271125470739
 20
196.3028851979912019
 30
0.0
 40
0.139940635437581
 50
276.672070028549399
 51
350.8432060380761754
  0
ARC
  5
EE4D
  8
0
 10
4207.2627552658395871
 20
195.6018620628761084
 30
0.0
 40
8.4590779583859934
 50
176.1903916368424916
 51
178.4762259575873884
  0
ARC
  5
EE4E
  8
0
 10
4267.6273545324947918
 20
193.9960945479676013
 30
0.0
 40
68.8450310761088105
 50
178.4762259575873884
 51
180.2169499485463859
  0
ARC
  5
EE4F
  8
0
 10
4096.685060775977945
 20
193.3489982221335879
 30
0.0
 40
102.0984874568130039
 50
358.5087216391718812
 51
0.2168499412473894
  0
ARC
  5
EE50
  8
0
 10
4198.4454319873293571
 20
190.6953050992034093
 30
0.0
 40
0.3035543050237093
 50
270.0020005179165992
 51
359.3587220437358951
  0
LINE
  5
EE51
  8
0
 10
4198.4454425861176787
 20
190.3917507943646967
 30
0.0
 11
4198.1721083139682378
 21
190.3917507943646967
 31
0.0
  0
ARC
  5
EE52
  8
0
 10
4198.1887388634722811
 20
188.3435225146099015
 30
0.0
 40
9.1872035743366958
 50
86.0921691835346934
 51
90.1036825933771865
  0
ARC
  5
EE53
  8
0
 10
4198.2279418169682685
 20
188.5898683793986947
 30
0.0
 40
8.9387865980203713
 50
84.9960483017082709
 51
86.2352547066797825
  0
ARC
  5
EE54
  8
0
 10
4198.9748391971415913
 20
197.122075936868498
 30
0.0
 40
0.3739502984505292
 50
7.6576249091059516
 51
84.9705536813167868
  0
ARC
  5
EE55
  8
0
 10
4194.9389781270829189
 20
196.6242092872979015
 30
0.0
 40
4.4403836271330048
 50
0.0036140927252741
 51
7.0851606677051047
  0
ARC
  5
EE56
  8
0
 10
4198.9752000247126489
 20
196.1266391792719048
 30
0.0
 40
0.3736081712263349
 50
275.0668014293233909
 51
353.0102026066106191
  0
ARC
  5
EE57
  8
0
 10
4198.5383003456709048
 20
200.4839334327305096
 30
0.0
 40
4.752728528522038
 50
273.2093642956573945
 51
275.674024047972523
  0
ARC
  5
EE58
  8
0
 10
4194.8789494679231211
 20
196.6278918088123078
 30
0.0
 40
4.5004135636253197
 50
353.0223754524826063
 51
359.9566828696076755
  0
ARC
  5
EE59
  8
0
 10
4210.2883496085451043
 20
205.6004462090857885
 30
0.0
 40
15.5121138038159092
 50
213.8118067217407088
 51
214.3932541992527092
  0
ARC
  5
EE5A
  8
0
 10
4197.3536737802187417
 20
196.7765203463426928
 30
0.0
 40
0.1478349663437754
 50
3.9300930758794319
 51
24.6253871354646101
  0
ARC
  5
EE5B
  8
0
 10
4229.9457739982690327
 20
197.5603365550122987
 30
0.0
 40
32.4538363304048616
 50
181.3660329847500066
 51
182.4765716316051112
  0
ARC
  5
EE5C
  8
0
 10
4186.0558670193895523
 20
205.6004462090857885
 30
0.0
 40
15.5121138038159092
 50
325.6067458007473192
 51
326.1881932782592912
  0
ARC
  5
EE5D
  8
0
 10
4198.9905428477150053
 20
196.7765203463426928
 30
0.0
 40
0.1478349663437754
 50
155.3746128645354077
 51
176.0699069241204882
  0
ARC
  5
EE5E
  8
0
 10
4166.3984426296647143
 20
197.5603365550122987
 30
0.0
 40
32.4538363304048616
 50
357.5234283683948888
 51
358.6339670152499934
  0
ARC
  5
EE5F
  8
0
 10
4194.3874174228330958
 20
197.2833553300145013
 30
0.0
 40
0.2018328469357945
 50
284.511305272268828
 51
310.494034500468274
  0
ARC
  5
EE60
  8
0
 10
4193.4225202074712797
 20
217.2809493557764995
 30
0.0
 40
20.2185050608311485
 50
270.815898300559013
 51
272.8788811463904267
  0
ARC
  5
EE61
  8
0
 10
4194.3874174228330958
 20
195.9656234240148933
 30
0.0
 40
0.2018328469357945
 50
49.5059654995316905
 51
75.488694727731172
  0
ARC
  5
EE62
  8
0
 10
4193.4225202074712797
 20
175.9680293982530088
 30
0.0
 40
20.2185050608311485
 50
87.1211188536096444
 51
89.1841016994409728
  0
ARC
  5
EE63
  8
0
 10
4202.5010244061395497
 20
196.9650594340606062
 30
0.0
 40
0.1658752908284001
 50
36.8308817246090214
 51
80.1550067640864512
  0
ARC
  5
EE64
  8
0
 10
4202.1721148600818196
 20
194.3417442974613039
 30
0.0
 40
2.8095561631106731
 50
82.6943194661506453
 51
97.3059412755052335
  0
ARC
  5
EE65
  8
0
 10
4201.8433346907222585
 20
196.9642436464139905
 30
0.0
 40
0.1667017528242961
 50
99.8452539775804553
 51
168.6343312450144936
  0
ARC
  5
EE66
  8
0
 10
4203.5931023299190201
 20
196.6125195455389019
 30
0.0
 40
1.9514697025360961
 50
168.6343312295115879
 51
179.6485596857274913
  0
ARC
  5
EE67
  8
0
 10
4203.8696361256652381
 20
196.6245077659013134
 30
0.0
 40
1.382296814176815
 50
359.9992377862851072
 51
11.5837442319643902
  0
ARC
  5
EE68
  8
0
 10
4205.0772758938283005
 20
196.8720435970714107
 30
0.0
 40
0.1495487469064501
 50
11.5837324678333005
 51
89.6773836928686165
  0
ARC
  5
EE69
  8
0
 10
4206.8737659678681666
 20
515.9204273694695075
 30
0.0
 40
318.9038928022570758
 50
269.3209579870332959
 51
269.6773836928686023
  0
ARC
  5
EE6A
  8
0
 10
4203.1801386307533903
 20
202.7460746782302863
 30
0.0
 40
5.7077885998927327
 50
264.5072713889994134
 51
269.1388960156103849
  0
ARC
  5
EE6B
  8
0
 10
4201.265590075477121
 20
196.8550882007131975
 30
0.0
 40
2.1081765124862901
 50
4.9181312967067221
 51
8.5188142508595135
  0
ARC
  5
EE6C
  8
0
 10
4202.9621318535509999
 20
197.1092076337714047
 30
0.0
 40
0.3927084448716993
 50
8.5188142508595135
 51
82.695573732986702
  0
ARC
  5
EE6D
  8
0
 10
4202.1721083218581043
 20
187.9304425337568034
 30
0.0
 40
9.6050834893079031
 50
84.9831450398529995
 51
95.0168491892931684
  0
ARC
  5
EE6E
  8
0
 10
4201.3649485325240676
 20
197.1251652544900992
 30
0.0
 40
0.3750004541095122
 50
95.016682842677767
 51
172.9421427293873137
  0
ARC
  5
EE6F
  8
0
 10
4205.4087998865807094
 20
196.6244950446024973
 30
0.0
 40
4.4497279827644229
 50
172.9421154047579137
 51
180.0000729772390002
  0
ARC
  5
EE70
  8
0
 10
4202.5010244061395497
 20
196.2839193199687884
 30
0.0
 40
0.1658752908284001
 50
279.8449932359135914
 51
323.1691182753909857
  0
ARC
  5
EE71
  8
0
 10
4202.1721148600818196
 20
198.9072344565680908
 30
0.0
 40
2.8095561631106731
 50
262.6940587244948233
 51
277.3056805338493973
  0
ARC
  5
EE72
  8
0
 10
4201.8433346907222585
 20
196.2847351076154894
 30
0.0
 40
0.1667017528242961
 50
191.3656687549855064
 51
260.1547460224196016
  0
ARC
  5
EE73
  8
0
 10
4203.5931023299199296
 20
196.6364592084906064
 30
0.0
 40
1.9514697025362111
 50
180.3514403142741003
 51
191.3656687704867068
  0
ARC
  5
EE74
  8
0
 10
4203.8696361256352247
 20
196.6244709881314066
 30
0.0
 40
1.3822968142082039
 50
348.4162557681721069
 51
0.0007622135829816
  0
ARC
  5
EE75
  8
0
 10
4205.0772758938283005
 20
196.3769351569580977
 30
0.0
 40
0.1495487469064501
 50
270.3226163071313977
 51
348.416267532166728
  0
ARC
  5
EE76
  8
0
 10
4206.8737659678681666
 20
-122.6714486154399992
 30
0.0
 40
318.9038928022570758
 50
90.3226163071313977
 51
90.6790420129667041
  0
ARC
  5
EE77
  8
0
 10
4203.1801386307533903
 20
190.5029040757991936
 30
0.0
 40
5.7077885998927327
 50
90.8611039843896151
 51
95.492728611000544
  0
ARC
  5
EE78
  8
0
 10
4201.265590075477121
 20
196.3938905533161972
 30
0.0
 40
2.1081765124862901
 50
351.4811857491404794
 51
355.0818687032933099
  0
ARC
  5
EE79
  8
0
 10
4202.9621318535509999
 20
196.1397711202581036
 30
0.0
 40
0.3927084448716993
 50
277.304426267013298
 51
351.4811857491404794
  0
ARC
  5
EE7A
  8
0
 10
4202.1721083218581043
 20
205.3185362202725912
 30
0.0
 40
9.6050834893079031
 50
264.9831508107067748
 51
275.0168549601469863
  0
ARC
  5
EE7B
  8
0
 10
4201.3649485325240676
 20
196.1238134995394091
 30
0.0
 40
0.3750004541095122
 50
187.057857270612601
 51
264.9833171573221762
  0
ARC
  5
EE7C
  8
0
 10
4205.408799886565248
 20
196.6244837094259026
 30
0.0
 40
4.4497279827482119
 50
179.9999270227478974
 51
187.0578845952549045
  0
ARC
  5
EE7D
  8
0
 10
4201.9567992051015608
 20
197.2833553300145013
 30
0.0
 40
0.2018328469357945
 50
229.5059654995316976
 51
255.4886947277312004
  0
ARC
  5
EE7E
  8
0
 10
4202.9216964204633769
 20
217.2809493557764995
 30
0.0
 40
20.2185050608311485
 50
267.1211188536095733
 51
269.184101699440987
  0
ARC
  5
EE7F
  8
0
 10
4201.9567992051015608
 20
195.9656234240148933
 30
0.0
 40
0.2018328469357945
 50
104.5113052722687996
 51
130.4940345004683024
  0
ARC
  5
EE80
  8
0
 10
4202.9216964204633769
 20
175.9680293982530088
 30
0.0
 40
20.2185050608311485
 50
90.8158983005590414
 51
92.8788811463903556
  0
ENDSEC
  0
EOF
