  0
SECTION
  2
HEADER
  9
$ACADVER
  1
AC1009
  9
$INSBASE
 10
4540.2477491975087
 20
463.07371984712432
 30
0.0
  9
$EXTMIN
 10
4537.4918436856588
 20
459.60724915651667
 30
0.0
  9
$EXTMAX
 10
4543.0036547093578
 20
463.07806200020121
 30
0.0
  9
$LIMMIN
 10
0.0
 20
0.0
  9
$LIMMAX
 10
11.692913385800001
 20
8.2677165353999982
  9
$ORTHOMODE
 70
     0
  9
$REGENMODE
 70
     1
  9
$FILLMODE
 70
     1
  9
$QTEXTMODE
 70
     0
  9
$MIRRTEXT
 70
     0
  9
$DRAGMODE
 70
     2
  9
$LTSCALE
 40
0.6431102362
  9
$OSMODE
 70
    19
  9
$ATTMODE
 70
     1
  9
$TEXTSIZE
 40
0.2
  9
$TRACEWID
 40
0.05
  9
$TEXTSTYLE
  7
STANDARD
  9
$CLAYER
  8
0
  9
$CELTYPE
  6
BYLAYER
  9
$CECOLOR
 62
   256
  9
$DIMSCALE
 40
1.0
  9
$DIMASZ
 40
0.1875
  9
$DIMEXO
 40
0.0625
  9
$DIMDLI
 40
0.4443307087
  9
$DIMRND
 40
0.0
  9
$DIMDLE
 40
0.0
  9
$DIMEXE
 40
0.125
  9
$DIMTP
 40
0.01
  9
$DIMTM
 40
0.01
  9
$DIMTXT
 40
2.0
  9
$DIMCEN
 40
0.1052362205
  9
$DIMTSZ
 40
0.0
  9
$DIMTOL
 70
     1
  9
$DIMLIM
 70
     0
  9
$DIMTIH
 70
     1
  9
$DIMTOH
 70
     1
  9
$DIMSE1
 70
     0
  9
$DIMSE2
 70
     0
  9
$DIMTAD
 70
     0
  9
$DIMZIN
 70
     0
  9
$DIMBLK
  1

  9
$DIMASO
 70
     1
  9
$DIMSHO
 70
     1
  9
$DIMPOST
  1
\X
  9
$DIMAPOST
  1

  9
$DIMALT
 70
     1
  9
$DIMALTD
 70
     2
  9
$DIMALTF
 40
25.399999999999999
  9
$DIMLFAC
 40
1.0
  9
$DIMTOFL
 70
     0
  9
$DIMTVP
 40
0.0
  9
$DIMTIX
 70
     0
  9
$DIMSOXD
 70
     0
  9
$DIMSAH
 70
     0
  9
$DIMBLK1
  1

  9
$DIMBLK2
  1

  9
$DIMSTYLE
  2
STANDARD
  9
$DIMCLRD
 70
     0
  9
$DIMCLRE
 70
     0
  9
$DIMCLRT
 70
     0
  9
$DIMTFAC
 40
1.0
  9
$DIMGAP
 40
0.09
  9
$LUNITS
 70
     2
  9
$LUPREC
 70
     4
  9
$SKETCHINC
 40
0.1
  9
$FILLETRAD
 40
0.0
  9
$AUNITS
 70
     0
  9
$AUPREC
 70
     0
  9
$MENU
  1
.
  9
$ELEVATION
 40
0.0
  9
$PELEVATION
 40
0.0
  9
$THICKNESS
 40
0.0
  9
$LIMCHECK
 70
     0
  9
$BLIPMODE
 70
     0
  9
$CHAMFERA
 40
0.0
  9
$CHAMFERB
 40
0.0
  9
$SKPOLY
 70
     0
  9
$TDCREATE
 40
2458060.4683680669
  9
$TDUPDATE
 40
2459299.9083403698
  9
$TDINDWG
 40
1.5247037616000001
  9
$TDUSRTIMER
 40
1.5247037616000001
  9
$USRTIMER
 70
     1
  9
$ANGBASE
 50
0.0
  9
$ANGDIR
 70
     0
  9
$PDMODE
 70
     0
  9
$PDSIZE
 40
0.3125
  9
$PLINEWID
 40
0.0
  9
$COORDS
 70
     1
  9
$SPLFRAME
 70
     0
  9
$SPLINETYPE
 70
     6
  9
$SPLINESEGS
 70
     8
  9
$ATTDIA
 70
     1
  9
$ATTREQ
 70
     1
  9
$HANDLING
 70
     1
  9
$HANDSEED
  5
19ABD
  9
$SURFTAB1
 70
     6
  9
$SURFTAB2
 70
     6
  9
$SURFTYPE
 70
     6
  9
$SURFU
 70
     6
  9
$SURFV
 70
     6
  9
$UCSNAME
  2

  9
$UCSORG
 10
0.0
 20
0.0
 30
0.0
  9
$UCSXDIR
 10
1.0
 20
0.0
 30
0.0
  9
$UCSYDIR
 10
0.0
 20
1.0
 30
0.0
  9
$PUCSNAME
  2

  9
$PUCSORG
 10
0.0
 20
0.0
 30
0.0
  9
$PUCSXDIR
 10
1.0
 20
0.0
 30
0.0
  9
$PUCSYDIR
 10
0.0
 20
1.0
 30
0.0
  9
$USERI1
 70
     0
  9
$USERI2
 70
     0
  9
$USERI3
 70
     0
  9
$USERI4
 70
     0
  9
$USERI5
 70
     0
  9
$USERR1
 40
0.0
  9
$USERR2
 40
0.0
  9
$USERR3
 40
0.0
  9
$USERR4
 40
0.0
  9
$USERR5
 40
0.0
  9
$WORLDVIEW
 70
     1
  9
$SHADEDGE
 70
     3
  9
$SHADEDIF
 70
    70
  9
$TILEMODE
 70
     1
  9
$MAXACTVP
 70
    64
  9
$PLIMCHECK
 70
     0
  9
$PEXTMIN
 10
1.0000000000000000E+020
 20
1.0000000000000000E+020
 30
1.0000000000000000E+020
  9
$PEXTMAX
 10
-1.0000000000000000E+020
 20
-1.0000000000000000E+020
 30
-1.0000000000000000E+020
  9
$PLIMMIN
 10
0.0
 20
0.0
  9
$PLIMMAX
 10
12.0
 20
9.0
  9
$UNITMODE
 70
     0
  9
$VISRETAIN
 70
     1
  9
$PLINEGEN
 70
     0
  9
$PSLTSCALE
 70
     1
  0
ENDSEC
  0
SECTION
  2
TABLES
  0
TABLE
  2
VPORT
 70
     1
  0
VPORT
  2
*ACTIVE
 70
     0
 10
0.0
 20
0.0
 11
1.0
 21
1.0
 12
628.88239275219621
 22
328.76392801332372
 13
0.0
 23
0.0
 14
1.0
 24
1.0
 15
0.0
 25
0.0
 16
0.0
 26
0.0
 36
60.496018696580158
 17
3911.365356445312
 27
132.57960510253901
 37
0.0
 40
3.508063526540266
 41
2.4075403949730689
 42
50.0
 43
0.0
 44
0.0
 50
0.0
 51
0.0
 71
     0
 72
   100
 73
     1
 74
     1
 75
     0
 76
     0
 77
     0
 78
     0
  0
ENDTAB
  0
TABLE
  2
LTYPE
 70
     2
  0
LTYPE
  2
CONTINUOUS
 70
     0
  3
Solid line
 72
    65
 73
     0
 40
0.0
  0
LTYPE
  2
PHANTOM2
 70
     0
  3
___ _ _ ___ _ _ ___ _ _ ___ _ _
 72
    65
 73
     6
 40
1.25
 49
0.625
 49
-0.125
 49
0.125
 49
-0.125
 49
0.125
 49
-0.125
  0
ENDTAB
  0
TABLE
  2
LAYER
 70
     2
  0
LAYER
  2
0
 70
     0
 62
   255
  6
CONTINUOUS
  0
LAYER
  2
DEFPOINTS
 70
     0
 62
     7
  6
CONTINUOUS
  0
ENDTAB
  0
TABLE
  2
STYLE
 70
     1
  0
STYLE
  2
STANDARD
 70
     0
 40
0.0
 41
0.8
 50
0.0
 71
     0
 42
0.2
  3
txt
  4

  0
ENDTAB
  0
TABLE
  2
VIEW
 70
     0
  0
ENDTAB
  0
TABLE
  2
UCS
 70
     0
  0
ENDTAB
  0
TABLE
  2
APPID
 70
    11
  0
APPID
  2
ACAD
 70
     0
  0
APPID
  2
ACAD_MLEADERVER
 70
     0
  0
APPID
  2
ACAD_EXEMPT_FROM_CAD_STANDARDS
 70
     0
  0
APPID
  2
ACAD_NAV_VCDISPLAY
 70
     0
  0
APPID
  2
ACAECLAYERSTANDARD
 70
     0
  0
APPID
  2
ACCMTRANSPARENCY
 70
     0
  0
APPID
  2
ACAD_DSTYLE_DIMJAG
 70
     0
  0
APPID
  2
ACAD_DSTYLE_DIMTALN
 70
     0
  0
APPID
  2
ACDBATTR
 70
     0
  0
APPID
  2
ACADANNOTATIVE
 70
     0
  0
APPID
  2
DCO15
 70
     0
  0
ENDTAB
  0
TABLE
  2
DIMSTYLE
 70
     1
  0
DIMSTYLE
  2
STANDARD
 70
     0
  3

  4

  5

  6

  7

 40
1.0
 41
0.1875
 42
0.0625
 43
0.38
 44
0.125
 45
0.0
 46
0.0
 47
0.01
 48
0.01
140
0.15625
141
0.09
142
0.0
143
25.399999999999999
144
1.0
145
0.0
146
1.0
147
0.09
 71
     1
 72
     0
 73
     1
 74
     1
 75
     0
 76
     0
 77
     0
 78
     4
170
     0
171
     2
172
     0
173
     0
174
     0
175
     0
176
     0
177
     0
178
     0
  0
ENDTAB
  0
ENDSEC
  0
SECTION
  2
BLOCKS
  0
BLOCK
  8
0
  2
$MODEL_SPACE
 70
     0
 10
0.0
 20
0.0
 30
0.0
  3
$MODEL_SPACE
  1

  0
ENDBLK
  5
21
  8
0
  0
BLOCK
 67
     1
  8
0
  2
$PAPER_SPACE
 70
     0
 10
0.0
 20
0.0
 30
0.0
  3
$PAPER_SPACE
  1

  0
ENDBLK
  5
1D
 67
     1
  8
0
  0
ENDSEC
  0
SECTION
  2
ENTITIES
  0
ATTDEF
  5
194DB
  8
DEFPOINTS
 10
4540.2477481818751
 20
463.07706200020112
 30
0.0
 40
0.001
  1
P24732T-LV
  3

  2
MODELNUMBER
 70
     0
1001
ACDBATTR
1070
     0
1070
     1
  0
ATTDEF
  5
194DC
  8
DEFPOINTS
 10
4540.2477481818751
 20
463.07539515982199
 30
0.0
 40
0.001
  1
PER SE
  3

  2
TRADENAME
 70
     0
1001
ACDBATTR
1070
     0
1070
     1
  0
ATTDEF
  5
194DD
  8
DEFPOINTS
 10
4540.2477481818751
 20
463.07372866686779
 30
0.0
 40
0.001
  1
VALVE TRIM
  3

  2
PRODUCT
 70
     0
1001
ACDBATTR
1070
     0
1070
     1
  0
LINE
  5
199AA
  8
0
 10
4543.0036547093578
 20
463.07371984712432
 30
0.0
 11
4537.4918436856588
 21
463.07371984712432
 31
0.0
  0
LINE
  5
199AC
  8
0
 10
4539.5788397487086
 20
461.65442850869499
 30
0.0
 11
4539.5788397487086
 21
460.60033402602829
 31
0.0
  0
LINE
  5
199AD
  8
0
 10
4539.3801775475094
 20
461.6583655164257
 30
0.0
 11
4539.3801775475094
 21
460.66427102822462
 31
0.0
  0
LINE
  5
199AE
  8
0
 10
4539.5886822682887
 20
461.66427102822439
 30
0.0
 11
4540.9068161267296
 21
461.66427102822439
 31
0.0
  0
LINE
  5
199AF
  8
0
 10
4539.4012925046773
 20
461.71545213052428
 30
0.0
 11
4541.0942058903411
 21
461.71545213052428
 31
0.0
  0
LINE
  5
199B0
  8
0
 10
4539.3900306935557
 20
461.66820803612433
 30
0.0
 11
4539.6670405361583
 21
461.66820803612433
 31
0.0
  0
LINE
  5
199B1
  8
0
 10
4540.8284578588591
 20
461.66820803612433
 30
0.0
 11
4541.1054677014617
 21
461.66820803612433
 31
0.0
  0
LINE
  5
199B2
  8
0
 10
4539.6670405361583
 20
461.71545213052428
 30
0.0
 11
4539.6670405361583
 21
461.66427102822439
 31
0.0
  0
LINE
  5
199B3
  8
0
 10
4539.4701901424578
 20
461.71545213052428
 30
0.0
 11
4539.4701901424578
 21
461.66820803612433
 31
0.0
  0
ARC
  5
199B4
  8
0
 10
4539.3900382173233
 20
461.65834735245102
 30
0.0
 40
0.0098606865436971
 50
90.043717034139178
 51
179.8944576935439
  0
LINE
  5
199B5
  8
0
 10
4539.3816074652577
 20
462.43003625262429
 30
0.0
 11
4539.3816074652577
 21
461.73513716992443
 31
0.0
  0
ARC
  5
199B6
  8
0
 10
4539.4012925046591
 20
461.73513716992443
 30
0.0
 40
0.0196850393999899
 50
179.99999999998369
 51
270.00000005372561
  0
ARC
  5
199B7
  8
0
 10
4539.5886822682887
 20
461.65442850869499
 30
0.0
 40
0.0098425195292888
 50
89.999999588381471
 51
180.0000009937221
  0
ARC
  5
199B8
  8
0
 10
4539.8774905490973
 20
460.0031512683201
 30
0.0
 40
0.1001623214505112
 50
90.459136122219704
 51
176.6153708460732
  0
ARC
  5
199B9
  8
0
 10
4540.5266204815789
 20
459.9647605994507
 30
0.0
 40
0.7504265083023336
 50
176.6153708460732
 51
187.2359290407355
  0
ARC
  5
199BA
  8
0
 10
4539.880589050581
 20
459.88197121731957
 30
0.0
 40
0.0991152687779936
 50
186.79720903639191
 51
244.93078408458501
  0
ARC
  5
199BB
  8
0
 10
4539.8818617386059
 20
459.88411368480132
 30
0.0
 40
0.1015954581258201
 50
244.79261057401979
 51
280.93770154274478
  0
ARC
  5
199BC
  8
0
 10
4539.9113564790987
 20
460.3708773834735
 30
0.0
 40
0.2698036584554085
 50
262.6173362231595
 51
270.88958074048111
  0
ARC
  5
199BD
  8
0
 10
4543.5569498348214
 20
460.63520508175901
 30
0.0
 40
3.9782629183786891
 50
180.50222671228019
 51
182.98401703782741
  0
ARC
  5
199BE
  8
0
 10
4540.838124376347
 20
460.48482027418811
 30
0.0
 40
1.255325063499293
 50
182.58939309622119
 51
195.56454432540099
  0
ARC
  5
199BF
  8
0
 10
4541.2734976595939
 20
460.68461920488858
 30
0.0
 40
1.7299983452411289
 50
198.0708298351453
 51
208.52834183329659
  0
ARC
  5
199C0
  8
0
 10
4539.879723147591
 20
459.92736104813167
 30
0.0
 40
0.1437934798680301
 50
208.6657787763688
 51
261.97782568147721
  0
ARC
  5
199C1
  8
0
 10
4539.7776132690742
 20
459.73970174739782
 30
0.0
 40
0.1324525908810144
 50
260.66238493972747
 51
281.26699169448551
  0
ARC
  5
199C2
  8
0
 10
4540.0236097437537
 20
461.2357534417327
 30
0.0
 40
1.6485940544910691
 50
259.7488666415868
 51
260.66238493972747
  0
ARC
  5
199C3
  8
0
 10
4539.7566454952284
 20
459.75958856472317
 30
0.0
 40
0.148483173886859
 50
203.91663851348099
 51
259.7488666415868
  0
ARC
  5
199C4
  8
0
 10
4537.9969028198939
 20
459.02581104854829
 30
0.0
 40
1.758157142721599
 50
22.526943822353861
 51
26.787743888231439
  0
ARC
  5
199C5
  8
0
 10
4535.301605027601
 20
457.56555573646762
 30
0.0
 40
4.8231368275080566
 50
27.842802341142381
 51
28.928369669613499
  0
ARC
  5
199C6
  8
0
 10
4540.4734116778227
 20
460.41966304066312
 30
0.0
 40
1.0839414170487109
 50
186.42933721201041
 51
208.73288735666819
  0
ARC
  5
199C7
  8
0
 10
4543.7633367107146
 20
460.67386158545361
 30
0.0
 40
4.3831696554877757
 50
180.1253656449679
 51
184.9154684356742
  0
LINE
  5
199C8
  8
0
 10
4539.5981428983578
 20
461.71545213052428
 30
0.0
 11
4539.5784578589592
 21
461.73513716992443
 31
0.0
  0
LINE
  5
199C9
  8
0
 10
4539.5784578589592
 20
461.73513716992443
 30
0.0
 11
4539.5784578589592
 21
462.43851959239032
 31
0.0
  0
LINE
  5
199CA
  8
0
 10
4537.4918436856588
 20
463.07371984712432
 30
0.0
 11
4537.5112238243591
 21
462.51874528642429
 31
0.0
  0
ARC
  5
199CB
  8
0
 10
4537.5506401657776
 20
462.52015180794098
 30
0.0
 40
0.0394414283920063
 50
182.04365917889859
 51
267.50281989936019
  0
ARC
  5
199CC
  8
0
 10
4540.5230443043401
 20
534.96200855740256
 30
0.0
 40
72.542253627060276
 50
267.65030118138958
 51
268.50115065811582
  0
ARC
  5
199CD
  8
0
 10
4540.5675159636221
 20
543.76323649349661
 30
0.0
 40
81.341845567876774
 50
268.63199417110479
 51
269.16463711000711
  0
LINE
  5
199CE
  8
0
 10
4539.3816074652577
 20
462.43003625262429
 30
0.0
 11
4539.5784578589592
 21
462.42782940072431
 31
0.0
  0
ARC
  5
199CF
  8
0
 10
4539.5879311423878
 20
462.91183097666709
 30
0.0
 40
0.4774779312536284
 50
263.3352278731208
 51
268.86316259050159
  0
ARC
  5
199D0
  8
0
 10
4540.2477537581772
 20
428.59764233647599
 30
0.0
 40
33.847495187244903
 50
88.789194456286111
 51
91.210819626671807
  0
LINE
  5
199D1
  8
0
 10
4540.9166586463089
 20
461.65442850869499
 30
0.0
 11
4540.9166586463089
 21
460.60033402602829
 31
0.0
  0
LINE
  5
199D2
  8
0
 10
4541.1153208475089
 20
461.6583655164257
 30
0.0
 11
4541.1153208475089
 21
460.66427102822462
 31
0.0
  0
LINE
  5
199D3
  8
0
 10
4540.8284578588591
 20
461.71545213052428
 30
0.0
 11
4540.8284578588591
 21
461.66427102822439
 31
0.0
  0
LINE
  5
199D4
  8
0
 10
4541.0253082525578
 20
461.71545213052428
 30
0.0
 11
4541.0253082525578
 21
461.66820803612433
 31
0.0
  0
ARC
  5
199D5
  8
0
 10
4541.105460177695
 20
461.65834735245102
 30
0.0
 40
0.0098606865436971
 50
0.1055423064560249
 51
89.956282965860808
  0
LINE
  5
199D6
  8
0
 10
4541.1138909297588
 20
462.43003625262429
 30
0.0
 11
4541.1138909297588
 21
461.73513716992443
 31
0.0
  0
ARC
  5
199D7
  8
0
 10
4541.0942058903593
 20
461.73513716992443
 30
0.0
 40
0.0196850393999917
 50
269.99999994627439
 51
0.0000000000162844
  0
ARC
  5
199D8
  8
0
 10
4540.9068161267296
 20
461.65442850869499
 30
0.0
 40
0.0098425195292888
 50
359.9999990062779
 51
90.000000411618544
  0
ARC
  5
199D9
  8
0
 10
4540.618007845922
 20
460.0031512683201
 30
0.0
 40
0.1001623214505112
 50
3.3846291539267468
 51
89.540863877780254
  0
ARC
  5
199DA
  8
0
 10
4539.9688779134376
 20
459.9647605994507
 30
0.0
 40
0.7504265083023336
 50
352.76407095926447
 51
3.3846291539267468
  0
ARC
  5
199DB
  8
0
 10
4540.6149093444374
 20
459.88197121731957
 30
0.0
 40
0.0991152687779936
 50
295.06921591541499
 51
353.20279096360798
  0
ARC
  5
199DC
  8
0
 10
4540.6136366564106
 20
459.88411368480132
 30
0.0
 40
0.1015954581258201
 50
259.06229845725522
 51
295.20738942598018
  0
ARC
  5
199DD
  8
0
 10
4540.5841418806922
 20
460.37087776216481
 30
0.0
 40
0.2698040385338305
 50
269.1103776590424
 51
277.38266086222978
  0
ARC
  5
199DE
  8
0
 10
4536.9385485601979
 20
460.63520508175901
 30
0.0
 40
3.97826291837834
 50
357.01598296217247
 51
359.49777328771978
  0
ARC
  5
199DF
  8
0
 10
4539.6573740186723
 20
460.48482027418811
 30
0.0
 40
1.255325063499293
 50
344.43545567459893
 51
357.41060690377878
  0
ARC
  5
199E0
  8
0
 10
4539.2220007354244
 20
460.68461920488858
 30
0.0
 40
1.7299983452411289
 50
331.47165816670338
 51
341.92917016485472
  0
ARC
  5
199E1
  8
0
 10
4540.6157752474264
 20
459.92736104813167
 30
0.0
 40
0.1437934798680301
 50
278.02217431852279
 51
331.33422122363112
  0
ARC
  5
199E2
  8
0
 10
4540.7178851259441
 20
459.73970174739782
 30
0.0
 40
0.1324525908810144
 50
258.73300830551449
 51
279.33761506027253
  0
ARC
  5
199E3
  8
0
 10
4540.4718886512628
 20
461.2357534417327
 30
0.0
 40
1.6485940544910691
 50
279.33761506027253
 51
280.2511333584132
  0
ARC
  5
199E4
  8
0
 10
4540.738852899789
 20
459.75958856472317
 30
0.0
 40
0.148483173886859
 50
280.2511333584132
 51
336.08336148651898
  0
ARC
  5
199E5
  8
0
 10
4542.4985955751245
 20
459.02581104854829
 30
0.0
 40
1.758157142721599
 50
153.21225611176851
 51
157.4730561776461
  0
ARC
  5
199E6
  8
0
 10
4545.1938933674164
 20
457.56555573646762
 30
0.0
 40
4.8231368275080566
 50
151.07163033038651
 51
152.1571976588576
  0
ARC
  5
199E7
  8
0
 10
4540.0220867171938
 20
460.41966304066312
 30
0.0
 40
1.0839414170487109
 50
331.26711264333181
 51
353.57066278798948
  0
ARC
  5
199E8
  8
0
 10
4536.7321616843028
 20
460.67386158545361
 30
0.0
 40
4.3831696554877757
 50
355.0845315643258
 51
359.87463435503207
  0
LINE
  5
199E9
  8
0
 10
4540.8973554966578
 20
461.71545213052428
 30
0.0
 11
4540.9170405360592
 21
461.73513716992443
 31
0.0
  0
LINE
  5
199EA
  8
0
 10
4540.9170405360592
 20
461.73513716992443
 30
0.0
 11
4540.9170405360592
 21
462.43851959239032
 31
0.0
  0
LINE
  5
199EB
  8
0
 10
4543.0036547093578
 20
463.07371984712432
 30
0.0
 11
4542.9842745706592
 21
462.51874528642429
 31
0.0
  0
ARC
  5
199EC
  8
0
 10
4542.9448582292398
 20
462.52015180794098
 30
0.0
 40
0.0394414283920063
 50
272.49718010063992
 51
357.95634082110149
  0
ARC
  5
199ED
  8
0
 10
4539.9724540906773
 20
534.96200855740256
 30
0.0
 40
72.542253627060276
 50
271.49884934188429
 51
272.34969881861042
  0
ARC
  5
199EE
  8
0
 10
4539.9279824313962
 20
543.76323649349661
 30
0.0
 40
81.341845567876774
 50
270.83536288999289
 51
271.36800582889521
  0
LINE
  5
199EF
  8
0
 10
4541.1138909297588
 20
462.43003625262429
 30
0.0
 11
4540.9170405360592
 21
462.42782940072431
 31
0.0
  0
ARC
  5
199F0
  8
0
 10
4540.9075672526296
 20
462.91183097666709
 30
0.0
 40
0.4774779312536284
 50
271.13683740949841
 51
276.6647721268792
  0
ARC
  5
199F1
  8
0
 10
4540.247748986847
 20
496.12055003718649
 30
0.0
 40
36.020975701168659
 50
269.47158182370299
 51
270.52841846948138
  0
ARC
  5
199F2
  8
0
 10
4540.2477491975087
 20
458.06642588974881
 30
0.0
 40
1.752555153387116
 50
78.593156722565539
 51
101.4068432774344
  0
ARC
  5
199F3
  8
0
 10
4540.2477491975087
 20
457.41816043564307
 30
0.0
 40
2.2362147931107659
 50
78.541108428305549
 51
101.45889157169439
  0
LINE
  5
199F4
  8
0
 10
4537.5489216941587
 20
462.48074783442428
 30
0.0
 11
4542.9465767008587
 21
462.48074783442428
 31
0.0
  0
ENDSEC
  0
EOF
