  0
SECTION
  2
HEADER
  9
$ACADVER
  1
AC1009
  9
$INSBASE
 10
4217.8852740163201815
 20
96.6110995371566901
 30
0.0
  9
$EXTMIN
 10
4214.4691035007326718
 20
93.0735943207394172
 30
0.0
  9
$EXTMAX
 10
4217.8975991444985993
 20
99.9793153659371825
 30
0.0
  9
$LIMMIN
 10
0.0
 20
0.0
  9
$LIMMAX
 10
11.6929133858000007
 20
8.2677165353999982
  9
$ORTHOMODE
 70
     0
  9
$REGENMODE
 70
     1
  9
$FILLMODE
 70
     1
  9
$QTEXTMODE
 70
     0
  9
$MIRRTEXT
 70
     0
  9
$DRAGMODE
 70
     2
  9
$LTSCALE
 40
0.6431102362
  9
$OSMODE
 70
  4095
  9
$ATTMODE
 70
     1
  9
$TEXTSIZE
 40
0.2
  9
$TRACEWID
 40
0.05
  9
$TEXTSTYLE
  7
STANDARD
  9
$CLAYER
  8
0
  9
$CELTYPE
  6
BYLAYER
  9
$CECOLOR
 62
   256
  9
$DIMSCALE
 40
1.0
  9
$DIMASZ
 40
0.1875
  9
$DIMEXO
 40
0.0625
  9
$DIMDLI
 40
0.4443307087
  9
$DIMRND
 40
0.0
  9
$DIMDLE
 40
0.0
  9
$DIMEXE
 40
0.125
  9
$DIMTP
 40
0.01
  9
$DIMTM
 40
0.01
  9
$DIMTXT
 40
2.0
  9
$DIMCEN
 40
0.1052362205
  9
$DIMTSZ
 40
0.0
  9
$DIMTOL
 70
     1
  9
$DIMLIM
 70
     0
  9
$DIMTIH
 70
     1
  9
$DIMTOH
 70
     1
  9
$DIMSE1
 70
     0
  9
$DIMSE2
 70
     0
  9
$DIMTAD
 70
     0
  9
$DIMZIN
 70
     0
  9
$DIMBLK
  1

  9
$DIMASO
 70
     1
  9
$DIMSHO
 70
     1
  9
$DIMPOST
  1
\X
  9
$DIMAPOST
  1

  9
$DIMALT
 70
     1
  9
$DIMALTD
 70
     2
  9
$DIMALTF
 40
25.3999999999999986
  9
$DIMLFAC
 40
1.0
  9
$DIMTOFL
 70
     0
  9
$DIMTVP
 40
0.0
  9
$DIMTIX
 70
     0
  9
$DIMSOXD
 70
     0
  9
$DIMSAH
 70
     0
  9
$DIMBLK1
  1

  9
$DIMBLK2
  1

  9
$DIMSTYLE
  2
STANDARD
  9
$DIMCLRD
 70
     0
  9
$DIMCLRE
 70
     0
  9
$DIMCLRT
 70
     0
  9
$DIMTFAC
 40
1.0
  9
$DIMGAP
 40
0.09
  9
$LUNITS
 70
     2
  9
$LUPREC
 70
     4
  9
$SKETCHINC
 40
0.1
  9
$FILLETRAD
 40
0.0
  9
$AUNITS
 70
     0
  9
$AUPREC
 70
     0
  9
$MENU
  1
.
  9
$ELEVATION
 40
0.0
  9
$PELEVATION
 40
0.0
  9
$THICKNESS
 40
0.0
  9
$LIMCHECK
 70
     0
  9
$BLIPMODE
 70
     0
  9
$CHAMFERA
 40
0.0
  9
$CHAMFERB
 40
0.0
  9
$SKPOLY
 70
     0
  9
$TDCREATE
 40
2458060.468368056230247
  9
$TDUPDATE
 40
2459424.7069444451481104
  9
$TDINDWG
 40
0.3328427083
  9
$TDUSRTIMER
 40
0.3328427083
  9
$USRTIMER
 70
     1
  9
$ANGBASE
 50
0.0
  9
$ANGDIR
 70
     0
  9
$PDMODE
 70
     0
  9
$PDSIZE
 40
0.3125
  9
$PLINEWID
 40
0.0
  9
$COORDS
 70
     1
  9
$SPLFRAME
 70
     0
  9
$SPLINETYPE
 70
     6
  9
$SPLINESEGS
 70
     8
  9
$ATTDIA
 70
     1
  9
$ATTREQ
 70
     1
  9
$HANDLING
 70
     1
  9
$HANDSEED
  5
A288
  9
$SURFTAB1
 70
     6
  9
$SURFTAB2
 70
     6
  9
$SURFTYPE
 70
     6
  9
$SURFU
 70
     6
  9
$SURFV
 70
     6
  9
$UCSNAME
  2

  9
$UCSORG
 10
0.0
 20
0.0
 30
0.0
  9
$UCSXDIR
 10
1.0
 20
0.0
 30
0.0
  9
$UCSYDIR
 10
0.0
 20
1.0
 30
0.0
  9
$PUCSNAME
  2

  9
$PUCSORG
 10
0.0
 20
0.0
 30
0.0
  9
$PUCSXDIR
 10
1.0
 20
0.0
 30
0.0
  9
$PUCSYDIR
 10
0.0
 20
1.0
 30
0.0
  9
$USERI1
 70
     0
  9
$USERI2
 70
     0
  9
$USERI3
 70
     0
  9
$USERI4
 70
     0
  9
$USERI5
 70
     0
  9
$USERR1
 40
0.0
  9
$USERR2
 40
0.0
  9
$USERR3
 40
0.0
  9
$USERR4
 40
0.0
  9
$USERR5
 40
0.0
  9
$WORLDVIEW
 70
     1
  9
$SHADEDGE
 70
     3
  9
$SHADEDIF
 70
    70
  9
$TILEMODE
 70
     1
  9
$MAXACTVP
 70
    64
  9
$PLIMCHECK
 70
     0
  9
$PEXTMIN
 10
1.0000000000000000E+20
 20
1.0000000000000000E+20
 30
1.0000000000000000E+20
  9
$PEXTMAX
 10
-1.0000000000000000E+20
 20
-1.0000000000000000E+20
 30
-1.0000000000000000E+20
  9
$PLIMMIN
 10
0.0
 20
0.0
  9
$PLIMMAX
 10
12.0
 20
9.0
  9
$UNITMODE
 70
     0
  9
$VISRETAIN
 70
     1
  9
$PLINEGEN
 70
     0
  9
$PSLTSCALE
 70
     1
  0
ENDSEC
  0
SECTION
  2
TABLES
  0
TABLE
  2
VPORT
 70
     1
  0
VPORT
  2
*ACTIVE
 70
     0
 10
0.0
 20
0.0
 11
1.0
 21
1.0
 12
-48.8229963336339097
 22
-7.7775574552456774
 13
0.0
 23
0.0
 14
1.0
 24
1.0
 15
0.0
 25
0.0
 16
0.0
 26
0.0
 36
122.0237731519760018
 17
4265.00634765625
 27
104.3040122985839986
 37
0.0
 40
6.9677484797354552
 41
2.8440779610194888
 42
50.0
 43
0.0
 44
0.0
 50
0.0
 51
0.0
 71
     0
 72
   100
 73
     1
 74
     1
 75
     0
 76
     0
 77
     0
 78
     0
  0
ENDTAB
  0
TABLE
  2
LTYPE
 70
     3
  0
LTYPE
  2
CONTINUOUS
 70
     0
  3
Solid line
 72
    65
 73
     0
 40
0.0
  0
LTYPE
  2
PHANTOM2
 70
     0
  3
___ _ _ ___ _ _ ___ _ _ ___ _ _
 72
    65
 73
     6
 40
1.25
 49
0.625
 49
-0.125
 49
0.125
 49
-0.125
 49
0.125
 49
-0.125
  0
ENDTAB
  0
TABLE
  2
LAYER
 70
     2
  0
LAYER
  2
0
 70
     0
 62
   255
  6
CONTINUOUS
  0
LAYER
  2
DEFPOINTS
 70
     0
 62
     7
  6
CONTINUOUS
  0
ENDTAB
  0
TABLE
  2
STYLE
 70
     1
  0
STYLE
  2
STANDARD
 70
     0
 40
0.0
 41
0.8
 50
0.0
 71
     0
 42
0.2
  3
txt
  4

  0
ENDTAB
  0
TABLE
  2
VIEW
 70
     0
  0
ENDTAB
  0
TABLE
  2
UCS
 70
     0
  0
ENDTAB
  0
TABLE
  2
APPID
 70
    10
  0
APPID
  2
ACAD
 70
     0
  0
APPID
  2
ACAD_MLEADERVER
 70
     0
  0
APPID
  2
ACAD_EXEMPT_FROM_CAD_STANDARDS
 70
     0
  0
APPID
  2
ACAD_NAV_VCDISPLAY
 70
     0
  0
APPID
  2
ACAECLAYERSTANDARD
 70
     0
  0
APPID
  2
ACCMTRANSPARENCY
 70
     0
  0
APPID
  2
ACAD_DSTYLE_DIMJAG
 70
     0
  0
APPID
  2
ACAD_DSTYLE_DIMTALN
 70
     0
  0
APPID
  2
ACDBATTR
 70
     0
  0
APPID
  2
DCO15
 70
     0
  0
ENDTAB
  0
TABLE
  2
DIMSTYLE
 70
     2
  0
DIMSTYLE
  2
STANDARD
 70
     0
  3

  4

  5

  6

  7

 40
1.0
 41
0.1875
 42
0.0625
 43
0.38
 44
0.125
 45
0.0
 46
0.0
 47
0.01
 48
0.01
140
0.15625
141
0.09
142
0.0
143
25.3999999999999986
144
1.0
145
0.0
146
1.0
147
0.09
 71
     1
 72
     0
 73
     1
 74
     1
 75
     0
 76
     0
 77
     0
 78
     4
170
     0
171
     2
172
     0
173
     0
174
     0
175
     0
176
     0
177
     0
178
     0
  0
ENDTAB
  0
ENDSEC
  0
SECTION
  2
BLOCKS
  0
BLOCK
  8
0
  2
$MODEL_SPACE
 70
     0
 10
0.0
 20
0.0
 30
0.0
  3
$MODEL_SPACE
  1

  0
ENDBLK
  5
21
  8
0
  0
BLOCK
 67
     1
  8
0
  2
$PAPER_SPACE
 70
     0
 10
0.0
 20
0.0
 30
0.0
  3
$PAPER_SPACE
  1

  0
ENDBLK
  5
1D
 67
     1
  8
0
  0
ENDSEC
  0
SECTION
  2
ENTITIES
  0
ATTDEF
  5
9852
  8
DEFPOINTS
 10
4217.8869324778297596
 20
96.6109068218919873
 30
0.0
 40
0.001
  1
P24715-LV
  3

  2
MODELNUMBER
 70
     0
1001
ACDBATTR
1070
     0
1070
     1
  0
ATTDEF
  5
9853
  8
DEFPOINTS
 10
4217.8869324778297596
 20
96.6092401552253222
 30
0.0
 40
0.001
  1
PER SE
  3

  2
TRADENAME
 70
     0
1001
ACDBATTR
1070
     0
1070
     1
  0
ATTDEF
  5
9854
  8
DEFPOINTS
 10
4217.8869324778297596
 20
96.6075734885586712
 30
0.0
 40
0.001
  1
VALVE TRIM
  3

  2
PRODUCT
 70
     0
1001
ACDBATTR
1070
     0
1070
     1
  0
LINE
  5
A065
  8
0
 10
4217.8852740163201815
 20
93.2428837083762261
 30
0.0
 11
4217.8852740163201815
 21
99.9793153659371825
 31
0.0
  0
LINE
  5
A066
  8
0
 10
4214.4691035007326718
 20
93.2251691344220461
 30
0.0
 11
4214.4691035007326718
 21
95.6307108141341047
 31
0.0
  0
LINE
  5
A067
  8
0
 10
4217.1738904420062681
 20
94.100014148006963
 30
0.0
 11
4217.1738904420062681
 21
99.122184822445476
 31
0.0
  0
ARC
  5
A068
  8
0
 10
4217.8617354484285897
 20
99.0236508573681107
 30
0.0
 40
5.780815071859867
 50
264.036687466312685
 51
270.2333000288247149
  0
ARC
  5
A069
  8
0
 10
4239.9808006710627524
 20
93.5839379897332861
 30
0.0
 40
22.8127483832486391
 50
178.7037288128113062
 51
179.9418397458063907
  0
ARC
  5
A06A
  8
0
 10
4225.3577544929712531
 20
93.6113955471654009
 30
0.0
 40
8.1896915811715303
 50
180.0300874762513104
 51
181.6732426253684878
  0
ARC
  5
A06F
  8
0
 10
4217.2715462965388724
 20
93.3735768184140937
 30
0.0
 40
0.1
 50
180.7538603836823086
 51
264.036687466312685
  0
ARC
  5
A070
  8
0
 10
4217.9793235299366643
 20
91.848952148253602
 30
0.0
 40
8.1309071672522037
 50
90.6627502015004438
 51
95.0672813252248545
  0
ARC
  5
A071
  8
0
 10
4239.9808006710627524
 20
99.6382609807191528
 30
0.0
 40
22.8127483832486391
 50
180.0581602541934956
 51
181.2962711871886086
  0
ARC
  5
A072
  8
0
 10
4225.0803230908486512
 20
99.6231356805890158
 30
0.0
 40
7.9122631262783019
 50
179.139267236477508
 51
180.0581602541934956
  0
ARC
  5
A073
  8
0
 10
4212.0371467271334041
 20
99.9197092855754931
 30
0.0
 40
5.1348822649653583
 50
358.0166318816965259
 51
359.2214559787666985
  0
ARC
  5
A077
  8
0
 10
4217.2715462965388724
 20
99.848622152038331
 30
0.0
 40
0.1
 50
95.963312533687315
 51
179.2461396163176062
  0
LINE
  5
A078
  8
0
 10
4215.7292660163202527
 20
97.2758698270515794
 30
0.0
 11
4215.7292660163202527
 21
95.9463291434008738
 31
0.0
  0
LINE
  5
A079
  8
0
 10
4215.6861114412204188
 20
97.2669062609789989
 30
0.0
 11
4215.6861114412204188
 21
95.9552927094734258
 31
0.0
  0
LINE
  5
A07A
  8
0
 10
4215.7282386074202805
 20
97.2063152620762168
 30
0.0
 11
4215.7282386074202805
 21
96.0158837083762364
 31
0.0
  0
LINE
  5
A07B
  8
0
 10
4215.7282386074202805
 20
97.2063152620762168
 30
0.0
 11
4215.6861114412204188
 21
97.2063152620762168
 31
0.0
  0
LINE
  5
A07C
  8
0
 10
4217.154026016320131
 20
98.4360337081787407
 30
0.0
 11
4217.154026016320131
 21
94.7861652622737267
 31
0.0
  0
LINE
  5
A07D
  8
0
 10
4217.1556929340977149
 20
98.454216253128763
 30
0.0
 11
4217.1738904420062681
 21
98.5526302565705663
 31
0.0
  0
ARC
  5
A07E
  8
0
 10
4217.2540260163186758
 20
98.4360337081787407
 30
0.0
 40
0.1
 50
169.5238948374907864
 51
180.0000000000202931
  0
LINE
  5
A07F
  8
0
 10
4217.1440260163190032
 20
98.4256211249455646
 30
0.0
 11
4217.1146444351988976
 21
98.4256211249455646
 31
0.0
  0
ARC
  5
A080
  8
0
 10
4217.1440260163190032
 20
98.4156211249455737
 30
0.0
 40
0.01
 50
0.0000000000105849
 51
90.0
  0
ARC
  5
A081
  8
0
 10
4216.0900384915721588
 20
98.7871807570637941
 30
0.0
 40
1.066875692692808
 50
335.3452544571251792
 51
339.0853278042037005
  0
ARC
  5
A082
  8
0
 10
4215.3004092282690181
 20
99.1496142922559756
 30
0.0
 40
1.935709647425891
 50
330.006474656271223
 51
335.3452544571251792
  0
ARC
  5
A083
  8
0
 10
4215.6773591910778123
 20
98.9320389218914045
 30
0.0
 40
1.500473715715543
 50
316.4116173396150202
 51
330.006474656271223
  0
ARC
  5
A084
  8
0
 10
4215.1676719173237871
 20
99.4172105284243486
 30
0.0
 40
2.2041587338969171
 50
303.8798734926832026
 51
316.4116173396150202
  0
ARC
  5
A085
  8
0
 10
4215.35831568089543
 20
99.1332872889878445
 30
0.0
 40
1.8621683093514281
 50
293.6718336257387136
 51
303.8798734926832026
  0
ARC
  5
A086
  8
0
 10
4214.6371703740232988
 20
100.7782988917579985
 30
0.0
 40
3.65830686939423
 50
287.539928160504985
 51
293.6718336257387136
  0
ARC
  5
A087
  8
0
 10
4214.3604699937850455
 20
101.7247637982415966
 30
0.0
 40
4.6316618434014787
 50
281.7231118003580264
 51
286.3848898009268851
  0
ARC
  5
A088
  8
0
 10
4216.1862361824578329
 20
92.9263466736792338
 30
0.0
 40
4.3541918207474293
 50
101.7231118003579979
 51
103.2568435955367931
  0
ARC
  5
A089
  8
0
 10
4216.1024689965906873
 20
93.2819028289144114
 30
0.0
 40
3.9889013596703942
 50
103.2568435955367931
 51
106.1678746354094045
  0
ARC
  5
A08A
  8
0
 10
4215.3002784769651043
 20
96.0488504774281751
 30
0.0
 40
1.1080145310371741
 50
106.1678746354094045
 51
120.6903065127693964
  0
ARC
  5
A08B
  8
0
 10
4214.9357953852177161
 20
96.6629466090448943
 30
0.0
 40
0.3938983058773699
 50
120.6903065127693964
 51
147.8941996098137963
  0
ARC
  5
A08C
  8
0
 10
4215.1119454599229357
 20
96.552423023957644
 30
0.0
 40
0.6018509727975433
 50
147.8941996098137963
 51
166.700467466331304
  0
ARC
  5
A08D
  8
0
 10
4216.4163617422709649
 20
96.2440833183436126
 30
0.0
 40
1.942214808370246
 50
166.700467466331304
 51
172.2016387622363141
  0
ARC
  5
A08E
  8
0
 10
4216.3473988643700068
 20
96.2535280480663147
 30
0.0
 40
1.872608189088403
 50
172.2016387622363141
 51
179.1424629531817061
  0
ARC
  5
A08F
  8
0
 10
4269.5652461737299745
 20
95.4569653008704933
 30
0.0
 40
55.0964166252807317
 50
179.1424629531825019
 51
179.8193185377841132
  0
LINE
  5
A090
  8
0
 10
4214.6668048531873865
 20
93.0735943207394172
 30
0.0
 11
4214.6068640201528979
 21
93.0735943207394172
 31
0.0
  0
LINE
  5
A092
  8
0
 10
4214.7839894098733566
 20
93.188891776548715
 30
0.0
 11
4214.8243677596055932
 21
95.6759399282756817
 31
0.0
  0
ARC
  5
A093
  8
0
 10
4214.5863035007332655
 20
93.2251691344220461
 30
0.0
 40
0.1172
 50
179.9999999999992042
 51
226.3509698734727067
  0
ARC
  5
A095
  8
0
 10
4214.6668048531873865
 20
93.1907943207394283
 30
0.0
 40
0.1172
 50
270.0
 51
359.0698588680859871
  0
ARC
  5
A096
  8
0
 10
4214.6090126482040432
 20
93.1748556688047529
 30
0.0
 40
0.1012841409822029
 50
218.1514496259667055
 51
268.784443909417007
  0
ARC
  5
A097
  8
0
 10
4214.1747790877698208
 20
92.8339925781683917
 30
0.0
 40
0.4507542999103272
 50
38.1264986932960923
 51
42.8193572115995096
  0
ARC
  5
A098
  8
0
 10
4215.6712114412202936
 20
97.2669062609789989
 30
0.0
 40
0.0149
 50
0.0
 51
106.3848898009285051
  0
ARC
  5
A099
  8
0
 10
4215.7441660163203778
 20
97.2758698270515652
 30
0.0
 40
0.0149
 50
107.5399281605049993
 51
179.9999999999795932
  0
LINE
  5
A09A
  8
0
 10
4215.7292660163202527
 20
97.1418426709762031
 30
0.0
 11
4215.7282386074202805
 21
97.1408152620762166
 31
0.0
  0
ARC
  5
A09B
  8
0
 10
4217.1146444351988976
 20
98.395621124945535
 30
0.0
 40
0.03
 50
90.0000000000521254
 51
159.0853278041792862
  0
LINE
  5
A09C
  8
0
 10
4215.7282386074202805
 20
96.0158837083762364
 30
0.0
 11
4215.6861114412204188
 21
96.0158837083762364
 31
0.0
  0
ARC
  5
A09D
  8
0
 10
4217.2540260163186758
 20
94.7861652622737267
 30
0.0
 40
0.1
 50
179.9999999999795932
 51
190.4761051625092136
  0
LINE
  5
A09E
  8
0
 10
4217.1440260163190032
 20
94.7965778455068744
 30
0.0
 11
4217.1146444351988976
 21
94.7965778455068744
 31
0.0
  0
ARC
  5
A09F
  8
0
 10
4217.1440260163190032
 20
94.8065778455068795
 30
0.0
 40
0.01
 50
270.0
 51
359.9999999999894271
  0
ARC
  5
A0A0
  8
0
 10
4216.0900384915721588
 20
94.4350182133886449
 30
0.0
 40
1.066875692692808
 50
20.9146721957962995
 51
24.6547455428748385
  0
ARC
  5
A0A1
  8
0
 10
4215.3004092282690181
 20
94.0725846781964634
 30
0.0
 40
1.935709647425891
 50
24.6547455428748385
 51
29.9935253437288196
  0
ARC
  5
A0A2
  8
0
 10
4215.6773591910778123
 20
94.2901600485610345
 30
0.0
 40
1.500473715715543
 50
29.9935253437288196
 51
43.5883826603850011
  0
ARC
  5
A0A3
  8
0
 10
4215.1676719173237871
 20
93.8049884420281046
 30
0.0
 40
2.2041587338969171
 50
43.5883826603850011
 51
56.1201265073168472
  0
ARC
  5
A0A4
  8
0
 10
4215.35831568089543
 20
94.0889116814645945
 30
0.0
 40
1.8621683093514281
 50
56.1201265073168472
 51
66.3281663742613432
  0
ARC
  5
A0A5
  8
0
 10
4214.6371703740232988
 20
92.4439000786944547
 30
0.0
 40
3.65830686939423
 50
66.3281663742613432
 51
72.460071839495015
  0
ARC
  5
A0A6
  8
0
 10
4215.6712114412202936
 20
95.9552927094734258
 30
0.0
 40
0.0149
 50
253.6151101990714096
 51
0.0
  0
ARC
  5
A0A7
  8
0
 10
4215.7441660163203778
 20
95.9463291434008738
 30
0.0
 40
0.0149
 50
180.0000000000202931
 51
252.4600718394952992
  0
LINE
  5
A0A8
  8
0
 10
4215.7292660163202527
 20
96.0803562994762217
 30
0.0
 11
4215.7282386074202805
 21
96.0813837083762223
 31
0.0
  0
ARC
  5
A0A9
  8
0
 10
4217.1146444351988976
 20
94.8265778455069039
 30
0.0
 40
0.03
 50
200.9146721958206001
 51
269.9999999999478746
  0
LINE
  5
A0AA
  8
0
 10
4217.1556929340977149
 20
94.767982717323676
 30
0.0
 11
4217.1738904420062681
 21
94.6695687138818869
 31
0.0
  0
ARC
  5
A0AB
  8
0
 10
4190.0078081766068863
 20
-0.4310234685758161
 30
0.0
 40
99.7294391834944065
 50
75.0907904431217048
 51
75.2810935789307223
  0
ARC
  5
A0AC
  8
0
 10
4215.1994520075841137
 20
95.4630789184045909
 30
0.0
 40
0.5815811350475834
 50
75.3261807593124217
 51
85.7385867315121715
  0
ARC
  5
A0AD
  8
0
 10
4215.172087597380596
 20
95.3934544463995451
 30
0.0
 40
0.6534208478705317
 50
83.7990288538488386
 51
93.996940813230637
  0
ARC
  5
A0AE
  8
0
 10
4215.1527250767012447
 20
95.6692291243778499
 30
0.0
 40
0.3769672980390461
 50
93.9827986046251169
 51
114.9983284199363993
  0
ARC
  5
A0AF
  8
0
 10
4215.1299251818527409
 20
95.7420953938958661
 30
0.0
 40
0.3014622855723863
 50
116.9237440889579034
 51
148.1564387387107899
  0
ARC
  5
A0B0
  8
0
 10
4215.1342532525059141
 20
95.7394073186638934
 30
0.0
 40
0.3065571794905971
 50
148.1564387387107899
 51
167.9971887653196063
  0
ARC
  5
A0B1
  8
0
 10
4217.0054544501554119
 20
95.5679791769848634
 30
0.0
 40
2.183757009264331
 50
173.8175415364893865
 51
177.1662515936623947
  0
ENDSEC
  0
EOF
