  0
SECTION
  2
HEADER
  9
$ACADVER
  1
AC1009
  9
$INSBASE
 10
45.3563626971591418
 20
-4.2570400594301168
 30
0.0
  9
$EXTMIN
 10
35.5406531179609999
 20
-4.2627356163480954
 30
-0.0000000000000058
  9
$EXTMAX
 10
48.8605692715310624
 20
30.029027328957909
 30
0.0000000000000104
  9
$LIMMIN
 10
0.0
 20
0.0
  9
$LIMMAX
 10
11.6929133858000007
 20
8.2677165353999982
  9
$ORTHOMODE
 70
     0
  9
$REGENMODE
 70
     1
  9
$FILLMODE
 70
     1
  9
$QTEXTMODE
 70
     0
  9
$MIRRTEXT
 70
     0
  9
$DRAGMODE
 70
     2
  9
$LTSCALE
 40
0.6431102362
  9
$OSMODE
 70
   575
  9
$ATTMODE
 70
     1
  9
$TEXTSIZE
 40
0.2
  9
$TRACEWID
 40
0.05
  9
$TEXTSTYLE
  7
STANDARD
  9
$CLAYER
  8
0
  9
$CELTYPE
  6
BYLAYER
  9
$CECOLOR
 62
   256
  9
$DIMSCALE
 40
1.0
  9
$DIMASZ
 40
0.1875
  9
$DIMEXO
 40
0.0625
  9
$DIMDLI
 40
0.4443307087
  9
$DIMRND
 40
0.0
  9
$DIMDLE
 40
0.0
  9
$DIMEXE
 40
0.125
  9
$DIMTP
 40
0.01
  9
$DIMTM
 40
0.01
  9
$DIMTXT
 40
1.0
  9
$DIMCEN
 40
0.1052362205
  9
$DIMTSZ
 40
0.0
  9
$DIMTOL
 70
     1
  9
$DIMLIM
 70
     0
  9
$DIMTIH
 70
     1
  9
$DIMTOH
 70
     1
  9
$DIMSE1
 70
     0
  9
$DIMSE2
 70
     0
  9
$DIMTAD
 70
     0
  9
$DIMZIN
 70
     0
  9
$DIMBLK
  1

  9
$DIMASO
 70
     1
  9
$DIMSHO
 70
     1
  9
$DIMPOST
  1
\X
  9
$DIMAPOST
  1

  9
$DIMALT
 70
     1
  9
$DIMALTD
 70
     2
  9
$DIMALTF
 40
25.3999999999999986
  9
$DIMLFAC
 40
1.0
  9
$DIMTOFL
 70
     0
  9
$DIMTVP
 40
0.0
  9
$DIMTIX
 70
     0
  9
$DIMSOXD
 70
     0
  9
$DIMSAH
 70
     0
  9
$DIMBLK1
  1

  9
$DIMBLK2
  1

  9
$DIMSTYLE
  2
STANDARD
  9
$DIMCLRD
 70
     0
  9
$DIMCLRE
 70
     0
  9
$DIMCLRT
 70
     0
  9
$DIMTFAC
 40
1.0
  9
$DIMGAP
 40
0.09
  9
$LUNITS
 70
     2
  9
$LUPREC
 70
     4
  9
$SKETCHINC
 40
0.1
  9
$FILLETRAD
 40
0.0
  9
$AUNITS
 70
     0
  9
$AUPREC
 70
     0
  9
$MENU
  1
.
  9
$ELEVATION
 40
0.0
  9
$PELEVATION
 40
0.0
  9
$THICKNESS
 40
0.0
  9
$LIMCHECK
 70
     0
  9
$BLIPMODE
 70
     0
  9
$CHAMFERA
 40
0.0
  9
$CHAMFERB
 40
0.0
  9
$SKPOLY
 70
     0
  9
$TDCREATE
 40
2458172.4620254631154239
  9
$TDUPDATE
 40
2459478.5236226851120591
  9
$TDINDWG
 40
0.0863832523
  9
$TDUSRTIMER
 40
0.0863832523
  9
$USRTIMER
 70
     1
  9
$ANGBASE
 50
0.0
  9
$ANGDIR
 70
     0
  9
$PDMODE
 70
     0
  9
$PDSIZE
 40
0.3125
  9
$PLINEWID
 40
0.0
  9
$COORDS
 70
     2
  9
$SPLFRAME
 70
     0
  9
$SPLINETYPE
 70
     6
  9
$SPLINESEGS
 70
     8
  9
$ATTDIA
 70
     1
  9
$ATTREQ
 70
     1
  9
$HANDLING
 70
     1
  9
$HANDSEED
  5
7D93
  9
$SURFTAB1
 70
     6
  9
$SURFTAB2
 70
     6
  9
$SURFTYPE
 70
     6
  9
$SURFU
 70
     6
  9
$SURFV
 70
     6
  9
$UCSNAME
  2

  9
$UCSORG
 10
0.0
 20
0.0
 30
0.0
  9
$UCSXDIR
 10
1.0
 20
0.0
 30
0.0
  9
$UCSYDIR
 10
0.0
 20
1.0
 30
0.0
  9
$PUCSNAME
  2

  9
$PUCSORG
 10
0.0
 20
0.0
 30
0.0
  9
$PUCSXDIR
 10
1.0
 20
0.0
 30
0.0
  9
$PUCSYDIR
 10
0.0
 20
1.0
 30
0.0
  9
$USERI1
 70
     0
  9
$USERI2
 70
     0
  9
$USERI3
 70
     0
  9
$USERI4
 70
     0
  9
$USERI5
 70
     0
  9
$USERR1
 40
0.0
  9
$USERR2
 40
0.0
  9
$USERR3
 40
0.0
  9
$USERR4
 40
0.0
  9
$USERR5
 40
0.0
  9
$WORLDVIEW
 70
     1
  9
$SHADEDGE
 70
     3
  9
$SHADEDIF
 70
    70
  9
$TILEMODE
 70
     1
  9
$MAXACTVP
 70
    64
  9
$PLIMCHECK
 70
     0
  9
$PEXTMIN
 10
1.0000000000000000E+20
 20
1.0000000000000000E+20
 30
1.0000000000000000E+20
  9
$PEXTMAX
 10
-1.0000000000000000E+20
 20
-1.0000000000000000E+20
 30
-1.0000000000000000E+20
  9
$PLIMMIN
 10
0.0
 20
0.0
  9
$PLIMMAX
 10
12.0
 20
9.0
  9
$UNITMODE
 70
     0
  9
$VISRETAIN
 70
     1
  9
$PLINEGEN
 70
     0
  9
$PSLTSCALE
 70
     1
  0
ENDSEC
  0
SECTION
  2
TABLES
  0
TABLE
  2
VPORT
 70
     1
  0
VPORT
  2
*ACTIVE
 70
     0
 10
0.0
 20
0.0
 11
1.0
 21
1.0
 12
-82.4105476069131555
 22
7.5708715268795848
 13
0.0
 23
0.0
 14
1.0
 24
1.0
 15
0.0
 25
0.0
 16
0.0
 26
0.0
 36
30.6214257250603907
 17
124.6111586000725993
 27
5.3122741703778242
 37
0.0
 40
43.979608198482822
 41
2.554276315789473
 42
50.0
 43
0.0
 44
0.0
 50
0.0
 51
0.0
 71
     0
 72
   100
 73
     1
 74
     1
 75
     0
 76
     0
 77
     0
 78
     0
  0
ENDTAB
  0
TABLE
  2
LTYPE
 70
     2
  0
LTYPE
  2
CONTINUOUS
 70
     0
  3
Solid line
 72
    65
 73
     0
 40
0.0
  0
LTYPE
  2
PHANTOM2
 70
     0
  3
___ _ _ ___ _ _ ___ _ _ ___ _ _
 72
    65
 73
     6
 40
1.25
 49
0.625
 49
-0.125
 49
0.125
 49
-0.125
 49
0.125
 49
-0.125
  0
ENDTAB
  0
TABLE
  2
LAYER
 70
     2
  0
LAYER
  2
0
 70
     0
 62
   255
  6
CONTINUOUS
  0
LAYER
  2
DEFPOINTS
 70
     0
 62
     7
  6
CONTINUOUS
  0
ENDTAB
  0
TABLE
  2
STYLE
 70
     1
  0
STYLE
  2
STANDARD
 70
     0
 40
0.0
 41
0.8
 50
0.0
 71
     0
 42
0.2
  3
txt
  4

  0
ENDTAB
  0
TABLE
  2
VIEW
 70
     0
  0
ENDTAB
  0
TABLE
  2
UCS
 70
     0
  0
ENDTAB
  0
TABLE
  2
APPID
 70
     9
  0
APPID
  2
ACAD
 70
     0
  0
APPID
  2
ACAD_MLEADERVER
 70
     0
  0
APPID
  2
ACAD_EXEMPT_FROM_CAD_STANDARDS
 70
     0
  0
APPID
  2
ACAD_DSTYLE_DIMJAG
 70
     0
  0
APPID
  2
ACAD_DSTYLE_DIMTALN
 70
     0
  0
APPID
  2
ACAD_NAV_VCDISPLAY
 70
     0
  0
APPID
  2
ACAECLAYERSTANDARD
 70
     0
  0
APPID
  2
ACCMTRANSPARENCY
 70
     0
  0
APPID
  2
ACDBATTR
 70
     0
  0
ENDTAB
  0
TABLE
  2
DIMSTYLE
 70
     1
  0
DIMSTYLE
  2
STANDARD
 70
     0
  3

  4

  5

  6

  7

 40
1.0
 41
0.1875
 42
0.0625
 43
0.38
 44
0.125
 45
0.0
 46
0.0
 47
0.01
 48
0.01
140
0.15625
141
0.09
142
0.0
143
25.3999999999999986
144
1.0
145
0.0
146
1.0
147
0.09
 71
     1
 72
     0
 73
     1
 74
     1
 75
     0
 76
     0
 77
     0
 78
     4
170
     0
171
     2
172
     0
173
     0
174
     0
175
     0
176
     0
177
     0
178
     0
  0
ENDTAB
  0
ENDSEC
  0
SECTION
  2
BLOCKS
  0
BLOCK
  8
0
  2
$MODEL_SPACE
 70
     0
 10
0.0
 20
0.0
 30
0.0
  3
$MODEL_SPACE
  1

  0
ENDBLK
  5
21
  8
0
  0
BLOCK
 67
     1
  8
0
  2
$PAPER_SPACE
 70
     0
 10
0.0
 20
0.0
 30
0.0
  3
$PAPER_SPACE
  1

  0
ENDBLK
  5
1D
 67
     1
  8
0
  0
ENDSEC
  0
SECTION
  2
ENTITIES
  0
ATTDEF
  5
383D
  8
DEFPOINTS
 10
45.3564226045215335
 20
-4.2581527893052478
 30
0.0
 40
0.001
  1
P24713-00
  3

  2
MODELNUMBER
 70
     0
1001
ACDBATTR
1070
     0
1070
     1
  0
ATTDEF
  5
383E
  8
DEFPOINTS
 10
45.356422734600109
 20
-4.2598194559719129
 30
0.0
 40
0.001
  1
PERSE
  3

  2
TRADENAME
 70
     0
1001
ACDBATTR
1070
     0
1070
     1
  0
ATTDEF
  5
383F
  8
DEFPOINTS
 10
45.3564227325312004
 20
-4.2614861226385781
 30
0.0
 40
0.001
  1
BATH FILLER
  3

  2
PRODUCT
 70
     0
1001
ACDBATTR
1070
     0
1070
     1
  0
LINE
  5
7ABB
  8
0
 10
42.9055752956091467
 20
-4.2570400594301168
 30
0.0
 11
47.8071500987091582
 21
-4.2570400594301168
 31
0.0
  0
LINE
  5
7ABC
  8
0
 10
42.9351028547091431
 20
-3.863339272030117
 30
0.0
 11
47.7776225397091494
 21
-3.863339272030117
 31
0.0
  0
LINE
  5
7ABD
  8
0
 10
46.6949453743091567
 20
-2.682236909830118
 30
0.0
 11
44.0177800200091411
 21
-2.682236909830118
 31
0.0
  0
LINE
  5
7ABE
  8
0
 10
45.3965474170091596
 20
28.0523467689698904
 30
0.0
 11
46.4279121565091515
 21
28.5332800453698887
 31
0.0
  0
LINE
  5
7ABF
  8
0
 10
35.5507594237091524
 20
28.0834028133698794
 30
0.0
 11
35.5431396383091425
 21
27.8502691688698896
 31
0.0
  0
LINE
  5
7AC0
  8
0
 10
47.9018942936091392
 20
23.8604981054698797
 30
0.0
 11
47.9084678701091491
 21
23.8640623948698796
 31
0.0
  0
LINE
  5
7AC1
  8
0
 10
47.855378445209162
 20
23.5258524407698886
 30
0.0
 11
47.7963233271091497
 21
23.4667973226698798
 31
0.0
  0
LINE
  5
7AC2
  8
0
 10
40.5150669234091509
 20
29.8267472527698807
 30
0.0
 11
40.5113831035091394
 21
29.7140377333698886
 31
0.0
  0
LINE
  5
7AC3
  8
0
 10
43.2110232467091393
 20
25.0446010063698807
 30
0.0
 11
43.2087797160091398
 21
25.0260312479698896
 31
0.0
  0
LINE
  5
7AC4
  8
0
 10
43.2078690981091498
 20
24.9918682067698903
 30
0.0
 11
43.2081379362091482
 21
24.9051592293698789
 31
0.0
  0
LINE
  5
7AC5
  8
0
 10
42.8957327759091527
 20
-4.2471975397301156
 30
0.0
 11
42.8957327759091527
 21
-3.9027093508301158
 31
0.0
  0
LINE
  5
7AC6
  8
0
 10
43.5796855318091403
 20
24.1388445468698798
 30
0.0
 11
43.5796855318091403
 21
25.0388445468698784
 31
0.0
  0
LINE
  5
7AC7
  8
0
 10
43.2078870322091433
 20
24.2302056024698906
 30
0.0
 11
43.2078910123091404
 21
24.1770185811698788
 31
0.0
  0
LINE
  5
7AC8
  8
0
 10
43.6584256893091478
 20
24.2148287990698883
 30
0.0
 11
43.6584256893091478
 21
24.2286083263698906
 31
0.0
  0
LINE
  5
7AC9
  8
0
 10
43.6584256893091478
 20
24.94908076726988
 30
0.0
 11
43.6584256893091478
 21
24.9628602945698894
 31
0.0
  0
LINE
  5
7ACA
  8
0
 10
43.9784099413091525
 20
-2.7216069886301169
 30
0.0
 11
43.9784099413091525
 21
-2.863339272030117
 31
0.0
  0
LINE
  5
7ACB
  8
0
 10
44.1584256893091478
 20
24.9628602947698894
 30
0.0
 11
44.1584256893091478
 21
24.94908076726988
 31
0.0
  0
LINE
  5
7ACC
  8
0
 10
44.1584256893091478
 20
24.2286083263698906
 30
0.0
 11
44.1584256893091478
 21
24.2148287989698794
 31
0.0
  0
LINE
  5
7ACD
  8
0
 10
44.1752603350091491
 20
-2.682236909830118
 30
0.0
 11
44.1752603350091491
 21
21.1245374208698884
 31
0.0
  0
LINE
  5
7ACE
  8
0
 10
44.1752603350091491
 20
21.1832224602698815
 30
0.0
 11
44.1752603350091491
 21
24.1455452948698799
 31
0.0
  0
LINE
  5
7ACF
  8
0
 10
44.1752603350091491
 20
25.0323169484698802
 30
0.0
 11
44.1752603350091491
 21
26.3702992103698897
 31
0.0
  0
LINE
  5
7AD0
  8
0
 10
44.3327406499091481
 20
27.9274271846698916
 30
0.0
 11
44.3327406499091481
 21
27.9038051373698899
 31
0.0
  0
LINE
  5
7AD1
  8
0
 10
44.3524256893091575
 20
21.1632224602698891
 30
0.0
 11
44.3524256893091575
 21
21.1442224602698907
 31
0.0
  0
LINE
  5
7AD2
  8
0
 10
44.4851733664091427
 20
28.0336083263698903
 30
0.0
 11
44.4849966115091391
 21
28.0133542290698792
 31
0.0
  0
LINE
  5
7AD3
  8
0
 10
44.8381836882091491
 20
27.8950176951698801
 30
0.0
 11
44.8381639105091523
 21
27.8959306559698916
 31
0.0
  0
LINE
  5
7AD4
  8
0
 10
44.9749683033442196
 20
21.1632224602698891
 30
0.0
 11
44.9749679002091511
 21
26.4155569652698894
 31
0.0
  0
LINE
  5
7AD5
  8
0
 10
44.974969109209141
 20
-2.682236909830118
 30
0.0
 11
44.974969109209141
 21
21.1442224602698907
 31
0.0
  0
LINE
  5
7AD6
  8
0
 10
44.9875636028091392
 20
27.8959311216698893
 30
0.0
 11
44.9749679002091511
 21
26.4155569652698894
 31
0.0
  0
LINE
  5
7AD7
  8
0
 10
45.7377495298091432
 20
21.1632224602698891
 30
0.0
 11
45.7377495298091432
 21
27.8359311216698799
 31
0.0
  0
LINE
  5
7AD8
  8
0
 10
45.7377562852091373
 20
-2.682236909830118
 30
0.0
 11
45.7377562852091373
 21
21.1442224602698907
 31
0.0
  0
LINE
  5
7AD9
  8
0
 10
46.2240211740088967
 20
28.4382041187973016
 30
0.0
 11
46.2277287828091374
 21
28.0133542290698792
 31
0.0
  0
LINE
  5
7ADA
  8
0
 10
46.3602997050091474
 20
21.1632224602698891
 30
0.0
 11
46.3602997050091474
 21
21.1442224602698907
 31
0.0
  0
LINE
  5
7ADB
  8
0
 10
46.3799847444091498
 20
27.9274271846698916
 30
0.0
 11
46.3799847444091498
 21
27.9038051373698899
 31
0.0
  0
LINE
  5
7ADC
  8
0
 10
46.5335280515091512
 20
21.2875518452698813
 30
0.0
 11
46.5335280515091512
 21
21.4491848408698793
 31
0.0
  0
LINE
  5
7ADD
  8
0
 10
46.5374650594091435
 20
-2.682236909830118
 30
0.0
 11
46.5374650594091435
 21
21.1245374208698884
 31
0.0
  0
LINE
  5
7ADE
  8
0
 10
46.5374650594091435
 20
21.1832224602698815
 30
0.0
 11
46.5374650594091435
 21
21.2423878145698808
 31
0.0
  0
LINE
  5
7ADF
  8
0
 10
46.5374650594091435
 20
21.4943563184698796
 30
0.0
 11
46.5374650594091435
 21
23.9071104859334191
 31
0.0
  0
LINE
  5
7AE0
  8
0
 10
46.5374650594091435
 20
25.2706684544788907
 30
0.0
 11
46.5374650594091435
 21
27.8359311216698799
 31
0.0
  0
LINE
  5
7AE1
  8
0
 10
46.73431545310914
 20
-2.7216069886301169
 30
0.0
 11
46.73431545310914
 21
-2.863339272030117
 31
0.0
  0
LINE
  5
7AE2
  8
0
 10
47.0305752956091467
 20
23.5258524407698886
 30
0.0
 11
47.0305752956091467
 21
23.7620729132698791
 31
0.0
  0
LINE
  5
7AE3
  8
0
 10
47.0886461617091499
 20
23.8604981058243091
 30
0.0
 11
47.0886461617091499
 21
23.7620729132698791
 31
0.0
  0
LINE
  5
7AE4
  8
0
 10
47.7973075791091588
 20
23.8604981055154504
 30
0.0
 11
47.7973075791091588
 21
23.7620729132698791
 31
0.0
  0
LINE
  5
7AE5
  8
0
 10
47.8169926184091381
 20
-3.9027093508301158
 30
0.0
 11
47.8169926184091381
 21
-4.2471975397301156
 31
0.0
  0
LINE
  5
7AE6
  8
0
 10
47.855378445209162
 20
23.5258524407698886
 30
0.0
 11
47.855378445209162
 21
23.7620729132698791
 31
0.0
  0
LINE
  5
7AE7
  8
0
 10
48.8602997050091474
 20
24.0519162219698792
 30
0.0
 11
48.8602997050091474
 21
25.1257729070698801
 31
0.0
  0
LINE
  5
7AE8
  8
0
 10
44.1949453743091567
 20
21.1442224602698907
 30
0.0
 11
46.5177800200091411
 21
21.1442224602698907
 31
0.0
  0
LINE
  5
7AE9
  8
0
 10
44.1952603350091522
 20
21.1632224602698891
 30
0.0
 11
46.5174650594091474
 21
21.1632224602698891
 31
0.0
  0
LINE
  5
7AEA
  8
0
 10
48.6617381763091501
 20
23.9994926432698783
 30
0.0
 11
48.8267257822091523
 21
24.0184784530698785
 31
0.0
  0
LINE
  5
7AEB
  8
0
 10
48.6545764703091521
 20
23.9992167130698917
 30
0.0
 11
48.6617381763091501
 21
23.9994926432698783
 31
0.0
  0
LINE
  5
7AEC
  8
0
 10
47.0896304137091377
 20
23.4667973226698798
 30
0.0
 11
47.7963233271091497
 21
23.4667973226698798
 31
0.0
  0
LINE
  5
7AED
  8
0
 10
47.0305752956091467
 20
23.5258524407698886
 30
0.0
 11
47.855378445209162
 21
23.5258524407698886
 31
0.0
  0
LINE
  5
7AEE
  8
0
 10
47.855378445209162
 20
23.7620729132698791
 30
0.0
 11
47.0305752956091467
 21
23.7620729132698791
 31
0.0
  0
LINE
  5
7AEF
  8
0
 10
46.9840594600091492
 20
23.8604981058698904
 30
0.0
 11
47.9018942936091392
 21
23.8604981054698797
 31
0.0
  0
LINE
  5
7AF0
  8
0
 10
46.5473074711091499
 20
23.8998681888698812
 30
0.0
 11
46.6477012798091408
 21
23.8998681888698812
 31
0.0
  0
LINE
  5
7AF1
  8
0
 10
47.9744710417347733
 20
23.8998681888530093
 30
0.0
 11
47.9844912716091372
 21
23.8998681888698812
 31
0.0
  0
LINE
  5
7AF2
  8
0
 10
47.0305752956091467
 20
23.5258524407698886
 30
0.0
 11
47.0896304137091377
 21
23.4667973226698798
 31
0.0
  0
LINE
  5
7AF3
  8
0
 10
43.5296855318091502
 20
24.0888445468698897
 30
0.0
 11
43.2606907808091492
 21
24.0888445468698897
 31
0.0
  0
LINE
  5
7AF4
  8
0
 10
43.619055610609152
 20
24.1951437594698788
 30
0.0
 11
43.6387406499091526
 21
24.1951437594698788
 31
0.0
  0
LINE
  5
7AF5
  8
0
 10
44.1781107287091501
 20
24.1951437594698788
 30
0.0
 11
44.1918559329768499
 21
24.1951437594698788
 31
0.0
  0
LINE
  5
7AF6
  8
0
 10
44.1288981302091514
 20
24.2581358854698905
 30
0.0
 11
43.6879532484091584
 21
24.2581358854698905
 31
0.0
  0
LINE
  5
7AF7
  8
0
 10
43.6879532484091584
 20
24.9195532082698783
 30
0.0
 11
44.1288981302091514
 21
24.9195532082698783
 31
0.0
  0
LINE
  5
7AF8
  8
0
 10
43.619055610609152
 20
24.9825453342698793
 30
0.0
 11
43.6387406499091526
 21
24.9825453342698793
 31
0.0
  0
LINE
  5
7AF9
  8
0
 10
44.1781107287091501
 20
24.9825453342698793
 30
0.0
 11
44.1920614571671493
 21
24.9825453342698793
 31
0.0
  0
LINE
  5
7AFA
  8
0
 10
43.5296855318091502
 20
25.0888445468698897
 30
0.0
 11
43.2606907808091492
 21
25.0888445468698897
 31
0.0
  0
LINE
  5
7AFB
  8
0
 10
46.5473074711091499
 20
25.2778209447698892
 30
0.0
 11
47.9377471489091533
 21
25.2778209447698892
 31
0.0
  0
LINE
  5
7AFC
  8
0
 10
46.9774864341091529
 20
23.8640619377698791
 30
0.0
 11
46.9840594600091492
 21
23.8604981058698904
 31
0.0
  0
LINE
  5
7AFD
  8
0
 10
48.5853686284091424
 20
24.0231521131698784
 30
0.0
 11
48.6375038400091526
 21
24.0028812915698886
 31
0.0
  0
LINE
  5
7AFE
  8
0
 10
36.0996865451091509
 20
27.2752138995698914
 30
0.0
 11
37.325224816022768
 21
27.2415510922812913
 31
0.0
  0
LINE
  5
7AFF
  8
0
 10
37.4945471296091597
 20
27.2869190437698883
 30
0.0
 11
43.5708944944316983
 21
27.1200153120416196
 31
0.0
  0
LINE
  5
7B00
  8
0
 10
44.3406146657091469
 20
27.8959311216698893
 30
0.0
 11
44.9875636028091392
 21
27.8959311216698893
 31
0.0
  0
LINE
  5
7B01
  8
0
 10
46.3721107287091598
 20
27.9353012003698886
 30
0.0
 11
44.3406146657091469
 21
27.9353012003698886
 31
0.0
  0
LINE
  5
7B02
  8
0
 10
44.2022430653091405
 20
28.0336083263698903
 30
0.0
 11
45.312023764609151
 21
28.0336083263698903
 31
0.0
  0
LINE
  5
7B03
  8
0
 10
46.4774650594091412
 20
27.8959311216698893
 30
0.0
 11
44.1752605707091419
 21
27.8959319274698814
 31
0.0
  0
LINE
  5
7B04
  8
0
 10
44.1752605707091419
 20
27.8959319274698814
 30
0.0
 11
43.626957067909153
 21
27.9086054501698797
 31
0.0
  0
LINE
  5
7B05
  8
0
 10
43.626957067909153
 20
27.9086054501698797
 30
0.0
 11
35.7277417406959188
 21
28.2477032005446702
 31
0.0
  0
LINE
  5
7B06
  8
0
 10
44.1371131487091475
 20
29.9570970942698906
 30
0.0
 11
40.7903492864091533
 21
30.0277315399145515
 31
0.0
  0
LINE
  5
7B07
  8
0
 10
40.6129012199091406
 20
29.6056606529698811
 30
0.0
 11
43.3944572769091508
 21
29.5147520389698812
 31
0.0
  0
ARC
  5
7B08
  8
0
 10
35.7206687234448381
 20
28.0778504060711995
 30
0.0
 40
0.1699999981278857
 50
87.6154643985403254
 51
178.1283170818848021
  0
ARC
  5
7B09
  8
0
 10
42.9784099413091525
 20
-2.863339272030117
 30
0.0
 40
1.0
 50
270.0
 51
0.0
  0
ARC
  5
7B0A
  8
0
 10
47.7343154531091471
 20
-2.863339272030117
 30
0.0
 40
1.0
 50
180.0
 51
270.0
  0
ARC
  5
7B0B
  8
0
 10
42.9351028547091431
 20
-3.9027093508301158
 30
0.0
 40
0.0393700787
 50
90.0
 51
180.0
  0
ARC
  5
7B0C
  8
0
 10
46.6949453743091567
 20
-2.7216069886301169
 30
0.0
 40
0.0393700787
 50
0.0
 51
90.0
  0
ARC
  5
7B0D
  8
0
 10
47.7776225397091494
 20
-3.9027093508301158
 30
0.0
 40
0.0393700787
 50
0.0
 51
90.0
  0
ARC
  5
7B0E
  8
0
 10
44.0177800200091411
 20
-2.7216069886301169
 30
0.0
 40
0.0393700787
 50
90.0
 51
180.0
  0
ARC
  5
7B0F
  8
0
 10
42.9055752956091467
 20
-4.2471975397301156
 30
0.0
 40
0.0098425197
 50
180.0
 51
270.0
  0
ARC
  5
7B10
  8
0
 10
47.8071500987091582
 20
-4.2471975397301156
 30
0.0
 40
0.0098425197
 50
270.0
 51
0.0
  0
ARC
  5
7B11
  8
0
 10
47.6713090745304484
 20
21.3727766345590418
 30
0.0
 40
1.1403437509536489
 50
173.8796806143340916
 51
176.1580442805091877
  0
ARC
  5
7B12
  8
0
 10
47.669674379841652
 20
21.3638376011009008
 30
0.0
 40
1.1387045252944821
 50
183.841319549639195
 51
186.1225901094618962
  0
ARC
  5
7B13
  8
0
 10
43.5296855318091502
 20
24.1388445468698798
 30
0.0
 40
0.05
 50
270.0
 51
0.0
  0
ARC
  5
7B14
  8
0
 10
43.5309947729091533
 20
24.1582149140698803
 30
0.0
 40
0.048690759
 50
357.1792844872999808
 51
359.9969075339000142
  0
ARC
  5
7B15
  8
0
 10
43.619055610609152
 20
24.1557736806698884
 30
0.0
 40
0.0393700787
 50
90.0
 51
180.0
  0
ARC
  5
7B16
  8
0
 10
44.2054696018091491
 20
24.1455071391698901
 30
0.0
 40
0.0302092909
 50
158.9609819099999015
 51
179.9276328491000072
  0
ARC
  5
7B17
  8
0
 10
43.6879532484091584
 20
24.2286083263698906
 30
0.0
 40
0.0295275591
 50
90.0
 51
180.0
  0
ARC
  5
7B18
  8
0
 10
44.1288981302091514
 20
24.2286083263698906
 30
0.0
 40
0.0295275591
 50
0.0
 51
90.0
  0
ARC
  5
7B19
  8
0
 10
44.1952603350091522
 20
21.1832224602698815
 30
0.0
 40
0.02
 50
180.0
 51
270.0
  0
ARC
  5
7B1A
  8
0
 10
46.5174650594091474
 20
21.1832224602698815
 30
0.0
 40
0.02
 50
270.0
 51
0.0
  0
ARC
  5
7B1B
  8
0
 10
44.1781107287091501
 20
24.2148287987698794
 30
0.0
 40
0.0196850394
 50
180.0
 51
270.0
  0
ARC
  5
7B1C
  8
0
 10
43.6387406499091526
 20
24.2148287987698794
 30
0.0
 40
0.0196850394
 50
270.0
 51
0.0
  0
ARC
  5
7B1D
  8
0
 10
44.1949453743091567
 20
21.1245374208698884
 30
0.0
 40
0.0196850394
 50
90.0
 51
180.0
  0
ARC
  5
7B1E
  8
0
 10
46.5177800200091411
 20
21.1245374208698884
 30
0.0
 40
0.0196850394
 50
0.0
 51
90.0
  0
ARC
  5
7B1F
  8
0
 10
43.3503344352615869
 20
28.786151893825739
 30
0.0
 40
0.8911851156783785
 50
357.0031211260331929
 51
5.0496170850517892
  0
ARC
  5
7B20
  8
0
 10
45.312023764609151
 20
28.2336083263698789
 30
0.0
 40
0.2
 50
270.0
 51
295.0000000006995151
  0
ARC
  5
7B21
  8
0
 10
46.306465942109142
 20
28.0140413578698784
 30
0.0
 40
0.0787401575
 50
180.4999999999998863
 51
270.0
  0
ARC
  5
7B22
  8
0
 10
44.4062594522091487
 20
28.0140413578698784
 30
0.0
 40
0.0787401575
 50
270.0
 51
359.5
  0
ARC
  5
7B23
  8
0
 10
46.4774650594091412
 20
27.8359311216698799
 30
0.0
 40
0.06
 50
0.0
 51
90.0
  0
ARC
  5
7B24
  8
0
 10
43.5296855318091502
 20
25.0388445468698784
 30
0.0
 40
0.05
 50
0.0
 51
90.0
  0
ARC
  5
7B25
  8
0
 10
43.619055610609152
 20
25.0219154129698786
 30
0.0
 40
0.0393700787
 50
180.0
 51
270.0
  0
ARC
  5
7B26
  8
0
 10
44.2054605400697724
 20
25.0323542611904202
 30
0.0
 40
0.0302002281147064
 50
180.0707897747483912
 51
201.0436954675701884
  0
ARC
  5
7B27
  8
0
 10
43.6879532484091584
 20
24.94908076726988
 30
0.0
 40
0.0295275591
 50
180.0
 51
270.0
  0
ARC
  5
7B28
  8
0
 10
44.1288981302091514
 20
24.94908076726988
 30
0.0
 40
0.0295275591
 50
270.0
 51
0.0
  0
ARC
  5
7B29
  8
0
 10
44.2022270006200984
 20
28.0586315374545805
 30
0.0
 40
0.0250232162413927
 50
175.7789579465228087
 51
270.0367833989146789
  0
ARC
  5
7B2A
  8
0
 10
43.6387406499091526
 20
24.9628602948698806
 30
0.0
 40
0.0196850394
 50
0.0
 51
90.0
  0
ARC
  5
7B2B
  8
0
 10
44.1781107287091501
 20
24.9628602948698806
 30
0.0
 40
0.0196850394
 50
90.0
 51
180.0
  0
ARC
  5
7B2C
  8
0
 10
44.3406146657091469
 20
27.9038051373698899
 30
0.0
 40
0.0078740157
 50
180.0
 51
269.2102604817263227
  0
ARC
  5
7B2D
  8
0
 10
46.3721107287091598
 20
27.9038051373698899
 30
0.0
 40
0.0078740157
 50
270.1753402473150913
 51
0.0
  0
ARC
  5
7B2E
  8
0
 10
44.3406146657091469
 20
27.9274271846698916
 30
0.0
 40
0.0078740157
 50
90.0
 51
180.0
  0
ARC
  5
7B2F
  8
0
 10
46.3721107287091598
 20
27.9274271846698916
 30
0.0
 40
0.0078740157
 50
0.0
 51
90.0
  0
ARC
  5
7B30
  8
0
 10
78.7588025771856621
 20
620.0824694719786976
 30
0.0
 40
593.9427856094696381
 50
265.854833614872291
 51
266.649069953223318
  0
ARC
  5
7B31
  8
0
 10
46.785416503489401
 20
23.08961808605779
 30
0.0
 40
0.8218702524975054
 50
81.0046457404606173
 51
99.6461694719308895
  0
ARC
  5
7B32
  8
0
 10
46.8957685733652809
 20
23.7891316082539213
 30
0.0
 40
0.113706628091834
 50
54.5447913765045982
 51
80.8146025678540241
  0
ARC
  5
7B33
  8
0
 10
46.8512074529098115
 20
23.7674327558985716
 30
0.0
 40
0.1590081126290793
 50
37.423361290201548
 51
45.9688388403882016
  0
ARC
  5
7B34
  8
0
 10
47.9744726855947903
 20
23.8211282710898509
 30
0.0
 40
0.0787399177803251
 50
90.0011961689030642
 51
146.9572231563896025
  0
ARC
  5
7B35
  8
0
 10
47.7702654931622703
 20
22.5658490144366297
 30
0.0
 40
1.586496741168657
 50
111.7120898751831959
 51
122.6680959733015044
  0
ARC
  5
7B36
  8
0
 10
47.4606820918205869
 20
23.3378811278728513
 30
0.0
 40
0.7547113387444889
 50
94.3919939381482749
 51
111.5593333073099984
  0
ARC
  5
7B37
  8
0
 10
47.4423764436931208
 20
23.4389464278891886
 30
0.0
 40
0.6526256502579477
 50
73.9962615474598522
 51
93.4690469639849084
  0
ARC
  5
7B38
  8
0
 10
47.2115717876030274
 20
22.7412254823945297
 30
0.0
 40
1.387252029439576
 50
56.6374061673546976
 51
72.7778620500774025
  0
ARC
  5
7B39
  8
0
 10
47.9813691935169189
 20
23.9291184010739713
 30
0.0
 40
0.0294163608489874
 50
276.0925090921298874
 51
302.6414368939110773
  0
ARC
  5
7B3A
  8
0
 10
48.707985678088221
 20
22.8155562401662095
 30
0.0
 40
1.3002433895115759
 50
114.678083319284994
 51
123.1360093257297024
  0
ARC
  5
7B3B
  8
0
 10
48.4213414473272934
 20
23.4623726195547384
 30
0.0
 40
0.5929001401632745
 50
93.9611899573587266
 51
115.6052579297319056
  0
ARC
  5
7B3C
  8
0
 10
48.4007869069739129
 20
23.4904675560432104
 30
0.0
 40
0.563758147869494
 50
70.8881725664764559
 51
92.074092464195644
  0
ARC
  5
7B3D
  8
0
 10
48.6581196104038014
 20
24.0573250716187701
 30
0.0
 40
0.0582162792951938
 50
249.2602459661009959
 51
266.5107266681018814
  0
ARC
  5
7B3E
  8
0
 10
48.8250611755319781
 20
24.0537240377915111
 30
0.0
 40
0.0352848715139927
 50
272.7040016359310926
 51
357.0631723332032834
  0
ARC
  5
7B3F
  8
0
 10
48.8245641878752608
 20
25.1234662655898511
 30
0.0
 40
0.0358098838275692
 50
3.6931810463798631
 51
86.5439657124412349
  0
LINE
  5
7B40
  8
0
 10
48.826722901009127
 20
25.1592110237698883
 30
0.0
 11
48.7157901071091715
 21
25.1722119503698814
 31
0.0
  0
ARC
  5
7B41
  8
0
 10
48.710081193449227
 20
25.1251381360565595
 30
0.0
 40
0.0474187271991011
 50
83.0851782067028637
 51
112.358404033467707
  0
ARC
  5
7B42
  8
0
 10
47.9377454472107303
 20
25.25813207358879
 30
0.0
 40
0.0196888712546305
 50
55.5974990495905601
 51
89.995047956964811
  0
ARC
  5
7B43
  8
0
 10
48.8744177557944894
 20
26.6158578843313691
 30
0.0
 40
1.6297882537466351
 50
235.3964563038682059
 51
241.8014620427088914
  0
ARC
  5
7B44
  8
0
 10
48.5192224747346614
 20
25.9446952470329784
 30
0.0
 40
0.870452073692803
 50
241.5313093251845089
 51
252.8056597696719905
  0
ARC
  5
7B45
  8
0
 10
48.4030644030452706
 20
25.5682665112092202
 30
0.0
 40
0.4765090393388558
 50
252.7682888808373889
 51
278.2823904217660242
  0
ARC
  5
7B46
  8
0
 10
48.3626238764153271
 20
25.8013612987858885
 30
0.0
 40
0.7130273072418328
 50
278.7999642550437898
 51
297.516299263333508
  0
ARC
  5
7B47
  8
0
 10
46.5473077442074299
 20
25.2679780583440916
 30
0.0
 40
0.0098428864295791
 50
90.0015897144757844
 51
150.3453894771492116
  0
ARC
  5
7B48
  8
0
 10
46.547319554880211
 20
23.9097315301939304
 30
0.0
 40
0.0098633487260778
 50
210.0587147165070121
 51
269.9298058626105785
  0
ARC
  5
7B49
  8
0
 10
48.8056461012462606
 20
25.1941329791261701
 30
0.0
 40
2.6078865267747751
 50
207.6133957736738864
 51
209.6302635860068051
  0
ARC
  5
7B4A
  8
0
 10
47.9463617106459523
 20
24.7603172654897499
 30
0.0
 40
1.6454622768455851
 50
199.1589002126704031
 51
208.0966763600783906
  0
ARC
  5
7B4B
  8
0
 10
47.5215570640182605
 20
24.6219060437705117
 30
0.0
 40
1.1987929993081761
 50
185.3275459661643936
 51
199.573347845318807
  0
ARC
  5
7B4C
  8
0
 10
47.4043805992311675
 20
24.5839708626305402
 30
0.0
 40
1.078935638508778
 50
166.5812781893316128
 51
183.8993493290664958
  0
ARC
  5
7B4D
  8
0
 10
48.0280656210436803
 20
24.3906094525989516
 30
0.0
 40
1.7310094977021679
 50
149.3583426413215136
 51
165.146367364975589
  0
ARC
  5
7B4E
  8
0
 10
42.9729344618021187
 20
24.6312024136982686
 30
0.0
 40
1.2945720153078439
 50
338.4815519117025246
 51
352.0212368271951959
  0
ARC
  5
7B4F
  8
0
 10
43.2213649580352808
 20
24.5889310982532905
 30
0.0
 40
1.042705021358264
 50
352.4266803110735964
 51
2.5330941526052531
  0
ARC
  5
7B50
  8
0
 10
43.0318435246561819
 20
24.5645331988299809
 30
0.0
 40
1.233223335935161
 50
3.276379777983764
 51
21.7498344598127495
  0
ARC
  5
7B51
  8
0
 10
43.2632567961804426
 20
25.0345104448804108
 30
0.0
 40
0.0543946603435301
 50
92.7038763516638795
 51
128.5801814422663085
  0
ARC
  5
7B52
  8
0
 10
43.2634254447029676
 20
25.03639809078323
 30
0.0
 40
0.0530403448207664
 50
129.9943377169728933
 51
171.1032546390860887
  0
ARC
  5
7B53
  8
0
 10
43.5308275241298475
 20
25.0003533875566895
 30
0.0
 40
0.323069873604382
 50
175.4412757683851112
 51
181.5050024720065096
  0
ARC
  5
7B54
  8
0
 10
43.2629257974436499
 20
24.1422999983392508
 30
0.0
 40
0.0535021550140811
 50
206.6039110055168067
 51
267.6058105545059789
  0
ARC
  5
7B55
  8
0
 10
43.4043187423347803
 20
24.1714787130787094
 30
0.0
 40
0.196549817258999
 50
185.697165845423001
 51
195.6853411723855061
  0
ARC
  5
7B56
  8
0
 10
43.4923277003318773
 20
24.1741155254119704
 30
0.0
 40
0.2844515024148777
 50
179.4152404580862878
 51
184.4657756315286861
  0
ARC
  5
7B57
  8
0
 10
19.6845470323109808
 20
24.5764269153059196
 30
0.0
 40
23.5258877398552286
 50
359.1567699235058058
 51
0.8006323659893144
  0
ARC
  5
7B58
  8
0
 10
37.4891429859656569
 20
27.0351012527201107
 30
0.0
 40
0.251875772272184
 50
88.7705908309144291
 51
111.2579090276335023
  0
ARC
  5
7B59
  8
0
 10
37.5181118494294168
 20
26.9681928665752899
 30
0.0
 40
0.3247462625166641
 50
111.7411645105311067
 51
119.6766652185664981
  0
ARC
  5
7B5A
  8
0
 10
37.3239693064195919
 20
27.3091431082894083
 30
0.0
 40
0.0676036754356313
 50
271.0641364796401263
 51
299.5676482303870785
  0
ARC
  5
7B5B
  8
0
 10
36.1019684495553008
 20
27.3357339453179193
 30
0.0
 40
0.0605630499995338
 50
210.1475397558535008
 51
267.840689188133581
  0
ARC
  5
7B5C
  8
0
 10
35.7971549366532216
 20
27.19997749018669
 30
0.0
 40
0.2735392790784256
 50
22.6499473691854298
 51
49.5772389759282888
  0
ARC
  5
7B5D
  8
0
 10
35.586188460958013
 20
26.8991294265653593
 30
0.0
 40
0.6402931270310976
 50
52.6634025991191592
 51
61.4580723001358677
  0
ARC
  5
7B5E
  8
0
 10
36.8524487117564732
 20
28.9165294222888001
 30
0.0
 40
1.7432812518494509
 50
223.9544613171410106
 51
236.5730547117346134
  0
ARC
  5
7B5F
  8
0
 10
35.7430318546028474
 20
27.8437028889526594
 30
0.0
 40
0.2000000354168986
 50
178.1185615974966083
 51
223.2990610672862033
  0
ARC
  5
7B60
  8
0
 10
42.6233607841658682
 20
26.3946176907786203
 30
0.0
 40
1.5520900761221941
 50
359.1022406954496091
 51
6.6672383171054657
  0
ARC
  5
7B61
  8
0
 10
43.4928030000462726
 20
26.5061377813736883
 30
0.0
 40
0.6756513109872659
 50
5.8343627431422806
 51
35.1243655017529974
  0
ARC
  5
7B62
  8
0
 10
43.6214584540791535
 20
26.6039376313903588
 30
0.0
 40
0.5141885506525393
 50
34.4592634260525728
 51
65.73553720759746
  0
ARC
  5
7B63
  8
0
 10
43.5898151699417014
 20
26.4764175695140906
 30
0.0
 40
0.6438781052253111
 50
67.8321797576956413
 51
88.3091243240471471
  0
ARC
  5
7B64
  8
0
 10
43.9031744697699082
 20
25.9296029421406296
 30
0.0
 40
1.2334098942038469
 50
60.6365189979492314
 51
83.5374633470106858
  0
ARC
  5
7B65
  8
0
 10
43.8305735790875772
 20
25.7722555330273515
 30
0.0
 40
1.406210579883489
 50
44.8670294170398378
 51
61.2021248861081091
  0
ARC
  5
7B66
  8
0
 10
44.440243727630822
 20
26.3683806481741492
 30
0.0
 40
0.5536167953555196
 50
24.4918993501028304
 51
45.6535026213817829
  0
ARC
  5
7B67
  8
0
 10
44.5707657107758024
 20
26.4408080292238488
 30
0.0
 40
0.4049853275560516
 50
2.5870355101448079
 51
22.8221639915715109
  0
ARC
  5
7B68
  8
0
 10
35.9637939034666019
 20
31.9013522932330602
 30
0.0
 40
4.210222164978239
 50
266.4073758411503263
 51
268.1301352887697931
  0
ARC
  5
7B69
  8
0
 10
34.8573699780258508
 20
13.5523042164352301
 30
0.0
 40
14.1721703700666897
 50
86.5914837585952171
 51
86.7492131973023533
  0
ARC
  5
7B6A
  8
0
 10
35.6932500492705316
 20
30.2190928172080717
 30
0.0
 40
2.51762904036437
 50
267.8942058161356954
 51
269.2665878027165718
  0
ARC
  5
7B6B
  8
0
 10
45.5244963385208194
 20
27.8328885343283616
 30
0.0
 40
0.2132748952230156
 50
0.8174113835979996
 51
17.1931144780897682
  0
ARC
  5
7B6C
  8
0
 10
72.4839050130379405
 20
25.8876939837341915
 30
0.0
 40
28.3899007046209206
 50
174.4921358619453997
 51
175.6106594853955016
  0
ARC
  5
7B6D
  8
0
 10
43.2754802792484199
 20
28.7908739081278107
 30
0.0
 40
0.9661841071373888
 50
349.3686890794103874
 51
356.9555578091428174
  0
ARC
  5
7B6E
  8
0
 10
43.3366360084563098
 20
28.9015931809891491
 30
0.0
 40
0.902183777382859
 50
357.6495109137122199
 51
20.4109548480964413
  0
ARC
  5
7B6F
  8
0
 10
43.7663757745569129
 20
28.9932794719291103
 30
0.0
 40
0.4718024569256314
 50
28.2001123114346193
 51
70.6151143007345041
  0
ARC
  5
7B70
  8
0
 10
43.6057928007842079
 20
28.671072908209311
 30
0.0
 40
0.8302380048598891
 50
67.5402048391566154
 51
83.642882183801035
  0
ARC
  5
7B71
  8
0
 10
43.3575952901394501
 20
26.4232657904283599
 30
0.0
 40
3.0917060065585158
 50
83.6839747737517285
 51
89.3168540914335125
  0
ARC
  5
7B72
  8
0
 10
45.0362483936708102
 20
28.0582085742063612
 30
0.0
 40
0.0660067579726536
 50
179.5008685420752954
 51
191.6415282339866053
  0
ARC
  5
7B73
  8
0
 10
44.9981903347886316
 20
28.0497904577576804
 30
0.0
 40
0.0270388180173079
 50
190.4435702743749914
 51
209.4229662981481965
  0
ARC
  5
7B74
  8
0
 10
44.9895755378925628
 20
28.0463682624229307
 30
0.0
 40
0.017897812045842
 50
213.4318421631058982
 51
225.4740342883079904
  0
ARC
  5
7B75
  8
0
 10
42.9330357111549503
 20
28.0670518909316584
 30
0.0
 40
2.037225208148798
 50
359.7674580152744284
 51
20.2981566857345008
  0
ARC
  5
7B76
  8
0
 10
43.8469959699413607
 20
28.3934779029475699
 30
0.0
 40
1.0668385359333681
 50
20.8837159133443002
 51
67.1961489735793691
  0
ARC
  5
7B77
  8
0
 10
43.5909602118320123
 20
27.9615128249720186
 30
0.0
 40
1.5657773048112451
 50
64.684975750245485
 51
85.7712779152161744
  0
ARC
  5
7B78
  8
0
 10
43.367280451006998
 20
25.4105273673667895
 30
0.0
 40
4.1264599312101202
 50
85.2857714417816339
 51
94.2507166894969117
  0
ARC
  5
7B79
  8
0
 10
46.4173367929419669
 20
28.5559588421692006
 30
0.0
 40
0.0250233119079559
 50
295.0001389158368852
 51
12.9030142648237103
  0
ARC
  5
7B7A
  8
0
 10
44.0440783339811617
 20
27.7171194958247291
 30
0.0
 40
2.5420035870029012
 50
19.4017276733838102
 51
33.8311942551301001
  0
ARC
  5
7B7B
  8
0
 10
44.829522946923781
 20
28.3238808710028103
 30
0.0
 40
1.5531703211733821
 50
31.3687678134259897
 51
64.0795319872239446
  0
ARC
  5
7B7C
  8
0
 10
44.4953687194306866
 20
27.4258749104686217
 30
0.0
 40
2.5085925078267239
 50
66.181272504459244
 51
84.673254869239571
  0
ARC
  5
7B7D
  8
0
 10
44.0658358486551194
 20
23.4598179226986687
 30
0.0
 40
6.4976701275792816
 50
84.1486925634108047
 51
89.3714715740701564
  0
ARC
  5
7B7E
  8
0
 10
40.7750815005199314
 20
29.4592484831624795
 30
0.0
 40
0.5686880437464275
 50
88.4615733964221107
 51
97.0061532957314796
  0
ARC
  5
7B7F
  8
0
 10
40.727134026776227
 20
29.82127366287569
 30
0.0
 40
0.2035465673274783
 50
96.0402986177701621
 51
119.3144201715248016
  0
ARC
  5
7B80
  8
0
 10
40.7730262112749671
 20
29.7685889624924691
 30
0.0
 40
0.2723252540431579
 50
122.3077999517535943
 51
141.5237433618185037
  0
ARC
  5
7B81
  8
0
 10
40.6934804337540115
 20
29.8196198204977705
 30
0.0
 40
0.1785558203038255
 50
138.4603144047869989
 51
177.7123102827293053
  0
ARC
  5
7B82
  8
0
 10
40.6174329069047388
 20
29.7116407000631604
 30
0.0
 40
0.1060768898908622
 50
178.7051695899635888
 51
267.5515347146455269
  0
LINE
  5
7B84
  8
0
 10
43.6088141225971668
 20
27.1200153120416196
 30
0.0
 11
43.5708944944316983
 21
27.1200153120416196
 31
0.0
  0
ENDSEC
  0
EOF
