  0
SECTION
  2
HEADER
  9
$ACADVER
  1
AC1009
  9
$INSBASE
 10
45.5439084992883778
 20
11.0786505569128497
 30
0.0
  9
$EXTMIN
 10
43.0799173282026686
 20
1.264641200361001
 30
-0.0000000000000058
  9
$EXTMAX
 10
48.0063293808777303
 20
14.5830951354105594
 30
0.0000000000000104
  9
$LIMMIN
 10
0.0
 20
0.0
  9
$LIMMAX
 10
11.6929133858000007
 20
8.2677165353999982
  9
$ORTHOMODE
 70
     0
  9
$REGENMODE
 70
     1
  9
$FILLMODE
 70
     1
  9
$QTEXTMODE
 70
     0
  9
$MIRRTEXT
 70
     0
  9
$DRAGMODE
 70
     2
  9
$LTSCALE
 40
0.6431102362
  9
$OSMODE
 70
   575
  9
$ATTMODE
 70
     1
  9
$TEXTSIZE
 40
0.2
  9
$TRACEWID
 40
0.05
  9
$TEXTSTYLE
  7
STANDARD
  9
$CLAYER
  8
0
  9
$CELTYPE
  6
BYLAYER
  9
$CECOLOR
 62
   256
  9
$DIMSCALE
 40
1.0
  9
$DIMASZ
 40
0.1875
  9
$DIMEXO
 40
0.0625
  9
$DIMDLI
 40
0.4443307087
  9
$DIMRND
 40
0.0
  9
$DIMDLE
 40
0.0
  9
$DIMEXE
 40
0.125
  9
$DIMTP
 40
0.01
  9
$DIMTM
 40
0.01
  9
$DIMTXT
 40
1.0
  9
$DIMCEN
 40
0.1052362205
  9
$DIMTSZ
 40
0.0
  9
$DIMTOL
 70
     1
  9
$DIMLIM
 70
     0
  9
$DIMTIH
 70
     1
  9
$DIMTOH
 70
     1
  9
$DIMSE1
 70
     0
  9
$DIMSE2
 70
     0
  9
$DIMTAD
 70
     0
  9
$DIMZIN
 70
     0
  9
$DIMBLK
  1

  9
$DIMASO
 70
     1
  9
$DIMSHO
 70
     1
  9
$DIMPOST
  1
\X
  9
$DIMAPOST
  1

  9
$DIMALT
 70
     1
  9
$DIMALTD
 70
     2
  9
$DIMALTF
 40
25.3999999999999986
  9
$DIMLFAC
 40
1.0
  9
$DIMTOFL
 70
     0
  9
$DIMTVP
 40
0.0
  9
$DIMTIX
 70
     0
  9
$DIMSOXD
 70
     0
  9
$DIMSAH
 70
     0
  9
$DIMBLK1
  1

  9
$DIMBLK2
  1

  9
$DIMSTYLE
  2
STANDARD
  9
$DIMCLRD
 70
     0
  9
$DIMCLRE
 70
     0
  9
$DIMCLRT
 70
     0
  9
$DIMTFAC
 40
1.0
  9
$DIMGAP
 40
0.09
  9
$LUNITS
 70
     2
  9
$LUPREC
 70
     4
  9
$SKETCHINC
 40
0.1
  9
$FILLETRAD
 40
0.0
  9
$AUNITS
 70
     0
  9
$AUPREC
 70
     0
  9
$MENU
  1
.
  9
$ELEVATION
 40
0.0
  9
$PELEVATION
 40
0.0
  9
$THICKNESS
 40
0.0
  9
$LIMCHECK
 70
     0
  9
$BLIPMODE
 70
     0
  9
$CHAMFERA
 40
0.0
  9
$CHAMFERB
 40
0.0
  9
$SKPOLY
 70
     0
  9
$TDCREATE
 40
2458172.4620254631154239
  9
$TDUPDATE
 40
2459478.522916667163372
  9
$TDINDWG
 40
0.0865568634
  9
$TDUSRTIMER
 40
0.0865568634
  9
$USRTIMER
 70
     1
  9
$ANGBASE
 50
0.0
  9
$ANGDIR
 70
     0
  9
$PDMODE
 70
     0
  9
$PDSIZE
 40
0.3125
  9
$PLINEWID
 40
0.0
  9
$COORDS
 70
     2
  9
$SPLFRAME
 70
     0
  9
$SPLINETYPE
 70
     6
  9
$SPLINESEGS
 70
     8
  9
$ATTDIA
 70
     1
  9
$ATTREQ
 70
     1
  9
$HANDLING
 70
     1
  9
$HANDSEED
  5
7BD8
  9
$SURFTAB1
 70
     6
  9
$SURFTAB2
 70
     6
  9
$SURFTYPE
 70
     6
  9
$SURFU
 70
     6
  9
$SURFV
 70
     6
  9
$UCSNAME
  2

  9
$UCSORG
 10
0.0
 20
0.0
 30
0.0
  9
$UCSXDIR
 10
1.0
 20
0.0
 30
0.0
  9
$UCSYDIR
 10
0.0
 20
1.0
 30
0.0
  9
$PUCSNAME
  2

  9
$PUCSORG
 10
0.0
 20
0.0
 30
0.0
  9
$PUCSXDIR
 10
1.0
 20
0.0
 30
0.0
  9
$PUCSYDIR
 10
0.0
 20
1.0
 30
0.0
  9
$USERI1
 70
     0
  9
$USERI2
 70
     0
  9
$USERI3
 70
     0
  9
$USERI4
 70
     0
  9
$USERI5
 70
     0
  9
$USERR1
 40
0.0
  9
$USERR2
 40
0.0
  9
$USERR3
 40
0.0
  9
$USERR4
 40
0.0
  9
$USERR5
 40
0.0
  9
$WORLDVIEW
 70
     1
  9
$SHADEDGE
 70
     3
  9
$SHADEDIF
 70
    70
  9
$TILEMODE
 70
     1
  9
$MAXACTVP
 70
    64
  9
$PLIMCHECK
 70
     0
  9
$PEXTMIN
 10
1.0000000000000000E+20
 20
1.0000000000000000E+20
 30
1.0000000000000000E+20
  9
$PEXTMAX
 10
-1.0000000000000000E+20
 20
-1.0000000000000000E+20
 30
-1.0000000000000000E+20
  9
$PLIMMIN
 10
0.0
 20
0.0
  9
$PLIMMAX
 10
12.0
 20
9.0
  9
$UNITMODE
 70
     0
  9
$VISRETAIN
 70
     1
  9
$PLINEGEN
 70
     0
  9
$PSLTSCALE
 70
     1
  0
ENDSEC
  0
SECTION
  2
TABLES
  0
TABLE
  2
VPORT
 70
     1
  0
VPORT
  2
*ACTIVE
 70
     0
 10
0.0
 20
0.0
 11
1.0
 21
1.0
 12
-79.0680352129404582
 22
2.6115939710543472
 13
0.0
 23
0.0
 14
1.0
 24
1.0
 15
0.0
 25
0.0
 16
0.0
 26
0.0
 36
30.6214257250603907
 17
124.6111586000725993
 27
5.3122741703778242
 37
0.0
 40
18.0225581617231398
 41
2.554276315789473
 42
50.0
 43
0.0
 44
0.0
 50
0.0
 51
0.0
 71
     0
 72
   100
 73
     1
 74
     1
 75
     0
 76
     0
 77
     0
 78
     0
  0
ENDTAB
  0
TABLE
  2
LTYPE
 70
     2
  0
LTYPE
  2
CONTINUOUS
 70
     0
  3
Solid line
 72
    65
 73
     0
 40
0.0
  0
LTYPE
  2
PHANTOM2
 70
     0
  3
___ _ _ ___ _ _ ___ _ _ ___ _ _
 72
    65
 73
     6
 40
1.25
 49
0.625
 49
-0.125
 49
0.125
 49
-0.125
 49
0.125
 49
-0.125
  0
ENDTAB
  0
TABLE
  2
LAYER
 70
     2
  0
LAYER
  2
0
 70
     0
 62
   255
  6
CONTINUOUS
  0
LAYER
  2
DEFPOINTS
 70
     0
 62
     7
  6
CONTINUOUS
  0
ENDTAB
  0
TABLE
  2
STYLE
 70
     1
  0
STYLE
  2
STANDARD
 70
     0
 40
0.0
 41
0.8
 50
0.0
 71
     0
 42
0.2
  3
txt
  4

  0
ENDTAB
  0
TABLE
  2
VIEW
 70
     0
  0
ENDTAB
  0
TABLE
  2
UCS
 70
     0
  0
ENDTAB
  0
TABLE
  2
APPID
 70
     9
  0
APPID
  2
ACAD
 70
     0
  0
APPID
  2
ACAD_MLEADERVER
 70
     0
  0
APPID
  2
ACAD_EXEMPT_FROM_CAD_STANDARDS
 70
     0
  0
APPID
  2
ACAD_DSTYLE_DIMJAG
 70
     0
  0
APPID
  2
ACAD_DSTYLE_DIMTALN
 70
     0
  0
APPID
  2
ACAD_NAV_VCDISPLAY
 70
     0
  0
APPID
  2
ACAECLAYERSTANDARD
 70
     0
  0
APPID
  2
ACCMTRANSPARENCY
 70
     0
  0
APPID
  2
ACDBATTR
 70
     0
  0
ENDTAB
  0
TABLE
  2
DIMSTYLE
 70
     1
  0
DIMSTYLE
  2
STANDARD
 70
     0
  3

  4

  5

  6

  7

 40
1.0
 41
0.1875
 42
0.0625
 43
0.38
 44
0.125
 45
0.0
 46
0.0
 47
0.01
 48
0.01
140
0.15625
141
0.09
142
0.0
143
25.3999999999999986
144
1.0
145
0.0
146
1.0
147
0.09
 71
     1
 72
     0
 73
     1
 74
     1
 75
     0
 76
     0
 77
     0
 78
     4
170
     0
171
     2
172
     0
173
     0
174
     0
175
     0
176
     0
177
     0
178
     0
  0
ENDTAB
  0
ENDSEC
  0
SECTION
  2
BLOCKS
  0
BLOCK
  8
0
  2
$MODEL_SPACE
 70
     0
 10
0.0
 20
0.0
 30
0.0
  3
$MODEL_SPACE
  1

  0
ENDBLK
  5
21
  8
0
  0
BLOCK
 67
     1
  8
0
  2
$PAPER_SPACE
 70
     0
 10
0.0
 20
0.0
 30
0.0
  3
$PAPER_SPACE
  1

  0
ENDBLK
  5
1D
 67
     1
  8
0
  0
ENDSEC
  0
SECTION
  2
ENTITIES
  0
ATTDEF
  5
383D
  8
DEFPOINTS
 10
45.5439684066507624
 20
11.0775378270377196
 30
0.0
 40
0.001
  1
P24713-00
  3

  2
MODELNUMBER
 70
     0
1001
ACDBATTR
1070
     0
1070
     1
  0
ATTDEF
  5
383E
  8
DEFPOINTS
 10
45.5439685367293308
 20
11.0758711603710598
 30
0.0
 40
0.001
  1
PERSE
  3

  2
TRADENAME
 70
     0
1001
ACDBATTR
1070
     0
1070
     1
  0
ATTDEF
  5
383F
  8
DEFPOINTS
 10
45.5439685346604435
 20
11.0742044937043893
 30
0.0
 40
0.001
  1
BATH FILLER
  3

  2
PRODUCT
 70
     0
1001
ACDBATTR
1070
     0
1070
     1
  0
LINE
  5
7A60
  8
0
 10
43.0832785780383674
 20
9.5156584309628425
 30
0.0
 11
43.0832785780383674
 21
12.6416426828628392
 31
0.0
  0
LINE
  5
7A61
  8
0
 10
44.4200098502031295
 20
10.5928210345171205
 30
0.0
 11
44.4419055063383794
 21
6.5929407740628436
 31
0.0
  0
LINE
  5
7A62
  8
0
 10
44.4219425437383819
 20
10.7270863599628399
 30
0.0
 11
44.4218612552383831
 21
11.43462456776202
 31
0.0
  0
LINE
  5
7A63
  8
0
 10
44.3785541685383791
 20
10.7226832080628398
 30
0.0
 11
44.3785541685383791
 21
11.4346179057628401
 31
0.0
  0
LINE
  5
7A64
  8
0
 10
44.7890691281383795
 20
9.6485654311628402
 30
0.0
 11
44.7890695008383801
 21
9.6485607325628475
 31
0.0
  0
LINE
  5
7A65
  8
0
 10
44.8520407993383827
 20
6.503008797662841
 30
0.0
 11
44.802518432838383
 21
9.3918100461628438
 31
0.0
  0
LINE
  5
7A66
  8
0
 10
44.8549321213383791
 20
12.0569791899628402
 30
0.0
 11
44.8549321213383791
 21
14.5629025254628406
 31
0.0
  0
LINE
  5
7A67
  8
0
 10
44.4308200614228497
 20
8.6180206356628482
 30
0.0
 11
43.980916373338367
 21
8.6180206356628482
 31
0.0
  0
LINE
  5
7A68
  8
0
 10
45.1831070639383796
 20
14.5500540282628492
 30
0.0
 11
45.2121718733383773
 21
14.3852186356628398
 31
0.0
  0
LINE
  5
7A69
  8
0
 10
43.980916373338367
 20
13.5392804781628406
 30
0.0
 11
44.8549321213383791
 21
13.5392804781628406
 31
0.0
  0
LINE
  5
7A6A
  8
0
 10
45.1443351533383677
 20
14.58258756476285
 30
0.0
 11
44.8746171611383673
 21
14.58258756476285
 31
0.0
  0
ARC
  5
7A6B
  8
0
 10
43.980916373338367
 20
9.5156584309628425
 30
0.0
 40
0.8976377953
 50
180.0
 51
270.0
  0
ARC
  5
7A6C
  8
0
 10
43.980916373338367
 20
12.6416426828628392
 30
0.0
 40
0.8976377953
 50
90.0
 51
180.0
  0
ARC
  5
7A6D
  8
0
 10
44.9400429615383814
 20
1.6667941700628479
 30
0.0
 40
0.3989957469
 50
182.2498374822000073
 51
188.6322439478998945
  0
ARC
  5
7A6E
  8
0
 10
45.1183940482334265
 20
6.5094185691696662
 30
0.0
 40
0.2664303630739542
 50
181.3785526797688021
 51
189.5185255414668859
  0
ARC
  5
7A6F
  8
0
 10
45.1026770648901234
 20
6.5072957259039699
 30
0.0
 40
0.250579230873291
 50
189.6340975592908933
 51
255.4810552878560088
  0
ARC
  5
7A70
  8
0
 10
44.5006014126383675
 20
10.7226832080628398
 30
0.0
 40
0.1220472441
 50
179.9999999992000141
 51
198.8391969706999021
  0
ARC
  5
7A71
  8
0
 10
44.5269632714502208
 20
10.7271512217775502
 30
0.0
 40
0.1050207477414756
 50
180.0353864217350122
 51
199.2477253444681082
  0
ARC
  5
7A72
  8
0
 10
44.5852357716383807
 20
11.3978893115628406
 30
0.0
 40
0.1628884307
 50
157.6375708324000016
 51
172.4412693207000018
  0
ARC
  5
7A73
  8
0
 10
44.5828587752856365
 20
11.3982918867362901
 30
0.0
 40
0.1604791567043512
 50
172.4721170974719087
 51
179.9932910938231885
  0
ARC
  5
7A74
  8
0
 10
44.5006014126383675
 20
11.4346179057628401
 30
0.0
 40
0.1220472441
 50
161.1608030293000127
 51
180.0000000007999006
  0
ARC
  5
7A75
  8
0
 10
44.5005612552383809
 20
11.4346245677628406
 30
0.0
 40
0.0787
 50
161.1611492870997893
 51
180.0000000005998118
  0
ARC
  5
7A76
  8
0
 10
45.4398206166081167
 20
9.1224926737174652
 30
0.0
 40
2.8856268969377901
 50
262.0328387686666929
 51
267.4138988862923156
  0
ARC
  5
7A77
  8
0
 10
45.5439082081499578
 20
10.7113149873340205
 30
0.0
 40
4.4776440162711797
 50
267.0006767275164066
 51
270.0000037253971072
  0
ARC
  5
7A78
  8
0
 10
45.4069061518465986
 20
11.0568270802343207
 30
0.0
 40
1.052531307791309
 50
151.122362668600914
 51
157.4853202888918986
  0
ARC
  5
7A79
  8
0
 10
45.5439084993383787
 20
11.0786505568628399
 30
0.0
 40
1.3779527558999991
 50
120.000000002400796
 51
215.4736438100950124
  0
ARC
  5
7A7A
  8
0
 10
45.5439084993383787
 20
11.0786505568628399
 30
0.0
 40
1.224409448799999
 50
198.8391969707998896
 51
203.3774596672002133
  0
ARC
  5
7A7B
  8
0
 10
45.5439084993383787
 20
11.0786505568628399
 30
0.0
 40
1.224409448799999
 50
124.2427940225180976
 51
161.1608030293000127
  0
ARC
  5
7A7C
  8
0
 10
45.5195637327529496
 20
11.0710041598480604
 30
0.0
 40
1.15549202914711
 50
199.119715057558011
 51
219.1048336938480077
  0
ARC
  5
7A7D
  8
0
 10
45.5439084993383787
 20
11.0786505568628399
 30
0.0
 40
1.1811023622000001
 50
90.0000000024259776
 51
161.1611492875998977
  0
ARC
  5
7A7E
  8
0
 10
45.5439084993383787
 20
11.0786505568628399
 30
0.0
 40
1.1211023622
 50
90.0000000025558364
 51
129.378730815797212
  0
ARC
  5
7A7F
  8
0
 10
45.1443351051383104
 20
14.5432174860627992
 30
0.0
 40
0.0393700787000798
 50
9.9999981712300361
 51
89.9999298538242272
  0
ARC
  5
7A80
  8
0
 10
44.8746171607383815
 20
14.5629025254628406
 30
0.0
 40
0.0196850394
 50
90.0
 51
180.0
  0
ARC
  5
7A81
  8
0
 10
45.1663206032881988
 20
14.3795735941907807
 30
0.0
 40
0.0461974616016381
 50
336.0344361727754858
 51
7.018727588875417
  0
ARC
  5
7A82
  8
0
 10
45.5398214526702105
 20
14.1301391135929197
 30
0.0
 40
0.4036817500492372
 50
145.1510703212956912
 51
270.580096877354606
  0
ARC
  5
7A83
  8
0
 10
45.5445465158497527
 20
14.1213567836348499
 30
0.0
 40
0.4416490753592513
 50
216.7244002772719114
 51
269.9172291509697743
  0
ARC
  5
7A84
  8
0
 10
45.5557445082048176
 20
14.1294643709179404
 30
0.0
 40
0.4554726109013098
 50
177.3578673838023008
 51
216.6995404924201978
  0
ARC
  5
7A85
  8
0
 10
45.5543625874745786
 20
14.1307175652908494
 30
0.0
 40
0.4540359446583188
 50
142.3915441353657059
 51
177.5078042178953979
  0
ARC
  5
7A86
  8
0
 10
45.1633972960854919
 20
14.4324591376450204
 30
0.0
 40
0.0398305616968381
 50
321.7467208780885812
 51
9.8331184970623955
  0
ARC
  5
7A87
  8
0
 10
44.8648581694268529
 20
12.05701684032109
 30
0.0
 40
0.0099261194937385
 50
180.2173268011416951
 51
296.6451210380566863
  0
ARC
  5
7A88
  8
0
 10
45.5214735151390784
 20
10.9667809194864798
 30
0.0
 40
1.1965707027004899
 50
88.9256754928388915
 51
149.9960762541896031
  0
ARC
  5
7A89
  8
0
 10
43.2378142940392394
 20
9.8003583900238791
 30
0.0
 40
1.4873024033357769
 50
21.3647161961343102
 51
36.8598325552504491
  0
ARC
  5
7A8A
  8
0
 10
42.4501143954228297
 20
9.4527019188257082
 30
0.0
 40
2.3478127327253362
 50
10.3529207234790999
 51
22.26291207052342
  0
ARC
  5
7A8B
  8
0
 10
41.2581817020430321
 20
9.3208171956408048
 30
0.0
 40
3.5450476507503059
 50
1.147477562073365
 51
8.9876393955479976
  0
ARC
  5
7A8C
  8
0
 10
44.7425319035356708
 20
11.4259794341721896
 30
0.0
 40
0.3213456782734205
 50
184.9394420670035117
 51
195.7039720112009888
  0
ARC
  5
7A8D
  8
0
 10
46.3991289036790917
 20
11.9461850809280108
 30
0.0
 40
2.057576831706351
 50
197.1633139661381904
 51
203.9378311228421978
  0
ARC
  5
7A8E
  8
0
 10
38.9100122308843623
 20
8.6929991498892711
 30
0.0
 40
6.1076864236769657
 50
19.0043095197163403
 51
23.3251918789365185
  0
ARC
  5
7A8F
  8
0
 10
42.0718049110157111
 20
9.7557691472839974
 30
0.0
 40
2.7722610808772439
 50
6.6711151327124378
 51
19.5160673664118995
  0
ARC
  5
7A90
  8
0
 10
38.8096785203065906
 20
9.5737024646493918
 30
0.0
 40
6.0367036094972546
 50
359.0412040359220782
 51
4.7903039316726739
  0
ARC
  5
7A91
  8
0
 10
-216.3719626421919884
 20
8.2776201531088471
 30
0.0
 40
261.2202332564402809
 50
0.0818091418134133
 51
0.2621258982580465
  0
ARC
  5
7A92
  8
0
 10
-5145.1751040320959873
 20
-2.12763772964025
 30
0.0
 40
5190.0343000616230711
 50
0.108814560796291
 51
0.1189872678018893
  0
ARC
  5
7A93
  8
0
 10
-3551.5307917772120163
 20
0.649595664069194
 30
0.0
 40
3596.3875960325299275
 50
0.0932535794364235
 51
0.1127874741917476
  0
LINE
  5
7A94
  8
0
 10
45.5439084992883778
 20
1.2652875647628521
 30
0.0
 11
44.8952098483383821
 21
1.269325995662844
 31
0.0
  0
ARC
  5
7A95
  8
0
 10
44.9416262784201521
 20
1.6672590037526669
 30
0.0
 40
0.4006309572523694
 50
188.6639823399590057
 51
263.3468658410388912
  0
ARC
  5
7A96
  8
0
 10
203.5314733485350871
 20
7.3225629652620201
 30
0.0
 40
159.091240942921786
 50
180.2627700839722991
 51
182.0429659795622968
  0
LINE
  5
7A97
  8
0
 10
48.0045384205383812
 20
9.5156584309628425
 30
0.0
 11
48.0045384205383812
 21
12.6416426828628392
 31
0.0
  0
LINE
  5
7A98
  8
0
 10
46.667807148373619
 20
10.5928210345171205
 30
0.0
 11
46.6459114922383691
 21
6.5929407740628436
 31
0.0
  0
LINE
  5
7A99
  8
0
 10
46.6658744548383666
 20
10.7270863599628399
 30
0.0
 11
46.6659557433383725
 21
11.43462456776202
 31
0.0
  0
LINE
  5
7A9A
  8
0
 10
46.7092628300383623
 20
10.7226832080628398
 30
0.0
 11
46.7092628300383623
 21
11.4346179057628401
 31
0.0
  0
LINE
  5
7A9B
  8
0
 10
46.2987478704383832
 20
9.6485654311628402
 30
0.0
 11
46.2987474977383684
 21
9.6485607325628475
 31
0.0
  0
LINE
  5
7A9C
  8
0
 10
46.2357761992383729
 20
6.503008797662841
 30
0.0
 11
46.2852985657383726
 21
9.3918100461628438
 31
0.0
  0
LINE
  5
7A9D
  8
0
 10
46.2328848772383694
 20
12.0569791899628402
 30
0.0
 11
46.2328848772383694
 21
14.5629025254628406
 31
0.0
  0
LINE
  5
7A9E
  8
0
 10
46.6569969371538988
 20
8.6180206356628482
 30
0.0
 11
47.1069006252383815
 21
8.6180206356628482
 31
0.0
  0
LINE
  5
7A9F
  8
0
 10
45.9047099346383831
 20
14.5500540282628492
 30
0.0
 11
45.8756451252383783
 21
14.3852186356628398
 31
0.0
  0
LINE
  5
7AA0
  8
0
 10
47.1069006252383815
 20
13.5392804781628406
 30
0.0
 11
46.2328848772383694
 21
13.5392804781628406
 31
0.0
  0
LINE
  5
7AA1
  8
0
 10
45.9434818452383809
 20
14.58258756476285
 30
0.0
 11
46.2131998374383812
 21
14.58258756476285
 31
0.0
  0
ARC
  5
7AA2
  8
0
 10
47.1069006252383815
 20
9.5156584309628425
 30
0.0
 40
0.8976377953
 50
270.0
 51
0.0
  0
ARC
  5
7AA3
  8
0
 10
47.1069006252383815
 20
12.6416426828628392
 30
0.0
 40
0.8976377953
 50
0.0
 51
90.0
  0
ARC
  5
7AA4
  8
0
 10
46.1477740370383671
 20
1.6667941700628479
 30
0.0
 40
0.3989957469
 50
351.3677560521001055
 51
357.7501625177999927
  0
ARC
  5
7AA5
  8
0
 10
45.969422950343322
 20
6.5094185691696662
 30
0.0
 40
0.2664303630739542
 50
350.4814744585331141
 51
358.6214473202311979
  0
ARC
  5
7AA6
  8
0
 10
45.9851399336866322
 20
6.5072957259039699
 30
0.0
 40
0.250579230873291
 50
284.5189447121435933
 51
350.3659024407090214
  0
ARC
  5
7AA7
  8
0
 10
46.587215585938381
 20
10.7226832080628398
 30
0.0
 40
0.1220472441
 50
341.1608030292999842
 51
0.0000000007999731
  0
ARC
  5
7AA8
  8
0
 10
46.5608537271265277
 20
10.7271512217775502
 30
0.0
 40
0.1050207477414756
 50
340.7522746555318918
 51
359.9646135782647889
  0
ARC
  5
7AA9
  8
0
 10
46.5025812269383678
 20
11.3978893115628406
 30
0.0
 40
0.1628884307
 50
7.5587306793000124
 51
22.3624291675999309
  0
ARC
  5
7AAA
  8
0
 10
46.5049582232911121
 20
11.3982918867362901
 30
0.0
 40
0.1604791567043512
 50
0.0067089061767939
 51
7.5278829025280789
  0
ARC
  5
7AAB
  8
0
 10
46.587215585938381
 20
11.4346179057628401
 30
0.0
 40
0.1220472441
 50
359.9999999992000994
 51
18.8391969706999483
  0
ARC
  5
7AAC
  8
0
 10
46.5872557433383676
 20
11.4346245677628406
 30
0.0
 40
0.0787
 50
359.9999999994000746
 51
18.8388507129002001
  0
ARC
  5
7AAD
  8
0
 10
45.647996381968639
 20
9.1224926737174652
 30
0.0
 40
2.8856268969377901
 50
272.5861011137076275
 51
277.9671612313331934
  0
ARC
  5
7AAE
  8
0
 10
45.5439087904267979
 20
10.7113149873340205
 30
0.0
 40
4.4776440162711797
 50
269.9999962746026085
 51
272.9993232724837071
  0
ARC
  5
7AAF
  8
0
 10
45.680910846730157
 20
11.0568270802343207
 30
0.0
 40
1.052531307791309
 50
22.5146797111081192
 51
28.8776373313990398
  0
ARC
  5
7AB0
  8
0
 10
45.5439084992383627
 20
11.0786505568628399
 30
0.0
 40
1.3779527558999991
 50
324.5263561899049023
 51
59.9999999975992182
  0
ARC
  5
7AB1
  8
0
 10
45.5439084992383627
 20
11.0786505568628399
 30
0.0
 40
1.224409448799999
 50
336.6225403327998151
 51
341.1608030292001104
  0
ARC
  5
7AB2
  8
0
 10
45.5439084992383627
 20
11.0786505568628399
 30
0.0
 40
1.224409448799999
 50
18.8391969706999483
 51
55.7572059774818527
  0
ARC
  5
7AB3
  8
0
 10
45.5682532658237918
 20
11.0710041598480604
 30
0.0
 40
1.15549202914711
 50
320.8951663061520208
 51
340.8802849424420174
  0
ARC
  5
7AB4
  8
0
 10
45.5439084992383627
 20
11.0786505568628399
 30
0.0
 40
1.1811023622000001
 50
18.8388507124000917
 51
89.9999999975740224
  0
ARC
  5
7AB5
  8
0
 10
45.5439084992383627
 20
11.0786505568628399
 30
0.0
 40
1.1211023622
 50
50.6212691842027382
 51
89.9999999974441636
  0
ARC
  5
7AB6
  8
0
 10
45.9434818934384381
 20
14.5432174860627992
 30
0.0
 40
0.0393700787000798
 50
90.000070146175787
 51
170.0000018287699106
  0
ARC
  5
7AB7
  8
0
 10
46.213199837838367
 20
14.5629025254628406
 30
0.0
 40
0.0196850394
 50
0.0
 51
90.0
  0
ARC
  5
7AB8
  8
0
 10
45.9214963952885427
 20
14.3795735941907807
 30
0.0
 40
0.0461974616016381
 50
172.9812724111245075
 51
203.9655638272245142
  0
ARC
  5
7AB9
  8
0
 10
45.547995545906538
 20
14.1301391135929197
 30
0.0
 40
0.4036817500492372
 50
269.419903122645394
 51
34.8489296787040814
  0
ARC
  5
7ABA
  8
0
 10
45.5432704827270101
 20
14.1213567836348499
 30
0.0
 40
0.4416490753592513
 50
270.0827708490302257
 51
323.2755997227280886
  0
ARC
  5
7ABB
  8
0
 10
45.5320724903719309
 20
14.1294643709179404
 30
0.0
 40
0.4554726109013098
 50
323.3004595075797738
 51
2.642132616197673
  0
ARC
  5
7ABC
  8
0
 10
45.5334544111021629
 20
14.1307175652908494
 30
0.0
 40
0.4540359446583188
 50
2.4921957821045888
 51
37.608455864633882
  0
ARC
  5
7ABD
  8
0
 10
45.9244197024912708
 20
14.4324591376450204
 30
0.0
 40
0.0398305616968381
 50
170.1668815029375992
 51
218.2532791219113903
  0
ARC
  5
7ABE
  8
0
 10
46.2229588291499098
 20
12.05701684032109
 30
0.0
 40
0.0099261194937385
 50
243.3548789619433137
 51
359.7826731988582765
  0
ARC
  5
7ABF
  8
0
 10
45.5663434834376702
 20
10.9667809194864798
 30
0.0
 40
1.1965707027004899
 50
30.0039237458104502
 51
91.0743245071611227
  0
ARC
  5
7AC0
  8
0
 10
47.8500027045375091
 20
9.8003583900238791
 30
0.0
 40
1.4873024033357769
 50
143.1401674447494941
 51
158.6352838038656898
  0
ARC
  5
7AC1
  8
0
 10
48.6377026031539188
 20
9.4527019188257082
 30
0.0
 40
2.3478127327253362
 50
157.7370879294765871
 51
169.6470792765209126
  0
ARC
  5
7AC2
  8
0
 10
49.8296352965337093
 20
9.3208171956408048
 30
0.0
 40
3.5450476507503059
 50
171.0123606044519988
 51
178.8525224379266092
  0
ARC
  5
7AC3
  8
0
 10
46.3452850950410777
 20
11.4259794341721896
 30
0.0
 40
0.3213456782734205
 50
344.2960279887989259
 51
355.060557932996403
  0
ARC
  5
7AC4
  8
0
 10
44.6886880948976497
 20
11.9461850809280108
 30
0.0
 40
2.057576831706351
 50
336.0621688771577737
 51
342.8366860338617812
  0
ARC
  5
7AC5
  8
0
 10
52.1778047676923933
 20
8.6929991498892711
 30
0.0
 40
6.1076864236769657
 50
156.6748081210635064
 51
160.995690480283713
  0
ARC
  5
7AC6
  8
0
 10
49.0160120875610517
 20
9.7557691472839974
 30
0.0
 40
2.7722610808772439
 50
160.4839326335880969
 51
173.3288848672875133
  0
ARC
  5
7AC7
  8
0
 10
52.2781384782701721
 20
9.5737024646493918
 30
0.0
 40
6.0367036094972546
 50
175.2096960683273039
 51
180.9587959640778081
  0
ARC
  5
7AC8
  8
0
 10
307.4597796407688861
 20
8.2776201531088471
 30
0.0
 40
261.2202332564402809
 50
179.7378741017419941
 51
179.9181908581865912
  0
ARC
  5
7AC9
  8
0
 10
5236.2629210306731693
 20
-2.12763772964025
 30
0.0
 40
5190.0343000616230711
 50
179.8810127321980872
 51
179.8911854392036958
  0
ARC
  5
7ACA
  8
0
 10
3642.6186087757891983
 20
0.649595664069194
 30
0.0
 40
3596.3875960325299275
 50
179.8872125258081951
 51
179.9067464205635929
  0
LINE
  5
7ACB
  8
0
 10
45.5439084992883778
 20
1.2652875647628521
 30
0.0
 11
46.1926071502383735
 21
1.269325995662844
 31
0.0
  0
ARC
  5
7ACC
  8
0
 10
46.1461907201566106
 20
1.6672590037526669
 30
0.0
 40
0.4006309572523694
 50
276.6531341589609951
 51
351.3360176600410227
  0
ARC
  5
7ACD
  8
0
 10
-112.4436563499583031
 20
7.3225629652620201
 30
0.0
 40
159.091240942921786
 50
357.9570340204376748
 51
359.7372299160276725
  0
ENDSEC
  0
EOF
