  0
SECTION
  2
HEADER
  9
$ACADVER
  1
AC1009
  9
$INSBASE
 10
61.5162669822407366
 20
-5.1684727464673488
 30
0.0
  9
$EXTMIN
 10
59.0555747963896565
 20
-5.1747897367786493
 30
-0.0000000000112498
  9
$EXTMAX
 10
63.9811033242071971
 20
29.1174966669031008
 30
0.0000000000002956
  9
$LIMMIN
 10
0.0
 20
0.0
  9
$LIMMAX
 10
11.6929133858000007
 20
8.2677165353999982
  9
$ORTHOMODE
 70
     0
  9
$REGENMODE
 70
     1
  9
$FILLMODE
 70
     1
  9
$QTEXTMODE
 70
     0
  9
$MIRRTEXT
 70
     0
  9
$DRAGMODE
 70
     2
  9
$LTSCALE
 40
0.6431102362
  9
$OSMODE
 70
   575
  9
$ATTMODE
 70
     1
  9
$TEXTSIZE
 40
0.2
  9
$TRACEWID
 40
0.05
  9
$TEXTSTYLE
  7
STANDARD
  9
$CLAYER
  8
0
  9
$CELTYPE
  6
BYLAYER
  9
$CECOLOR
 62
   256
  9
$DIMSCALE
 40
1.0
  9
$DIMASZ
 40
0.1875
  9
$DIMEXO
 40
0.0625
  9
$DIMDLI
 40
0.4443307087
  9
$DIMRND
 40
0.0
  9
$DIMDLE
 40
0.0
  9
$DIMEXE
 40
0.125
  9
$DIMTP
 40
0.01
  9
$DIMTM
 40
0.01
  9
$DIMTXT
 40
1.0
  9
$DIMCEN
 40
0.1052362205
  9
$DIMTSZ
 40
0.0
  9
$DIMTOL
 70
     1
  9
$DIMLIM
 70
     0
  9
$DIMTIH
 70
     1
  9
$DIMTOH
 70
     1
  9
$DIMSE1
 70
     0
  9
$DIMSE2
 70
     0
  9
$DIMTAD
 70
     0
  9
$DIMZIN
 70
     0
  9
$DIMBLK
  1

  9
$DIMASO
 70
     1
  9
$DIMSHO
 70
     1
  9
$DIMPOST
  1
\X
  9
$DIMAPOST
  1

  9
$DIMALT
 70
     1
  9
$DIMALTD
 70
     2
  9
$DIMALTF
 40
25.3999999999999986
  9
$DIMLFAC
 40
1.0
  9
$DIMTOFL
 70
     0
  9
$DIMTVP
 40
0.0
  9
$DIMTIX
 70
     0
  9
$DIMSOXD
 70
     0
  9
$DIMSAH
 70
     0
  9
$DIMBLK1
  1

  9
$DIMBLK2
  1

  9
$DIMSTYLE
  2
STANDARD
  9
$DIMCLRD
 70
     0
  9
$DIMCLRE
 70
     0
  9
$DIMCLRT
 70
     0
  9
$DIMTFAC
 40
1.0
  9
$DIMGAP
 40
0.09
  9
$LUNITS
 70
     2
  9
$LUPREC
 70
     4
  9
$SKETCHINC
 40
0.1
  9
$FILLETRAD
 40
0.0
  9
$AUNITS
 70
     0
  9
$AUPREC
 70
     0
  9
$MENU
  1
.
  9
$ELEVATION
 40
0.0
  9
$PELEVATION
 40
0.0
  9
$THICKNESS
 40
0.0
  9
$LIMCHECK
 70
     0
  9
$BLIPMODE
 70
     0
  9
$CHAMFERA
 40
0.0
  9
$CHAMFERB
 40
0.0
  9
$SKPOLY
 70
     0
  9
$TDCREATE
 40
2458172.4620254631154239
  9
$TDUPDATE
 40
2459478.5221412042155862
  9
$TDINDWG
 40
0.0859087153
  9
$TDUSRTIMER
 40
0.0859087153
  9
$USRTIMER
 70
     1
  9
$ANGBASE
 50
0.0
  9
$ANGDIR
 70
     0
  9
$PDMODE
 70
     0
  9
$PDSIZE
 40
0.3125
  9
$PLINEWID
 40
0.0
  9
$COORDS
 70
     2
  9
$SPLFRAME
 70
     0
  9
$SPLINETYPE
 70
     6
  9
$SPLINESEGS
 70
     8
  9
$ATTDIA
 70
     1
  9
$ATTREQ
 70
     1
  9
$HANDLING
 70
     1
  9
$HANDSEED
  5
7AAC
  9
$SURFTAB1
 70
     6
  9
$SURFTAB2
 70
     6
  9
$SURFTYPE
 70
     6
  9
$SURFU
 70
     6
  9
$SURFV
 70
     6
  9
$UCSNAME
  2

  9
$UCSORG
 10
0.0
 20
0.0
 30
0.0
  9
$UCSXDIR
 10
1.0
 20
0.0
 30
0.0
  9
$UCSYDIR
 10
0.0
 20
1.0
 30
0.0
  9
$PUCSNAME
  2

  9
$PUCSORG
 10
0.0
 20
0.0
 30
0.0
  9
$PUCSXDIR
 10
1.0
 20
0.0
 30
0.0
  9
$PUCSYDIR
 10
0.0
 20
1.0
 30
0.0
  9
$USERI1
 70
     0
  9
$USERI2
 70
     0
  9
$USERI3
 70
     0
  9
$USERI4
 70
     0
  9
$USERI5
 70
     0
  9
$USERR1
 40
0.0
  9
$USERR2
 40
0.0
  9
$USERR3
 40
0.0
  9
$USERR4
 40
0.0
  9
$USERR5
 40
0.0
  9
$WORLDVIEW
 70
     1
  9
$SHADEDGE
 70
     3
  9
$SHADEDIF
 70
    70
  9
$TILEMODE
 70
     1
  9
$MAXACTVP
 70
    64
  9
$PLIMCHECK
 70
     0
  9
$PEXTMIN
 10
1.0000000000000000E+20
 20
1.0000000000000000E+20
 30
1.0000000000000000E+20
  9
$PEXTMAX
 10
-1.0000000000000000E+20
 20
-1.0000000000000000E+20
 30
-1.0000000000000000E+20
  9
$PLIMMIN
 10
0.0
 20
0.0
  9
$PLIMMAX
 10
12.0
 20
9.0
  9
$UNITMODE
 70
     0
  9
$VISRETAIN
 70
     1
  9
$PLINEGEN
 70
     0
  9
$PSLTSCALE
 70
     1
  0
ENDSEC
  0
SECTION
  2
TABLES
  0
TABLE
  2
VPORT
 70
     1
  0
VPORT
  2
*ACTIVE
 70
     0
 10
0.0
 20
0.0
 11
1.0
 21
1.0
 12
-63.0928196803438865
 22
6.6590792872108011
 13
0.0
 23
0.0
 14
1.0
 24
1.0
 15
0.0
 25
0.0
 16
0.0
 26
0.0
 36
30.6214257250603907
 17
124.6111586000725993
 27
5.3122741703778242
 37
0.0
 40
37.4005527667605406
 41
2.554276315789473
 42
50.0
 43
0.0
 44
0.0
 50
0.0
 51
0.0
 71
     0
 72
   100
 73
     1
 74
     1
 75
     0
 76
     0
 77
     0
 78
     0
  0
ENDTAB
  0
TABLE
  2
LTYPE
 70
     2
  0
LTYPE
  2
CONTINUOUS
 70
     0
  3
Solid line
 72
    65
 73
     0
 40
0.0
  0
LTYPE
  2
PHANTOM2
 70
     0
  3
___ _ _ ___ _ _ ___ _ _ ___ _ _
 72
    65
 73
     6
 40
1.25
 49
0.625
 49
-0.125
 49
0.125
 49
-0.125
 49
0.125
 49
-0.125
  0
ENDTAB
  0
TABLE
  2
LAYER
 70
     2
  0
LAYER
  2
0
 70
     0
 62
   255
  6
CONTINUOUS
  0
LAYER
  2
DEFPOINTS
 70
     0
 62
     7
  6
CONTINUOUS
  0
ENDTAB
  0
TABLE
  2
STYLE
 70
     1
  0
STYLE
  2
STANDARD
 70
     0
 40
0.0
 41
0.8
 50
0.0
 71
     0
 42
0.2
  3
txt
  4

  0
ENDTAB
  0
TABLE
  2
VIEW
 70
     0
  0
ENDTAB
  0
TABLE
  2
UCS
 70
     0
  0
ENDTAB
  0
TABLE
  2
APPID
 70
     9
  0
APPID
  2
ACAD
 70
     0
  0
APPID
  2
ACAD_MLEADERVER
 70
     0
  0
APPID
  2
ACAD_EXEMPT_FROM_CAD_STANDARDS
 70
     0
  0
APPID
  2
ACAD_DSTYLE_DIMJAG
 70
     0
  0
APPID
  2
ACAD_DSTYLE_DIMTALN
 70
     0
  0
APPID
  2
ACAD_NAV_VCDISPLAY
 70
     0
  0
APPID
  2
ACAECLAYERSTANDARD
 70
     0
  0
APPID
  2
ACCMTRANSPARENCY
 70
     0
  0
APPID
  2
ACDBATTR
 70
     0
  0
ENDTAB
  0
TABLE
  2
DIMSTYLE
 70
     1
  0
DIMSTYLE
  2
STANDARD
 70
     0
  3

  4

  5

  6

  7

 40
1.0
 41
0.1875
 42
0.0625
 43
0.38
 44
0.125
 45
0.0
 46
0.0
 47
0.01
 48
0.01
140
0.15625
141
0.09
142
0.0
143
25.3999999999999986
144
1.0
145
0.0
146
1.0
147
0.09
 71
     1
 72
     0
 73
     1
 74
     1
 75
     0
 76
     0
 77
     0
 78
     4
170
     0
171
     2
172
     0
173
     0
174
     0
175
     0
176
     0
177
     0
178
     0
  0
ENDTAB
  0
ENDSEC
  0
SECTION
  2
BLOCKS
  0
BLOCK
  8
0
  2
$MODEL_SPACE
 70
     0
 10
0.0
 20
0.0
 30
0.0
  3
$MODEL_SPACE
  1

  0
ENDBLK
  5
21
  8
0
  0
BLOCK
 67
     1
  8
0
  2
$PAPER_SPACE
 70
     0
 10
0.0
 20
0.0
 30
0.0
  3
$PAPER_SPACE
  1

  0
ENDBLK
  5
1D
 67
     1
  8
0
  0
ENDSEC
  0
SECTION
  2
ENTITIES
  0
ATTDEF
  5
383D
  8
DEFPOINTS
 10
61.5163268896031212
 20
-5.1695854763424824
 30
0.0
 40
0.001
  1
P24713-00
  3

  2
MODELNUMBER
 70
     0
1001
ACDBATTR
1070
     0
1070
     1
  0
ATTDEF
  5
383E
  8
DEFPOINTS
 10
61.5163270196816967
 20
-5.1712521430091467
 30
0.0
 40
0.001
  1
PERSE
  3

  2
TRADENAME
 70
     0
1001
ACDBATTR
1070
     0
1070
     1
  0
ATTDEF
  5
383F
  8
DEFPOINTS
 10
61.5163270176127881
 20
-5.1729188096758119
 30
0.0
 40
0.001
  1
BATH FILLER
  3

  2
PRODUCT
 70
     0
1001
ACDBATTR
1070
     0
1070
     1
  0
LINE
  5
77F7
  8
0
 10
59.0654795806907273
 20
-5.1684727464673514
 30
0.0
 11
63.9670543837907388
 21
-5.1684727464673514
 31
0.0
  0
LINE
  5
77F8
  8
0
 10
59.095007139690729
 20
-4.7747719590673512
 30
0.0
 11
63.9375268247907371
 21
-4.7747719590673512
 31
0.0
  0
LINE
  5
77F9
  8
0
 10
62.8548496593907302
 20
-3.5936695968673522
 30
0.0
 11
60.1776843050907289
 21
-3.5936695968673522
 31
0.0
  0
LINE
  5
77FA
  8
0
 10
60.8779148711907396
 20
28.6269709720326517
 30
0.0
 11
60.9219163792501206
 21
28.7098420782273394
 31
0.0
  0
LINE
  5
77FB
  8
0
 10
60.8066434563907521
 20
26.5960966341326497
 30
0.0
 11
60.8003823109907415
 21
26.5699524475326498
 31
0.0
  0
LINE
  5
77FC
  8
0
 10
59.0556370609907333
 20
-5.1586302267673503
 30
0.0
 11
59.0556370609907333
 21
-4.8141420378673496
 31
0.0
  0
LINE
  5
77FD
  8
0
 10
60.9948288833495269
 20
26.3560723377021411
 30
0.0
 11
60.9947933613907267
 21
26.3558143052326486
 31
0.0
  0
LINE
  5
77FE
  8
0
 10
60.1383142262907384
 20
-3.7747719590673512
 30
0.0
 11
60.1383142262907384
 21
-3.6330396756673511
 31
0.0
  0
LINE
  5
77FF
  8
0
 10
60.3941812021781885
 20
26.4286712612558503
 30
0.0
 11
60.394219738190742
 21
20.2717897732326513
 31
0.0
  0
LINE
  5
7800
  8
0
 10
60.394219738190742
 20
-3.5936695968673522
 30
0.0
 11
60.394219738190742
 21
20.213104733832651
 31
0.0
  0
LINE
  5
7801
  8
0
 10
60.5123299743907381
 20
20.2517897732326517
 30
0.0
 11
60.5123299743907381
 21
20.2327897732326498
 31
0.0
  0
LINE
  5
7802
  8
0
 10
60.394183164490741
 20
27.1472198698326501
 30
0.0
 11
60.3947390493907292
 21
27.2993125706326509
 31
0.0
  0
LINE
  5
7803
  8
0
 10
62.894219738190742
 20
-3.7747719590673512
 30
0.0
 11
62.894219738190742
 21
-3.6330396756673511
 31
0.0
  0
LINE
  5
7804
  8
0
 10
63.97689690349074
 20
-4.8141420378673496
 30
0.0
 11
63.97689690349074
 21
-5.1586302267673503
 31
0.0
  0
LINE
  5
7805
  8
0
 10
61.5162669822407366
 20
20.2327897732326498
 30
0.0
 11
60.4139047774907425
 21
20.2327897732326498
 31
0.0
  0
LINE
  5
7806
  8
0
 10
60.4142197381907309
 20
20.2517897732326517
 30
0.0
 11
61.5162669822407366
 21
20.2517897732326411
 31
0.0
  0
LINE
  5
7807
  8
0
 10
60.4881124545907412
 20
27.1221756393326494
 30
0.0
 11
60.4237954647907429
 21
27.1221756393326601
 31
0.0
  0
LINE
  5
7808
  8
0
 10
60.4193244816907367
 20
27.1221756393326494
 30
0.0
 11
60.4237954647907429
 21
27.1221756393326494
 31
0.0
  0
ARC
  5
7809
  8
0
 10
59.1383142262907384
 20
-3.7747719590673512
 30
0.0
 40
1.0
 50
270.0
 51
0.0
  0
ARC
  5
780A
  8
0
 10
59.095007139690729
 20
-4.8141420378673496
 30
0.0
 40
0.0393700787
 50
90.0
 51
180.0
  0
ARC
  5
780B
  8
0
 10
60.1776843050907289
 20
-3.6330396756673511
 30
0.0
 40
0.0393700787
 50
90.0
 51
180.0
  0
ARC
  5
780C
  8
0
 10
59.0654795806907273
 20
-5.1586302267673503
 30
0.0
 40
0.0098425197
 50
180.0
 51
270.0
  0
ARC
  5
780D
  8
0
 10
60.414219777357431
 20
20.2717898123993514
 30
0.0
 40
0.0200000391667309
 50
180.0001122040957
 51
269.9998877958993262
  0
ARC
  5
780E
  8
0
 10
60.4139047774907425
 20
20.213104733832651
 30
0.0
 40
0.0196850394
 50
90.0
 51
180.0
  0
ARC
  5
780F
  8
0
 10
61.5162669925907366
 20
18.4161819757326484
 30
0.0
 40
8.9202358360999998
 50
90.0000000664791742
 51
93.8623305221998265
  0
ARC
  5
7810
  8
0
 10
61.5162669822907375
 20
21.7774118598326503
 30
0.0
 40
2.399999999999999
 50
90.000000001193655
 51
97.3610859390995955
  0
ARC
  5
7811
  8
0
 10
61.5162669822907375
 20
25.577411859832651
 30
0.0
 40
2.399999999999999
 50
262.6389140609996957
 51
269.9999999988058903
  0
ARC
  5
7812
  8
0
 10
61.2343984827907306
 20
23.395543360332649
 30
0.0
 40
0.2
 50
187.3610859308998897
 51
262.6389140600999212
  0
ARC
  5
7813
  8
0
 10
61.2343984827907306
 20
23.9592803593326416
 30
0.0
 40
0.2
 50
97.3610859309003871
 51
172.6389140600998928
  0
ARC
  5
7814
  8
0
 10
60.4542197381907371
 20
26.9244984346326497
 30
0.0
 40
0.06
 50
110.7105976438000994
 51
177.037634378499888
  0
ARC
  5
7815
  8
0
 10
60.4192023291232232
 20
27.1471945186109487
 30
0.0
 40
0.0250191774763219
 50
179.9419438045586901
 51
270.2797395872739799
  0
ARC
  5
7816
  8
0
 10
60.6874018429907309
 20
26.3471744032326498
 30
0.0
 40
0.2498836297
 50
10.1860856920998994
 51
18.7250949895003203
  0
ARC
  5
7817
  8
0
 10
60.6876854776313266
 20
26.3771388222749117
 30
0.0
 40
0.2496059238900108
 50
7.2301566822246652
 51
61.4767321788361727
  0
ARC
  5
7818
  8
0
 10
60.5928743288907512
 20
26.4502074133326595
 30
0.0
 40
0.1998568599
 50
178.4948573540233951
 51
263.7143151743999852
  0
ARC
  5
7819
  8
0
 10
60.692960680890728
 20
27.1199753923326483
 30
0.0
 40
0.1697110878
 50
135.9400250103001042
 51
174.0647909181998898
  0
ARC
  5
781A
  8
0
 10
61.0129854474660505
 20
28.9414078923238804
 30
0.0
 40
0.1749731954355203
 50
153.8625564208871879
 51
171.1289587674262123
  0
CIRCLE
  5
781B
  8
0
 10
61.5162669822907375
 20
27.8271756393326513
 30
0.0
 40
0.125984252
  0
ARC
  5
781C
  8
0
 10
60.9293314876014307
 20
28.8145935583494115
 30
0.0
 40
0.1050136011173133
 50
176.8259618890014906
 51
265.9509220679602777
  0
ARC
  5
781D
  8
0
 10
60.9937326214180331
 20
26.401259009125571
 30
0.0
 40
0.0611908109969828
 50
189.3048256531523066
 51
198.7847906051509881
  0
ARC
  5
781E
  8
0
 10
60.9948461010907366
 20
26.4160948897326584
 30
0.0
 40
0.0600225545
 50
187.2191652944999021
 51
269.9835644463003064
  0
ARC
  5
781F
  8
0
 10
61.5104960278907384
 20
41.8541937025326405
 30
0.0
 40
15.5204778669000003
 50
269.165260149400126
 51
270.021304198135681
  0
ARC
  5
7820
  8
0
 10
61.5162669889907292
 20
37.6382229703326487
 30
0.0
 40
8.9439936091999996
 50
267.0346551194000995
 51
269.9999999567590976
  0
ARC
  5
7821
  8
0
 10
61.5174593673749968
 20
-113.9854299274907987
 30
0.0
 40
140.3492090273884969
 50
90.0004867760652587
 51
90.1023772357091559
  0
ARC
  5
7822
  8
0
 10
63.894219738190742
 20
-3.7747719590673512
 30
0.0
 40
1.0
 50
180.0
 51
270.0
  0
ARC
  5
7823
  8
0
 10
63.9375268247907371
 20
-4.8141420378673496
 30
0.0
 40
0.0393700787
 50
0.0
 51
90.0
  0
ARC
  5
7824
  8
0
 10
62.8548496593907302
 20
-3.6330396756673511
 30
0.0
 40
0.0393700787
 50
0.0
 51
90.0
  0
ARC
  5
7825
  8
0
 10
63.9670543837907388
 20
-5.1586302267673503
 30
0.0
 40
0.0098425197
 50
270.0
 51
0.0
  0
ARC
  5
7826
  8
0
 10
62.5473593050739112
 20
26.9292569583123687
 30
0.0
 40
2.0338911825917259
 50
174.1227022113544081
 51
179.1480476869672032
  0
ARC
  5
7827
  8
0
 10
62.3245153934652905
 20
28.7368271967454412
 30
0.0
 40
1.502363137619017
 50
171.1334929227288058
 51
176.8108211618904875
  0
ARC
  5
7828
  8
0
 10
63.4162669822907432
 20
23.6774118598326488
 30
0.0
 40
2.399999999999999
 50
172.6389140610000936
 51
187.3610859391000076
  0
ARC
  5
7829
  8
0
 10
64.8185142698668812
 20
27.363344166980589
 30
0.0
 40
4.421720383245634
 50
175.2577981613615918
 51
177.4111030449847988
  0
ARC
  5
782A
  8
0
 10
62.1011686404809495
 20
268.5180743402635812
 30
0.0
 40
242.1886622241692919
 50
269.806911585207672
 51
269.8616267635454165
  0
ARC
  5
782B
  8
0
 10
71.7207977712766933
 20
26.5845939027900293
 30
0.0
 40
11.3284474081835107
 50
179.9538804130230858
 51
180.653148676999308
  0
ARC
  5
782C
  8
0
 10
94.3917310997907464
 20
26.6268002281326517
 30
0.0
 40
33.9993931668999991
 50
179.511314346599903
 51
180.0557592702998875
  0
LINE
  5
782D
  8
0
 10
60.806876202190729
 20
26.5964483942326488
 30
0.0
 11
60.8066434562907432
 21
26.5960966342326515
 31
0.0
  0
LINE
  5
782E
  8
0
 10
60.9947933613907267
 20
26.3558143052326486
 30
0.0
 11
60.992591859590739
 21
26.3409109423326484
 31
0.0
  0
ARC
  5
782F
  8
0
 10
61.8034705470577705
 20
26.3581347045270817
 30
0.0
 40
1.3502182923567949
 50
158.6255094754837955
 51
182.2025763246093959
  0
ARC
  5
7830
  8
0
 10
61.7565597631028496
 20
28.3880796596475307
 30
0.0
 40
2.0277676041722681
 50
234.5139715208017037
 51
242.0734395901961022
  0
ARC
  5
7831
  8
0
 10
60.696976027090713
 20
26.8988282529326206
 30
0.0
 40
0.2000486336999497
 50
211.2303137037808085
 51
234.0146273154034873
  0
ARC
  5
7832
  8
0
 10
60.99236795750803
 20
26.4005962305281194
 30
0.0
 40
0.0596857081646762
 50
198.6042854226137138
 51
270.2149371239424909
  0
ARC
  5
7833
  8
0
 10
61.625115886242078
 20
39.022047093844769
 30
0.0
 40
12.8139267899476206
 50
265.2812955937512243
 51
269.5132906632251206
  0
ARC
  5
7834
  8
0
 10
61.5310584738320614
 20
33.0163813998360709
 30
0.0
 40
3.9318060318292809
 50
263.0509556958278949
 51
269.7844522254948743
  0
ARC
  5
7835
  8
0
 10
61.0118873611165782
 20
28.9421813946651092
 30
0.0
 40
0.1736467794688565
 50
122.5351572856445017
 51
153.9320677083148894
  0
ARC
  5
7836
  8
0
 10
61.0139240885406409
 20
28.9395055727076915
 30
0.0
 40
0.1769982671639856
 50
89.3220205524715851
 51
122.6251430302781955
  0
ARC
  5
7837
  8
0
 10
61.0031062308263827
 20
28.6923714801066794
 30
0.0
 40
0.4243164775007104
 50
82.925807660755936
 51
88.2561831899082563
  0
ARC
  5
7838
  8
0
 10
60.8369943364351968
 20
24.8476460987943391
 30
0.0
 40
3.8646328623395778
 50
86.7873341503423461
 51
88.3126083312625809
  0
ARC
  5
7839
  8
0
 10
60.9376602311252924
 20
28.2979072328155787
 30
0.0
 40
0.4129048001199199
 50
88.1772973008369405
 51
91.2591235840634027
  0
ARC
  5
783A
  8
0
 10
60.9292723042767292
 20
28.6653415135749299
 30
0.0
 40
0.0453759945450674
 50
90.8653256455603184
 51
97.514411768284134
  0
ARC
  5
783B
  8
0
 10
60.9239243025068689
 20
28.7062883988580708
 30
0.0
 40
0.004081714451629
 50
98.2553024633079417
 51
119.4676021347786019
  0
ARC
  5
783C
  8
0
 10
60.3948025035138727
 20
28.8770465691413385
 30
0.0
 40
0.5440023187942711
 50
321.1266723800632121
 51
332.6148517005830172
  0
ARC
  5
783D
  8
0
 10
57.6125156468167887
 20
31.1034931938311487
 30
0.0
 40
4.1074505131584162
 50
319.3547173447619798
 51
321.3051905002208741
  0
ARC
  5
783E
  8
0
 10
61.3330662014976227
 20
27.9140867260168406
 30
0.0
 40
0.793046707320988
 50
139.6066145951047019
 51
151.6793314881400931
  0
ARC
  5
783F
  8
0
 10
62.5067148351353907
 20
27.393931350584289
 30
0.0
 40
2.075339070769175
 50
154.4105031034071089
 51
169.1142834712194087
  0
ARC
  5
7840
  8
0
 10
63.6994798679391323
 20
27.116593114760871
 30
0.0
 40
3.2993528918879669
 50
168.296444256011398
 51
179.465852574694793
  0
ARC
  5
7841
  8
0
 10
60.4247332308203866
 20
27.1466311447671487
 30
0.0
 40
0.0244734785264089
 50
178.3137281548289934
 51
267.804023142000176
  0
ARC
  5
7842
  8
0
 10
67.512834154692797
 20
27.2540239791751091
 30
0.0
 40
7.1182391772573519
 50
177.5116547683969088
 51
179.6354628451582869
  0
ARC
  5
7843
  8
0
 10
63.0140353580793828
 20
27.5347858070839209
 30
0.0
 40
2.6093351239304812
 50
157.1613130274124046
 51
175.7337179051027931
  0
ARC
  5
7844
  8
0
 10
62.4924228484388919
 20
27.8131121987384695
 30
0.0
 40
2.0213100643270749
 50
145.150713416110392
 51
158.6935427556138904
  0
ARC
  5
7845
  8
0
 10
61.6116561586391072
 20
28.6539222905642887
 30
0.0
 40
0.8390876072890348
 50
154.2478618466803084
 51
158.00894117588021
  0
ARC
  5
7846
  8
0
 10
60.6971399031245866
 20
27.1149074099800487
 30
0.0
 40
0.1762401939664783
 50
104.2037489298307946
 51
135.7008682422969912
  0
ARC
  5
7847
  8
0
 10
61.0275826321599695
 20
25.2110594827083183
 30
0.0
 40
2.1080852448956131
 50
93.0503024308638658
 51
100.2104167761939948
  0
ARC
  5
7848
  8
0
 10
60.800877087173788
 20
26.9754549866245199
 30
0.0
 40
0.3454687617202054
 50
135.7753345867629093
 51
154.8683113786447905
  0
ARC
  5
7849
  8
0
 10
61.1269937555206511
 20
26.7919335954120186
 30
0.0
 40
0.7191864321931948
 50
152.6652532493563967
 51
164.7897085885902868
  0
ARC
  5
784A
  8
0
 10
59.288613174084027
 20
27.2395323349341112
 30
0.0
 40
1.173310781890305
 50
343.450346291321182
 51
347.2517772675338961
  0
ARC
  5
784B
  8
0
 10
61.0304381778216509
 20
27.4549966526033096
 30
0.0
 40
0.8338277276393851
 50
220.2011420783389894
 51
221.3404206333368052
  0
ARC
  5
784C
  8
0
 10
60.4086145454790824
 20
26.9067738615509811
 30
0.0
 40
0.0049227643710158
 50
211.1532579917750923
 51
342.8132901922596716
  0
ARC
  5
784D
  8
0
 10
60.5634860402790309
 20
26.91082123458715
 30
0.0
 40
0.1700160162706654
 50
174.3365583433709958
 51
177.9903110345424864
  0
ARC
  5
784E
  8
0
 10
60.7120324262682374
 20
26.9589251717105185
 30
0.0
 40
0.1983402917661405
 50
179.8343701229281066
 51
246.6492372029784974
  0
ARC
  5
784F
  8
0
 10
60.3393811195080474
 20
313.1343613406667146
 30
0.0
 40
286.3450485796286102
 50
270.1389468043553279
 51
270.235487860126625
  0
ARC
  5
7850
  8
0
 10
61.1126452777030096
 20
34.0292047340534012
 30
0.0
 40
7.2394794501468187
 50
268.0888213164259923
 51
269.3758982748980202
  0
ARC
  5
7851
  8
0
 10
60.9706617080667002
 20
23.7171455336733317
 30
0.0
 40
3.0782139285010182
 50
91.8514976167737842
 51
96.289842345227143
  0
ARC
  5
7852
  8
0
 10
60.9381047957262112
 20
26.7018386615912497
 30
0.0
 40
0.1906868014845855
 50
223.7599010652400864
 51
244.4227690537996978
  0
ARC
  5
7853
  8
0
 10
60.693489943294658
 20
26.3476962015158698
 30
0.0
 40
0.2439546327287592
 50
19.0680596658306101
 51
48.2987034588369113
  0
ARC
  5
7854
  8
0
 10
61.5183302713290914
 20
27.8248569521283606
 30
0.0
 40
1.302392118442983
 50
259.6924207349056246
 51
269.9092302506638248
  0
ARC
  5
7855
  8
0
 10
60.4640456710141976
 20
21.8719606837581289
 30
0.0
 40
4.7431602697113453
 50
80.0293958704243238
 51
84.2031250637957953
  0
ARC
  5
7856
  8
0
 10
60.851678053781832
 20
26.0246522272315914
 30
0.0
 40
0.5735486575771006
 50
80.8266335455265477
 51
94.4801336990534963
  0
ARC
  5
7857
  8
0
 10
61.3179902994471604
 20
34.0268778128322822
 30
0.0
 40
7.6961611805129388
 50
268.4173216976797107
 51
269.7543023649751035
  0
ARC
  5
7858
  8
0
 10
61.1500301527232821
 20
28.3886720253920402
 30
0.0
 40
2.0555033839026979
 50
266.1791245019929875
 51
268.7566104520965951
  0
ARC
  5
7859
  8
0
 10
61.0337928463484332
 20
26.6239344255985202
 30
0.0
 40
0.2869471538052209
 50
263.3979570687222918
 51
265.8559195906864829
  0
ARC
  5
785A
  8
0
 10
61.0066628644030118
 20
26.3945952776147195
 30
0.0
 40
0.0560126538732926
 50
257.4628013394403183
 51
263.9936711899881061
  0
ARC
  5
785B
  8
0
 10
60.9954141991400718
 20
26.3440093573948495
 30
0.0
 40
0.0041911545473283
 50
227.6696787632556891
 51
257.4571334508499945
  0
ARC
  5
785C
  8
0
 10
61.2684812950540518
 20
17.7418303127379602
 30
0.0
 40
8.6217249270060794
 50
90.0119655492006956
 51
91.1507956174235829
  0
ARC
  5
785D
  8
0
 10
61.1382779694595087
 20
24.0365054889447194
 30
0.0
 40
2.325707441060914
 50
91.0582651244610304
 51
92.7870647165093061
  0
ARC
  5
785E
  8
0
 10
61.0484112597913224
 20
25.8801097483991605
 30
0.0
 40
0.4799142172071972
 50
92.7731572807747966
 51
95.2368971279243652
  0
ARC
  5
785F
  8
0
 10
61.0144244893498922
 20
26.2540446972820298
 30
0.0
 40
0.1044384233637998
 50
95.3935757946330796
 51
98.6127696453208245
  0
ARC
  5
7860
  8
0
 10
61.0033142701761975
 20
26.3276205859131593
 30
0.0
 40
0.0300284478260208
 50
98.6766504168736844
 51
102.7624719567885023
  0
ARC
  5
7861
  8
0
 10
60.9985593310593615
 20
26.3482591102168193
 30
0.0
 40
0.0088497468782537
 50
102.2560870222367981
 51
110.2127305413497993
  0
ARC
  5
7862
  8
0
 10
60.9960603262676386
 20
26.3548741881206787
 30
0.0
 40
0.0017796238724867
 50
108.2950390560068996
 51
128.2165763974294066
  0
ARC
  5
7863
  8
0
 10
60.9951877688330697
 20
26.3559808258380492
 30
0.0
 40
0.0003703690208008
 50
128.0706172085027106
 51
165.6950379010447989
  0
ARC
  5
7864
  8
0
 10
61.5080930280057103
 20
11.7343086593992005
 30
0.0
 40
14.6262323756643298
 50
89.9679799218314997
 51
90.4072086771935801
  0
ARC
  5
7865
  8
0
 10
61.4782448954370508
 20
13.9387111576598404
 30
0.0
 40
12.4216815122116593
 50
90.3418000830175458
 51
91.2160700627198793
  0
ARC
  5
7866
  8
0
 10
61.3352085506557074
 20
20.6970426225994117
 30
0.0
 40
5.6618366037647156
 50
91.2203892449930152
 51
92.126775604546765
  0
ARC
  5
7867
  8
0
 10
61.2054748674746989
 20
24.1905228131110803
 30
0.0
 40
2.1659483518257021
 50
92.1268079902214936
 51
93.4666790359467825
  0
ARC
  5
7868
  8
0
 10
61.1045367500308814
 20
25.8198138620134898
 30
0.0
 40
0.5335398316326253
 50
93.2268426944292088
 51
96.2581972080391637
  0
ARC
  5
7869
  8
0
 10
61.0563852873274726
 20
26.2562879524925989
 30
0.0
 40
0.0944182807565717
 50
96.0853282123606647
 51
101.3246115892112016
  0
ARC
  5
786A
  8
0
 10
61.0409159300974267
 20
26.3324266772711013
 30
0.0
 40
0.0167256778076344
 50
100.5811795463338996
 51
112.2747087208932015
  0
ARC
  5
786B
  8
0
 10
61.035169958072629
 20
26.3463324022511216
 30
0.0
 40
0.0016802772448545
 50
110.6971669219074954
 51
142.6168722054767954
  0
ARC
  5
786C
  8
0
 10
61.0342092747068605
 20
26.3471172730278589
 30
0.0
 40
0.0004422441611963
 50
147.8559454904564916
 51
234.2156856889571941
  0
ARC
  5
786D
  8
0
 10
61.0356912415902926
 20
26.3487329141607596
 30
0.0
 40
0.0026320742592182
 50
228.6017163704285053
 51
247.9009363177908085
  0
ARC
  5
786E
  8
0
 10
61.0406105374327197
 20
26.3611323740439794
 30
0.0
 40
0.0159716467425059
 50
248.2843947117297887
 51
258.1785864821604832
  0
ARC
  5
786F
  8
0
 10
61.0570744203556188
 20
26.4412251699493588
 30
0.0
 40
0.0977390078534268
 50
258.3505002988666774
 51
264.1788886570578256
  0
ARC
  5
7870
  8
0
 10
61.1585232778588406
 20
27.5443857863462505
 30
0.0
 40
1.2055501277295191
 50
264.6997873904343805
 51
268.307302320714598
  0
ARC
  5
7871
  8
0
 10
61.380181914741982
 20
33.4659001248977219
 30
0.0
 40
7.1311806220878822
 50
267.9325108106453968
 51
269.2303070484960017
  0
ARC
  5
7872
  8
0
 10
61.4691746246485309
 20
36.3184137612834093
 30
0.0
 40
9.9737178137745044
 50
267.7321540017899792
 51
270.2705313521253743
  0
LINE
  5
7873
  8
0
 10
62.1546190932907265
 20
28.6269709720326517
 30
0.0
 11
62.1106175852313598
 21
28.7098420782273394
 31
0.0
  0
LINE
  5
7874
  8
0
 10
62.2258905080907283
 20
26.5960966341326497
 30
0.0
 11
62.2321516534907317
 21
26.5699524475326498
 31
0.0
  0
LINE
  5
7875
  8
0
 10
62.0377050811319393
 20
26.3560723377021411
 30
0.0
 11
62.0377406030907395
 21
26.3558143052326486
 31
0.0
  0
LINE
  5
7876
  8
0
 10
62.6383527623032776
 20
26.4286712612558503
 30
0.0
 11
62.6383142262907313
 21
20.2717897732326513
 31
0.0
  0
LINE
  5
7877
  8
0
 10
62.6383142262907313
 20
-3.5936695968673522
 30
0.0
 11
62.6383142262907313
 21
20.213104733832651
 31
0.0
  0
LINE
  5
7878
  8
0
 10
62.520203990090728
 20
20.2517897732326517
 30
0.0
 11
62.520203990090728
 21
20.2327897732326498
 31
0.0
  0
LINE
  5
7879
  8
0
 10
62.6383507999907323
 20
27.1472198698326501
 30
0.0
 11
62.6377949150907298
 21
27.2993125706326509
 31
0.0
  0
LINE
  5
787A
  8
0
 10
61.5162669822407366
 20
20.2327897732326498
 30
0.0
 11
62.6186291869907308
 21
20.2327897732326498
 31
0.0
  0
LINE
  5
787B
  8
0
 10
62.6183142262907282
 20
20.2517897732326517
 30
0.0
 11
61.5162669822407366
 21
20.2517897732326411
 31
0.0
  0
LINE
  5
787C
  8
0
 10
62.5444215098907392
 20
27.1221756393326494
 30
0.0
 11
62.6087384996907304
 21
27.1221756393326601
 31
0.0
  0
LINE
  5
787D
  8
0
 10
62.6132094827907366
 20
27.1221756393326494
 30
0.0
 11
62.6087384996907304
 21
27.1221756393326494
 31
0.0
  0
ARC
  5
787E
  8
0
 10
62.6183141871240423
 20
20.2717898123993514
 30
0.0
 40
0.0200000391667309
 50
270.0001122041006738
 51
359.9998877959043284
  0
ARC
  5
787F
  8
0
 10
62.6186291869907308
 20
20.213104733832651
 30
0.0
 40
0.0196850394
 50
0.0
 51
90.0
  0
ARC
  5
7880
  8
0
 10
61.5162669718907225
 20
18.4161819757326484
 30
0.0
 40
8.9202358360999998
 50
86.1376694778001735
 51
89.9999999335203853
  0
ARC
  5
7881
  8
0
 10
61.5162669821907286
 20
21.7774118598326503
 30
0.0
 40
2.399999999999999
 50
82.6389140609004187
 51
89.9999999988059471
  0
ARC
  5
7882
  8
0
 10
61.5162669821907286
 20
25.577411859832651
 30
0.0
 40
2.399999999999999
 50
270.0000000011935981
 51
277.3610859390001906
  0
ARC
  5
7883
  8
0
 10
61.7981354816907285
 20
23.395543360332649
 30
0.0
 40
0.2
 50
277.3610859399000788
 51
352.6389140691001103
  0
ARC
  5
7884
  8
0
 10
61.7981354816907285
 20
23.9592803593326416
 30
0.0
 40
0.2
 50
7.3610859399000734
 51
82.6389140690996129
  0
ARC
  5
7885
  8
0
 10
62.578314226290729
 20
26.9244984346326497
 30
0.0
 40
0.06
 50
2.9623656215001111
 51
69.2894023561999148
  0
ARC
  5
7886
  8
0
 10
62.6133316353582501
 20
27.1471945186109487
 30
0.0
 40
0.0250191774763219
 50
269.7202604127260201
 51
0.0580561954412577
  0
ARC
  5
7887
  8
0
 10
62.3451321214907423
 20
26.3471744032326498
 30
0.0
 40
0.2498836297
 50
161.2749050104999071
 51
169.8139143079000917
  0
ARC
  5
7888
  8
0
 10
62.3448484868501325
 20
26.3771388222749117
 30
0.0
 40
0.2496059238900108
 50
118.5232678211637989
 51
172.7698433177752975
  0
ARC
  5
7889
  8
0
 10
62.4396596355907292
 20
26.4502074133326595
 30
0.0
 40
0.1998568599
 50
276.2856848255999012
 51
1.505142645976588
  0
ARC
  5
788A
  8
0
 10
62.3395732835907381
 20
27.1199753923326483
 30
0.0
 40
0.1697110878
 50
5.9352090818000347
 51
44.0599749896998887
  0
ARC
  5
788B
  8
0
 10
62.0195485170154299
 20
28.9414078923238804
 30
0.0
 40
0.1749731954355203
 50
8.8710412325738002
 51
26.1374435791128406
  0
ARC
  5
788C
  8
0
 10
62.1032024768800426
 20
28.8145935583494115
 30
0.0
 40
0.1050136011173133
 50
274.0490779320393244
 51
3.1740381109984588
  0
ARC
  5
788D
  8
0
 10
62.0388013430634473
 20
26.401259009125571
 30
0.0
 40
0.0611908109969828
 50
341.2152093948490119
 51
350.6951743468475797
  0
ARC
  5
788E
  8
0
 10
62.0376878633907296
 20
26.4160948897326584
 30
0.0
 40
0.0600225545
 50
270.0164355536996936
 51
352.7808347055000127
  0
ARC
  5
788F
  8
0
 10
61.5220379365907277
 20
41.8541937025326405
 30
0.0
 40
15.5204778669000003
 50
269.978695801864319
 51
270.8347398505998171
  0
ARC
  5
7890
  8
0
 10
61.5162669754907299
 20
37.6382229703326487
 30
0.0
 40
8.9439936091999996
 50
270.0000000432409024
 51
272.9653448805997868
  0
ARC
  5
7891
  8
0
 10
61.5150745971064623
 20
-113.9854299274907987
 30
0.0
 40
140.3492090273884969
 50
89.8976227642912704
 51
89.9995132239347413
  0
ARC
  5
7892
  8
0
 10
60.4851746594075621
 20
26.9292569583123687
 30
0.0
 40
2.0338911825917259
 50
0.8519523130327392
 51
5.8772977886455946
  0
ARC
  5
7893
  8
0
 10
60.7080185710161828
 20
28.7368271967454412
 30
0.0
 40
1.502363137619017
 50
3.1891788381094579
 51
8.8665070772711712
  0
ARC
  5
7894
  8
0
 10
59.6162669821907372
 20
23.6774118598326488
 30
0.0
 40
2.399999999999999
 50
352.6389140608999924
 51
7.361085938999925
  0
ARC
  5
7895
  8
0
 10
58.2140196946145991
 20
27.363344166980589
 30
0.0
 40
4.421720383245634
 50
2.5888969550152141
 51
4.742201838638378
  0
ARC
  5
7896
  8
0
 10
60.9313653240005166
 20
268.5180743402635812
 30
0.0
 40
242.1886622241692919
 50
270.1383732364542993
 51
270.193088414792328
  0
ARC
  5
7897
  8
0
 10
51.3117361932047729
 20
26.5845939027900293
 30
0.0
 40
11.3284474081835107
 50
359.346851323000692
 51
0.0461195869768635
  0
ARC
  5
7898
  8
0
 10
28.6408028646907411
 20
26.6268002281326517
 30
0.0
 40
33.9993931668999991
 50
359.9442407297000841
 51
0.4886856534000433
  0
LINE
  5
7899
  8
0
 10
62.2256577622907372
 20
26.5964483942326488
 30
0.0
 11
62.2258905081907301
 21
26.5960966342326515
 31
0.0
  0
LINE
  5
789A
  8
0
 10
62.0377406030907395
 20
26.3558143052326486
 30
0.0
 11
62.0399421048907271
 21
26.3409109423326484
 31
0.0
  0
ARC
  5
789B
  8
0
 10
61.2290634174237098
 20
26.3581347045270817
 30
0.0
 40
1.3502182923567949
 50
357.7974236753905757
 51
21.3744905245161796
  0
ARC
  5
789C
  8
0
 10
61.2759742013786166
 20
28.3880796596475307
 30
0.0
 40
2.0277676041722681
 50
297.9265604098038125
 51
305.4860284791978984
  0
ARC
  5
789D
  8
0
 10
62.3355579373907602
 20
26.8988282529326206
 30
0.0
 40
0.2000486336999497
 50
305.9853726845964843
 51
328.7696862962192199
  0
ARC
  5
789E
  8
0
 10
62.0401660069734433
 20
26.4005962305281194
 30
0.0
 40
0.0596857081646762
 50
269.7850628760575091
 51
341.3957145773862862
  0
ARC
  5
789F
  8
0
 10
61.4074180782393881
 20
39.022047093844769
 30
0.0
 40
12.8139267899476206
 50
270.4867093367744815
 51
274.7187044062487757
  0
ARC
  5
78A0
  8
0
 10
61.5014754906494119
 20
33.0163813998360709
 30
0.0
 40
3.9318060318292809
 50
270.2155477745051257
 51
276.9490443041722187
  0
ARC
  5
78A1
  8
0
 10
62.020646603364888
 20
28.9421813946651092
 30
0.0
 40
0.1736467794688565
 50
26.0679322916850715
 51
57.464842714355548
  0
ARC
  5
78A2
  8
0
 10
62.0186098759408182
 20
28.9395055727076915
 30
0.0
 40
0.1769982671639856
 50
57.3748569697218329
 51
90.6779794475284291
  0
ARC
  5
78A3
  8
0
 10
62.0294277336550977
 20
28.6923714801066794
 30
0.0
 40
0.4243164775007104
 50
91.7438168100917864
 51
97.0741923392440356
  0
ARC
  5
78A4
  8
0
 10
62.1955396280462764
 20
24.8476460987943391
 30
0.0
 40
3.8646328623395778
 50
91.6873916687374049
 51
93.2126658496576397
  0
ARC
  5
78A5
  8
0
 10
62.0948737333561809
 20
28.2979072328155787
 30
0.0
 40
0.4129048001199199
 50
88.7408764159366257
 51
91.8227026991630737
  0
ARC
  5
78A6
  8
0
 10
62.1032616602047369
 20
28.6653415135749299
 30
0.0
 40
0.0453759945450674
 50
82.485588231715866
 51
89.1346743544400795
  0
ARC
  5
78A7
  8
0
 10
62.1086096619745973
 20
28.7062883988580708
 30
0.0
 40
0.004081714451629
 50
60.5323978652213697
 51
81.7446975366920725
  0
ARC
  5
78A8
  8
0
 10
62.6377314609676006
 20
28.8770465691413385
 30
0.0
 40
0.5440023187942711
 50
207.3851482994170112
 51
218.8733276199367879
  0
ARC
  5
78A9
  8
0
 10
65.4200183176646703
 20
31.1034931938311487
 30
0.0
 40
4.1074505131584162
 50
218.6948094997790975
 51
220.6452826552379065
  0
ARC
  5
78AA
  8
0
 10
61.6994677629838506
 20
27.9140867260168406
 30
0.0
 40
0.793046707320988
 50
28.3206685118598713
 51
40.3933854048952981
  0
ARC
  5
78AB
  8
0
 10
60.5258191293460897
 20
27.393931350584289
 30
0.0
 40
2.075339070769175
 50
10.8857165287805593
 51
25.5894968965928804
  0
ARC
  5
78AC
  8
0
 10
59.333054096542341
 20
27.116593114760871
 30
0.0
 40
3.2993528918879669
 50
0.5341474253052149
 51
11.7035557439886198
  0
ARC
  5
78AD
  8
0
 10
62.6078007336610796
 20
27.1466311447671487
 30
0.0
 40
0.0244734785264089
 50
272.1959768579993124
 51
1.68627184517095
  0
ARC
  5
78AE
  8
0
 10
55.5196998097886691
 20
27.2540239791751091
 30
0.0
 40
7.1182391772573519
 50
0.364537154841631
 51
2.4883452316031001
  0
ARC
  5
78AF
  8
0
 10
60.0184986064020833
 20
27.5347858070839209
 30
0.0
 40
2.6093351239304812
 50
4.2662820948972104
 51
22.8386869725876309
  0
ARC
  5
78B0
  8
0
 10
60.5401111160425813
 20
27.8131121987384695
 30
0.0
 40
2.0213100643270749
 50
21.3064572443860385
 51
34.8492865838895511
  0
ARC
  5
78B1
  8
0
 10
61.420877805842359
 20
28.6539222905642887
 30
0.0
 40
0.8390876072890348
 50
21.9910588241198113
 51
25.7521381533197307
  0
ARC
  5
78B2
  8
0
 10
62.3353940613568795
 20
27.1149074099800487
 30
0.0
 40
0.1762401939664783
 50
44.2991317577029307
 51
75.7962510701691343
  0
ARC
  5
78B3
  8
0
 10
62.0049513323214967
 20
25.2110594827083183
 30
0.0
 40
2.1080852448956131
 50
79.7895832238055931
 51
86.9496975691361342
  0
ARC
  5
78B4
  8
0
 10
62.2316568773076781
 20
26.9754549866245199
 30
0.0
 40
0.3454687617202054
 50
25.1316886213551705
 51
44.2246654132371191
  0
ARC
  5
78B5
  8
0
 10
61.9055402089608222
 20
26.7919335954120186
 30
0.0
 40
0.7191864321931948
 50
15.2102914114096901
 51
27.334746750643621
  0
ARC
  5
78B6
  8
0
 10
63.7439207903974321
 20
27.2395323349341112
 30
0.0
 40
1.173310781890305
 50
192.7482227324661039
 51
196.5496537086787043
  0
ARC
  5
78B7
  8
0
 10
62.0020957866598081
 20
27.4549966526033096
 30
0.0
 40
0.8338277276393851
 50
318.6595793666631948
 51
319.7988579216608969
  0
ARC
  5
78B8
  8
0
 10
62.6239194190023909
 20
26.9067738615509811
 30
0.0
 40
0.0049227643710158
 50
197.186709807740101
 51
328.8467420082249077
  0
ARC
  5
78B9
  8
0
 10
62.4690479242024281
 20
26.91082123458715
 30
0.0
 40
0.1700160162706654
 50
2.0096889654574688
 51
5.6634416566290069
  0
ARC
  5
78BA
  8
0
 10
62.3205015382132288
 20
26.9589251717105185
 30
0.0
 40
0.1983402917661405
 50
293.3507627970215026
 51
0.1656298770718521
  0
ARC
  5
78BB
  8
0
 10
62.6931528449734117
 20
313.1343613406667146
 30
0.0
 40
286.3450485796286102
 50
269.764512139873375
 51
269.8610531956446721
  0
ARC
  5
78BC
  8
0
 10
61.9198886867784566
 20
34.0292047340534012
 30
0.0
 40
7.2394794501468187
 50
270.6241017251019798
 51
271.9111786835740077
  0
ARC
  5
78BD
  8
0
 10
62.0618722564147731
 20
23.7171455336733317
 30
0.0
 40
3.0782139285010182
 50
83.710157654772857
 51
88.14850238322623
  0
ARC
  5
78BE
  8
0
 10
62.0944291687552692
 20
26.7018386615912497
 30
0.0
 40
0.1906868014845855
 50
295.5772309462003022
 51
316.240098934759601
  0
ARC
  5
78BF
  8
0
 10
62.3390440211868224
 20
26.3476962015158698
 30
0.0
 40
0.2439546327287592
 50
131.7012965411630034
 51
160.9319403341692976
  0
ARC
  5
78C0
  8
0
 10
61.5142036931523819
 20
27.8248569521283606
 30
0.0
 40
1.302392118442983
 50
270.0907697493362889
 51
280.3075792650943754
  0
ARC
  5
78C1
  8
0
 10
62.5684882934672686
 20
21.8719606837581289
 30
0.0
 40
4.7431602697113453
 50
95.7968749362041905
 51
99.9706041295761167
  0
ARC
  5
78C2
  8
0
 10
62.1808559106996412
 20
26.0246522272315914
 30
0.0
 40
0.5735486575771006
 50
85.5198663009465037
 51
99.1733664544734381
  0
ARC
  5
78C3
  8
0
 10
61.7145436650342987
 20
34.0268778128322822
 30
0.0
 40
7.6961611805129388
 50
270.2456976350247828
 51
271.5826783023202893
  0
ARC
  5
78C4
  8
0
 10
61.8825038117581911
 20
28.3886720253920402
 30
0.0
 40
2.0555033839026979
 50
271.2433895479035186
 51
273.8208754980070125
  0
ARC
  5
78C5
  8
0
 10
61.9987411181330401
 20
26.6239344255985202
 30
0.0
 40
0.2869471538052209
 50
274.1440804093135171
 51
276.6020429312777082
  0
ARC
  5
78C6
  8
0
 10
62.0258711000784615
 20
26.3945952776147195
 30
0.0
 40
0.0560126538732926
 50
276.006328810011496
 51
282.5371986605596817
  0
ARC
  5
78C7
  8
0
 10
62.0371197653414015
 20
26.3440093573948495
 30
0.0
 40
0.0041911545473283
 50
282.5428665491500055
 51
312.3303212367439983
  0
ARC
  5
78C8
  8
0
 10
61.7640526694274214
 20
17.7418303127379602
 30
0.0
 40
8.6217249270060794
 50
88.8492043825764171
 51
89.9880344507993186
  0
ARC
  5
78C9
  8
0
 10
61.8942559950219575
 20
24.0365054889447194
 30
0.0
 40
2.325707441060914
 50
87.2129352834906939
 51
88.9417348755389838
  0
ARC
  5
78CA
  8
0
 10
61.9841227046901508
 20
25.8801097483991605
 30
0.0
 40
0.4799142172071972
 50
84.763102872075649
 51
87.2268427192256155
  0
ARC
  5
78CB
  8
0
 10
62.0181094751315811
 20
26.2540446972820298
 30
0.0
 40
0.1044384233637998
 50
81.3872303546791755
 51
84.6064242053669062
  0
ARC
  5
78CC
  8
0
 10
62.0292196943052687
 20
26.3276205859131593
 30
0.0
 40
0.0300284478260208
 50
77.2375280432114977
 51
81.3233495831263156
  0
ARC
  5
78CD
  8
0
 10
62.0339746334221118
 20
26.3482591102168193
 30
0.0
 40
0.0088497468782537
 50
69.7872694586501723
 51
77.7439129777631734
  0
ARC
  5
78CE
  8
0
 10
62.0364736382138204
 20
26.3548741881206787
 30
0.0
 40
0.0017796238724867
 50
51.7834236025705508
 51
71.7049609439931004
  0
ARC
  5
78CF
  8
0
 10
62.0373461956483965
 20
26.3559808258380492
 30
0.0
 40
0.0003703690208008
 50
14.3049620989551602
 51
51.9293827914972823
  0
ARC
  5
78D0
  8
0
 10
61.5244409364757701
 20
11.7343086593992005
 30
0.0
 40
14.6262323756643298
 50
89.5927913228064057
 51
90.0320200781685145
  0
ARC
  5
78D1
  8
0
 10
61.5542890690444224
 20
13.9387111576598404
 30
0.0
 40
12.4216815122116593
 50
88.7839299372801065
 51
89.6581999169824542
  0
ARC
  5
78D2
  8
0
 10
61.6973254138257516
 20
20.6970426225994117
 30
0.0
 40
5.6618366037647156
 50
87.873224395453235
 51
88.7796107550069848
  0
ARC
  5
78D3
  8
0
 10
61.8270590970067673
 20
24.1905228131110803
 30
0.0
 40
2.1659483518257021
 50
86.5333209640532317
 51
87.8731920097785348
  0
ARC
  5
78D4
  8
0
 10
61.9279972144505919
 20
25.8198138620134898
 30
0.0
 40
0.5335398316326253
 50
83.7418027919608647
 51
86.7731573055708054
  0
ARC
  5
78D5
  8
0
 10
61.9761486771540078
 20
26.2562879524925989
 30
0.0
 40
0.0944182807565717
 50
78.67538841078877
 51
83.9146717876393495
  0
ARC
  5
78D6
  8
0
 10
61.9916180343840395
 20
26.3324266772711013
 30
0.0
 40
0.0167256778076344
 50
67.7252912791068127
 51
79.4188204536661146
  0
ARC
  5
78D7
  8
0
 10
61.9973640064088372
 20
26.3463324022511216
 30
0.0
 40
0.0016802772448545
 50
37.383127794523169
 51
69.302833078092462
  0
ARC
  5
78D8
  8
0
 10
61.9983246897746128
 20
26.3471172730278589
 30
0.0
 40
0.0004422441611963
 50
305.7843143110428059
 51
32.1440545095435226
  0
ARC
  5
78D9
  8
0
 10
61.9968427228911807
 20
26.3487329141607596
 30
0.0
 40
0.0026320742592182
 50
292.0990636822091915
 51
311.3982836295714947
  0
ARC
  5
78DA
  8
0
 10
61.9919234270487465
 20
26.3611323740439794
 30
0.0
 40
0.0159716467425059
 50
281.8214135178394031
 51
291.7156052882701829
  0
ARC
  5
78DB
  8
0
 10
61.9754595441258616
 20
26.4412251699493588
 30
0.0
 40
0.0977390078534268
 50
275.8211113429421744
 51
281.6494997011333226
  0
ARC
  5
78DC
  8
0
 10
61.8740106866226327
 20
27.5443857863462505
 30
0.0
 40
1.2055501277295191
 50
271.6926976792850041
 51
275.3002126095656195
  0
ARC
  5
78DD
  8
0
 10
61.6523520497394912
 20
33.4659001248977219
 30
0.0
 40
7.1311806220878822
 50
270.7696929515039983
 51
272.0674891893546032
  0
ARC
  5
78DE
  8
0
 10
61.5633593398329424
 20
36.3184137612834093
 30
0.0
 40
9.9737178137745044
 50
269.729468647874512
 51
272.2678459982100208
  0
ENDSEC
  0
EOF
