  0
SECTION
  2
HEADER
  9
$ACADVER
  1
AC1009
  9
$INSBASE
 10
4196.0399723401469601
 20
181.5841935101844058
 30
0.0
  9
$EXTMIN
 10
4189.3923624745493726
 20
181.5722021449902002
 30
-0.0015258207003583
  9
$EXTMAX
 10
4197.0772009394841007
 20
184.729096989099304
 30
0.0000000349246037
  9
$LIMMIN
 10
0.0
 20
0.0
  9
$LIMMAX
 10
11.6929133858000007
 20
8.2677165353999982
  9
$ORTHOMODE
 70
     1
  9
$REGENMODE
 70
     1
  9
$FILLMODE
 70
     1
  9
$QTEXTMODE
 70
     0
  9
$MIRRTEXT
 70
     0
  9
$DRAGMODE
 70
     2
  9
$LTSCALE
 40
0.6431102362
  9
$OSMODE
 70
  4095
  9
$ATTMODE
 70
     1
  9
$TEXTSIZE
 40
0.2
  9
$TRACEWID
 40
0.05
  9
$TEXTSTYLE
  7
STANDARD
  9
$CLAYER
  8
0
  9
$CELTYPE
  6
BYLAYER
  9
$CECOLOR
 62
   256
  9
$DIMSCALE
 40
1.0
  9
$DIMASZ
 40
0.1875
  9
$DIMEXO
 40
0.0625
  9
$DIMDLI
 40
0.4443307087
  9
$DIMRND
 40
0.0
  9
$DIMDLE
 40
0.0
  9
$DIMEXE
 40
0.125
  9
$DIMTP
 40
0.01
  9
$DIMTM
 40
0.01
  9
$DIMTXT
 40
2.0
  9
$DIMCEN
 40
0.1052362205
  9
$DIMTSZ
 40
0.0
  9
$DIMTOL
 70
     1
  9
$DIMLIM
 70
     0
  9
$DIMTIH
 70
     1
  9
$DIMTOH
 70
     1
  9
$DIMSE1
 70
     0
  9
$DIMSE2
 70
     0
  9
$DIMTAD
 70
     0
  9
$DIMZIN
 70
     0
  9
$DIMBLK
  1

  9
$DIMASO
 70
     1
  9
$DIMSHO
 70
     1
  9
$DIMPOST
  1
\X
  9
$DIMAPOST
  1

  9
$DIMALT
 70
     1
  9
$DIMALTD
 70
     2
  9
$DIMALTF
 40
25.3999999999999986
  9
$DIMLFAC
 40
1.0
  9
$DIMTOFL
 70
     0
  9
$DIMTVP
 40
0.0
  9
$DIMTIX
 70
     0
  9
$DIMSOXD
 70
     0
  9
$DIMSAH
 70
     0
  9
$DIMBLK1
  1

  9
$DIMBLK2
  1

  9
$DIMSTYLE
  2
STANDARD
  9
$DIMCLRD
 70
     0
  9
$DIMCLRE
 70
     0
  9
$DIMCLRT
 70
     0
  9
$DIMTFAC
 40
1.0
  9
$DIMGAP
 40
0.09
  9
$LUNITS
 70
     2
  9
$LUPREC
 70
     4
  9
$SKETCHINC
 40
0.1
  9
$FILLETRAD
 40
0.0
  9
$AUNITS
 70
     0
  9
$AUPREC
 70
     0
  9
$MENU
  1
.
  9
$ELEVATION
 40
0.0
  9
$PELEVATION
 40
0.0
  9
$THICKNESS
 40
0.0
  9
$LIMCHECK
 70
     0
  9
$BLIPMODE
 70
     0
  9
$CHAMFERA
 40
0.0
  9
$CHAMFERB
 40
0.0
  9
$SKPOLY
 70
     0
  9
$TDCREATE
 40
2458060.468368056230247
  9
$TDUPDATE
 40
2459484.758101852145046
  9
$TDINDWG
 40
0.4435255787
  9
$TDUSRTIMER
 40
0.4435255787
  9
$USRTIMER
 70
     1
  9
$ANGBASE
 50
0.0
  9
$ANGDIR
 70
     0
  9
$PDMODE
 70
     0
  9
$PDSIZE
 40
0.3125
  9
$PLINEWID
 40
0.0
  9
$COORDS
 70
     1
  9
$SPLFRAME
 70
     0
  9
$SPLINETYPE
 70
     6
  9
$SPLINESEGS
 70
     8
  9
$ATTDIA
 70
     1
  9
$ATTREQ
 70
     1
  9
$HANDLING
 70
     1
  9
$HANDSEED
  5
F823
  9
$SURFTAB1
 70
     6
  9
$SURFTAB2
 70
     6
  9
$SURFTYPE
 70
     6
  9
$SURFU
 70
     6
  9
$SURFV
 70
     6
  9
$UCSNAME
  2

  9
$UCSORG
 10
0.0
 20
0.0
 30
0.0
  9
$UCSXDIR
 10
1.0
 20
0.0
 30
0.0
  9
$UCSYDIR
 10
0.0
 20
1.0
 30
0.0
  9
$PUCSNAME
  2

  9
$PUCSORG
 10
0.0
 20
0.0
 30
0.0
  9
$PUCSXDIR
 10
1.0
 20
0.0
 30
0.0
  9
$PUCSYDIR
 10
0.0
 20
1.0
 30
0.0
  9
$USERI1
 70
     0
  9
$USERI2
 70
     0
  9
$USERI3
 70
     0
  9
$USERI4
 70
     0
  9
$USERI5
 70
     0
  9
$USERR1
 40
0.0
  9
$USERR2
 40
0.0
  9
$USERR3
 40
0.0
  9
$USERR4
 40
0.0
  9
$USERR5
 40
0.0
  9
$WORLDVIEW
 70
     1
  9
$SHADEDGE
 70
     3
  9
$SHADEDIF
 70
    70
  9
$TILEMODE
 70
     1
  9
$MAXACTVP
 70
    64
  9
$PLIMCHECK
 70
     0
  9
$PEXTMIN
 10
1.0000000000000000E+20
 20
1.0000000000000000E+20
 30
1.0000000000000000E+20
  9
$PEXTMAX
 10
-1.0000000000000000E+20
 20
-1.0000000000000000E+20
 30
-1.0000000000000000E+20
  9
$PLIMMIN
 10
0.0
 20
0.0
  9
$PLIMMAX
 10
12.0
 20
9.0
  9
$UNITMODE
 70
     0
  9
$VISRETAIN
 70
     1
  9
$PLINEGEN
 70
     0
  9
$PSLTSCALE
 70
     1
  0
ENDSEC
  0
SECTION
  2
TABLES
  0
TABLE
  2
VPORT
 70
     1
  0
VPORT
  2
*ACTIVE
 70
     0
 10
0.0
 20
0.0
 11
1.0
 21
1.0
 12
389.6907143242041798
 22
57.1553873702948323
 13
0.0
 23
0.0
 14
1.0
 24
1.0
 15
0.0
 25
0.0
 16
0.0
 26
0.0
 36
17.1152628219792007
 17
3803.5440673828129547
 27
125.9952621967499056
 37
0.0
 40
3.1843859457995189
 41
2.7718023255813948
 42
50.0
 43
0.0
 44
0.0
 50
0.0
 51
0.0
 71
     0
 72
   100
 73
     1
 74
     1
 75
     0
 76
     0
 77
     0
 78
     0
  0
ENDTAB
  0
TABLE
  2
LTYPE
 70
     2
  0
LTYPE
  2
CONTINUOUS
 70
     0
  3
Solid line
 72
    65
 73
     0
 40
0.0
  0
LTYPE
  2
PHANTOM2
 70
     0
  3
___ _ _ ___ _ _ ___ _ _ ___ _ _
 72
    65
 73
     6
 40
1.25
 49
0.625
 49
-0.125
 49
0.125
 49
-0.125
 49
0.125
 49
-0.125
  0
ENDTAB
  0
TABLE
  2
LAYER
 70
     2
  0
LAYER
  2
0
 70
     0
 62
   255
  6
CONTINUOUS
  0
LAYER
  2
DEFPOINTS
 70
     0
 62
     7
  6
CONTINUOUS
  0
ENDTAB
  0
TABLE
  2
STYLE
 70
     1
  0
STYLE
  2
STANDARD
 70
     0
 40
0.0
 41
0.8
 50
0.0
 71
     0
 42
0.2
  3
txt
  4

  0
ENDTAB
  0
TABLE
  2
VIEW
 70
     0
  0
ENDTAB
  0
TABLE
  2
UCS
 70
     0
  0
ENDTAB
  0
TABLE
  2
APPID
 70
     9
  0
APPID
  2
ACAD
 70
     0
  0
APPID
  2
ACAD_MLEADERVER
 70
     0
  0
APPID
  2
ACAD_EXEMPT_FROM_CAD_STANDARDS
 70
     0
  0
APPID
  2
ACAD_NAV_VCDISPLAY
 70
     0
  0
APPID
  2
ACAECLAYERSTANDARD
 70
     0
  0
APPID
  2
ACCMTRANSPARENCY
 70
     0
  0
APPID
  2
ACAD_DSTYLE_DIMJAG
 70
     0
  0
APPID
  2
ACAD_DSTYLE_DIMTALN
 70
     0
  0
APPID
  2
ACDBATTR
 70
     0
  0
ENDTAB
  0
TABLE
  2
DIMSTYLE
 70
     1
  0
DIMSTYLE
  2
STANDARD
 70
     0
  3

  4

  5

  6

  7

 40
1.0
 41
0.1875
 42
0.0625
 43
0.38
 44
0.125
 45
0.0
 46
0.0
 47
0.01
 48
0.01
140
0.15625
141
0.09
142
0.0
143
25.3999999999999986
144
1.0
145
0.0
146
1.0
147
0.09
 71
     1
 72
     0
 73
     1
 74
     1
 75
     0
 76
     0
 77
     0
 78
     4
170
     0
171
     2
172
     0
173
     0
174
     0
175
     0
176
     0
177
     0
178
     0
  0
ENDTAB
  0
ENDSEC
  0
SECTION
  2
BLOCKS
  0
BLOCK
  8
0
  2
$MODEL_SPACE
 70
     0
 10
0.0
 20
0.0
 30
0.0
  3
$MODEL_SPACE
  1

  0
ENDBLK
  5
21
  8
0
  0
BLOCK
 67
     1
  8
0
  2
$PAPER_SPACE
 70
     0
 10
0.0
 20
0.0
 30
0.0
  3
$PAPER_SPACE
  1

  0
ENDBLK
  5
1D
 67
     1
  8
0
  0
BLOCK
  8
0
  2
_FILLED
 70
     0
 10
0.0
 20
0.0
 30
0.0
  3
_FILLED
  1

  0
SOLID
  5
F636
  8
0
  6
BYBLOCK
 62
     0
 10
0.0
 20
0.0
 30
0.0
 11
-1.0
 21
0.1666666667
 31
0.0
 12
-1.0
 22
-0.1666666667
 32
0.0
 13
-1.0
 23
-0.1666666667
 33
0.0
  0
ENDBLK
  5
F637
  8
0
  6
BYBLOCK
 62
     0
  0
ENDSEC
  0
SECTION
  2
ENTITIES
  0
ATTDEF
  5
E9F3
  8
DEFPOINTS
 10
4196.0406626234516807
 20
181.5882936991876875
 30
0.0
 40
0.001
  1
P24700-LV
  3

  2
MODELNUMBER
 70
     0
1001
ACDBATTR
1070
     0
1070
     1
  0
ATTDEF
  5
E9F4
  8
DEFPOINTS
 10
4196.0406626234516807
 20
181.5866270325209939
 30
0.0
 40
0.001
  1
PER SE
  3

  2
TRADENAME
 70
     0
1001
ACDBATTR
1070
     0
1070
     1
  0
ATTDEF
  5
E9F5
  8
DEFPOINTS
 10
4196.0406626234516807
 20
181.5849603658543003
 30
0.0
 40
0.001
  1
BATHROOM SINK FAUCET
  3

  2
PRODUCT
 70
     0
1001
ACDBATTR
1070
     0
1070
     1
  0
LINE
  5
F6AC
  8
0
 10
4196.8837675389868309
 20
181.8282879983844111
 30
0.0
 11
4195.1904658861303687
 21
181.8282879983844111
 31
0.0
  0
LINE
  5
F6AD
  8
0
 10
4196.8889905446858393
 20
181.5841935101844058
 30
0.0
 11
4195.1871570535868159
 21
181.5841935101844058
 31
0.0
  0
LINE
  5
F6AE
  8
0
 10
4196.9328474674157405
 20
181.6229478674993061
 30
0.0
 11
4195.1448603685703347
 21
181.6229478674993061
 31
0.0
  0
LINE
  5
F6AF
  8
0
 10
4195.5328550944532253
 20
182.0817544109654023
 30
0.0
 11
4196.5446405995498935
 21
182.0817544109654023
 31
0.0
  0
LINE
  5
F6B0
  8
0
 10
4196.5517959526896448
 20
182.1017545434980036
 30
0.0
 11
4195.5241279169013069
 21
182.1017545434980036
 31
0.0
  0
ARC
  5
F6B1
  8
0
 10
4189.5508227242808061
 20
176.9038216180908876
 30
0.0
 40
7.8209339913231171
 50
86.8778812850261488
 51
88.9567758434624665
  0
ARC
  5
F6B2
  8
0
 10
3552.0129193444081466
 20
-14649.6560581408302824
 30
0.0
 40
14848.0809403707698948
 50
87.5318504335892982
 51
87.5374667617724498
  0
ARC
  5
F6B3
  8
0
 10
-12417.4861844927199854
 20
-414403.9173387603950687
 30
0.0
 40
414921.1211095107719302
 50
87.7053796098457923
 51
87.7058888523806957
  0
ARC
  5
F6B4
  8
0
 10
4194.0121873269317803
 20
164.2909800181892024
 30
0.0
 40
20.2420289051454105
 50
85.7251255801798351
 51
86.8747993653665844
  0
ARC
  5
F6B5
  8
0
 10
4195.4516574623366978
 20
183.1624558700302998
 30
0.0
 40
1.316069144282803
 50
59.9922720052189291
 51
86.9772471017589197
  0
ARC
  5
F6B6
  8
0
 10
4196.5495603919862333
 20
182.1169051022644112
 30
0.0
 40
0.0153146061848908
 50
278.3937852026510882
 51
3.5155593770088118
  0
ARC
  5
F6B7
  8
0
 10
4196.5428519038296145
 20
182.0517070165664109
 30
0.0
 40
0.0301005870798759
 50
8.1793734833620881
 51
86.5932515794110174
  0
ARC
  5
F6B8
  8
0
 10
4198.0837708129884049
 20
182.2731906017806978
 30
0.0
 40
1.526654391432285
 50
188.1793734833620988
 51
193.8649850455070123
  0
ARC
  5
F6B9
  8
0
 10
4196.794945201214432
 20
181.9550742551527946
 30
0.0
 40
0.199149413077673
 50
193.8649850455070123
 51
219.541650656918506
  0
ARC
  5
F6BA
  8
0
 10
4196.8837675389677315
 20
181.7682879983080113
 30
0.0
 40
0.0600000000764206
 50
4.8621095229110276
 51
89.9999999832726161
  0
LINE
  5
F6BB
  8
0
 10
4196.9435516329858729
 20
181.7733734787844071
 30
0.0
 11
4196.9491104451863066
 21
181.6425583161843917
 31
0.0
  0
ARC
  5
F6BC
  8
0
 10
4196.9291409052393647
 20
181.642570407313201
 30
0.0
 40
0.0199695436084992
 50
280.6967431475009107
 51
359.9653086367047763
  0
ARC
  5
F6BD
  8
0
 10
4196.9270002783787277
 20
181.5852937109717971
 30
0.0
 40
0.0380256531457114
 50
133.4735156752745127
 51
181.6579770442683923
  0
ARC
  5
F6BE
  8
0
 10
4196.9357999659387133
 20
181.5575940859438901
 30
0.0
 40
0.0654204403159012
 50
92.5867019988634894
 51
122.3046640576280026
  0
ARC
  5
F6BF
  8
0
 10
4196.8140649453998776
 20
182.1172337526114973
 30
0.0
 40
0.2777038266333351
 50
216.7167707712127935
 51
259.182219259121382
  0
ARC
  5
F6C0
  8
0
 10
4197.0271818279943545
 20
183.2325510180540107
 30
0.0
 40
1.4131999332934511
 50
259.182219259121382
 51
262.4493519611258989
  0
ARC
  5
F6C1
  8
0
 10
4196.871310327487663
 20
182.0566229342335873
 30
0.0
 40
0.2269863003472864
 50
262.4493519611258989
 51
269.2352892104385091
  0
ARC
  5
F6C2
  8
0
 10
4196.8677684542672068
 20
181.7912646577997862
 30
0.0
 40
0.0383956126343594
 50
74.6354804586194831
 51
89.2352892104384807
  0
ARC
  5
F6C3
  8
0
 10
4189.7017258307350858
 20
184.5087974192165063
 30
0.0
 40
0.2148304365250076
 50
92.2701729706745368
 51
103.976532794391801
  0
ARC
  5
F6C4
  8
0
 10
4189.6878904149189111
 20
184.5866549206816956
 30
0.0
 40
0.136042705040786
 50
106.2424081103635984
 51
156.8393242781000936
  0
ARC
  5
F6C5
  8
0
 10
4189.7031630663677788
 20
184.5801214580301917
 30
0.0
 40
0.1526541473769234
 50
156.8393242781000936
 51
182.5088140915266877
  0
LINE
  5
F6C6
  8
0
 10
4189.5506552380556968
 20
184.5734393165346034
 30
0.0
 11
4189.5506552380556968
 21
184.4905974813964065
 31
0.0
  0
ARC
  5
F6C7
  8
0
 10
4189.7082799427971622
 20
184.4696355837832016
 30
0.0
 40
0.1590124167993207
 50
172.4249039897204057
 51
217.3270609250209873
  0
ARC
  5
F6C8
  8
0
 10
4189.6817909099390818
 20
184.4494365699619038
 30
0.0
 40
0.1257007218386745
 50
217.3270609250209873
 51
245.524490411903713
  0
ARC
  5
F6C9
  8
0
 10
4191.4526204292296825
 20
188.3395728957472954
 30
0.0
 40
4.3999255427380666
 50
245.524490411903713
 51
247.6875028983957066
  0
ARC
  5
F6CA
  8
0
 10
4189.7020111965721298
 20
184.0737969953248125
 30
0.0
 40
0.2110913427327618
 50
28.7539145948963899
 51
67.6875028983956639
  0
ARC
  5
F6CB
  8
0
 10
4189.6129042306338306
 20
184.0479588941994109
 30
0.0
 40
0.3023167191905335
 50
20.1424809602879691
 51
24.9202995577323705
  0
ARC
  5
F6CC
  8
0
 10
4189.9251679868903011
 20
184.1616293558726909
 30
0.0
 40
0.0300028037368292
 50
198.5924435957176968
 51
265.7316446340370817
  0
ARC
  5
F6CD
  8
0
 10
4189.9022650451879599
 20
183.5352581151140896
 30
0.0
 40
0.5968097007555154
 50
83.453377774877282
 51
88.0152223066383073
  0
ARC
  5
F6CE
  8
0
 10
4190.0957790411903261
 20
185.221508242728504
 30
0.0
 40
1.1005079358488969
 50
263.4533777748773105
 51
268.0152223066381794
  0
ARC
  5
F6CF
  8
0
 10
4267.0813180628692862
 20
1213.0433978970359021
 30
0.0
 40
1031.8006517136889215
 50
265.7189023304695183
 51
265.7496977510593865
  0
ARC
  5
F6D0
  8
0
 10
4200.0899349798646654
 20
310.1137695569515813
 30
0.0
 40
126.3893329861926986
 50
265.6987624880218277
 51
265.7698375934471073
  0
ARC
  5
F6D1
  8
0
 10
4190.7785025132852752
 20
184.1031063498467972
 30
0.0
 40
0.0353112412685604
 50
273.043854340147675
 51
306.1303918202880254
  0
ARC
  5
F6D2
  8
0
 10
4190.8191873133582703
 20
184.7389575097826935
 30
0.0
 40
0.6722338116158172
 50
265.5514714716658204
 51
266.6903290571863181
  0
ARC
  5
F6D3
  8
0
 10
4190.9325508978981816
 20
183.9344661907838088
 30
0.0
 40
0.1933477038800907
 50
110.6238270246953022
 51
133.5556761971982951
  0
ARC
  5
F6D4
  8
0
 10
4190.9292130551157243
 20
183.9433351770688034
 30
0.0
 40
0.1838714117695977
 50
87.1696975173051385
 51
110.6238270246953022
  0
ARC
  5
F6D5
  8
0
 10
4213.4107762276917128
 20
668.8725422510684666
 30
0.0
 40
485.266185131751115
 50
267.3457059450121278
 51
267.8353238869640904
  0
ARC
  5
F6D6
  8
0
 10
4195.0242057723462494
 20
182.5330028458704135
 30
0.0
 40
1.4207962951927029
 50
75.7778472791487587
 51
87.691763186459724
  0
ARC
  5
F6D7
  8
0
 10
4195.2629683951827246
 20
183.4750517990628964
 30
0.0
 40
0.4489610106535748
 50
38.7754061725057682
 51
75.7778472791487587
  0
ARC
  5
F6D8
  8
0
 10
4195.3120242917912037
 20
183.5510090776407992
 30
0.0
 40
0.3642632018856884
 50
2.712386036652187
 51
34.2888400453375226
  0
ARC
  5
F6D9
  8
0
 10
4195.5277169410319402
 20
182.1177730738255889
 30
0.0
 40
0.0164156756811708
 50
179.7517898868298118
 51
257.3711886144399159
  0
ARC
  5
F6DA
  8
0
 10
4195.5331764511865913
 20
182.0517561399844055
 30
0.0
 40
0.0299999921999932
 50
90.613758049357088
 51
171.8811386836086115
  0
ARC
  5
F6DB
  8
0
 10
4193.5424356264629751
 20
182.3357491570747015
 30
0.0
 40
1.980895595586234
 50
348.8635896903402909
 51
351.8811386836085831
  0
ARC
  5
F6DC
  8
0
 10
4195.1924531824251972
 20
181.7682443013657974
 30
0.0
 40
0.0600765752870839
 50
91.8956551007397451
 51
175.1022769606753116
  0
LINE
  5
F6DD
  8
0
 10
4195.1325959653422615
 20
181.7733734788301092
 30
0.0
 11
4195.127037153087258
 21
181.6425583078843999
 31
0.0
  0
ARC
  5
F6DE
  8
0
 10
4195.1467375778629503
 20
181.6425586436683091
 30
0.0
 40
0.0197004247793532
 50
180.0009765780326916
 51
262.8972874707728238
  0
ARC
  5
F6DF
  8
0
 10
4195.1417499300659983
 20
181.5583917275552039
 30
0.0
 40
0.064668034199289
 50
65.5373069992211583
 51
87.738592276829138
  0
ARC
  5
F6E0
  8
0
 10
4195.1530041746118513
 20
181.586728754203989
 30
0.0
 40
0.0342468480959259
 50
355.7545936686694859
 51
63.0430152379951068
  0
ARC
  5
F6E1
  8
0
 10
4195.2124290301344445
 20
181.7649177168503059
 30
0.0
 40
0.0648540732569203
 50
93.9162166364738056
 51
102.2796781632157064
  0
ARC
  5
F6E2
  8
0
 10
4195.1248218241471477
 20
183.0446487381497036
 30
0.0
 40
1.217872128789659
 50
273.9162166364739051
 51
275.4771040808223006
  0
ARC
  5
F6E3
  8
0
 10
4195.1919794960704166
 20
182.3442561118689014
 30
0.0
 40
0.5142671374440561
 50
275.4771040808223006
 51
287.2100171440675922
  0
ARC
  5
F6E4
  8
0
 10
4195.2579659474358778
 20
182.1312201871600109
 30
0.0
 40
0.2912457999434986
 50
287.2100171440675922
 51
313.9324152621529151
  0
ARC
  5
F6E5
  8
0
 10
4195.3379836348003664
 20
182.0481636066789122
 30
0.0
 40
0.1759148593755479
 50
313.9324152621529151
 51
327.3080277028388991
  0
ARC
  5
F6E6
  8
0
 10
4195.3000977338160737
 20
181.9418977519707141
 30
0.0
 40
0.1761992771783691
 50
319.850824327097996
 51
337.4289088122519047
  0
ARC
  5
F6E7
  8
0
 10
4195.0889297400672149
 20
182.0273085828983994
 30
0.0
 40
0.403967021068087
 50
338.5662833534847778
 51
349.4216067013597922
  0
ARC
  5
F6E8
  8
0
 10
4195.7144237366519519
 20
183.3635076594271993
 30
0.0
 40
0.2152185886538489
 50
79.8308095403088345
 51
87.4558637717448164
  0
ARC
  5
F6E9
  8
0
 10
4196.0379873404381215
 20
185.5787344894851003
 30
0.0
 40
2.0236392703070449
 50
261.8876362225693128
 51
263.2397654561273157
  0
ARC
  5
F6EA
  8
0
 10
4196.0355452547410096
 20
185.6490743925496929
 30
0.0
 40
2.0932300360097909
 50
263.5327876157318201
 51
266.7616837600438089
  0
ARC
  5
F6EB
  8
0
 10
4196.0377568618732766
 20
185.7133135494682961
 30
0.0
 40
2.1574920162191642
 50
266.7994139380991783
 51
270.008417037787126
  0
ARC
  5
F6ED
  8
0
 10
4195.7253063358539293
 20
183.4510084239248897
 30
0.0
 40
0.1275126171389669
 50
90.5972968781279064
 51
101.7187395105144958
  0
ARC
  5
F6EE
  8
0
 10
4195.7225924138319897
 20
183.4640919067365132
 30
0.0
 40
0.1141506227062577
 50
101.7187395105144958
 51
148.6927830658785012
  0
ARC
  5
F6EF
  8
0
 10
4195.7270664566285632
 20
183.4613708741426876
 30
0.0
 40
0.1193871365571934
 50
148.6927830658785012
 51
171.2461752598167948
  0
ARC
  5
F6F0
  8
0
 10
4197.6236738754823818
 20
183.2086895729690923
 30
0.0
 40
2.0327294041927488
 50
172.3428588818740081
 51
176.0132775225351907
  0
ARC
  5
F6F1
  8
0
 10
4196.0380726546818551
 20
90.8955381379537357
 30
0.0
 40
92.4233414410307006
 50
89.9999992848395038
 51
90.1597072550537177
  0
ARC
  5
F6F2
  8
0
 10
4195.7841275706186934
 20
181.9993759480157962
 30
0.0
 40
1.319149705261345
 50
90.1597072550537177
 51
91.9010749773984799
  0
ARC
  5
F6F3
  8
0
 10
4195.7371652044830626
 20
183.4142374916318943
 30
0.0
 40
0.0964910159093816
 50
181.0444782533741943
 51
271.9010749773984799
  0
ARC
  5
F6F4
  8
0
 10
4197.1756908197021403
 20
183.4404641211268938
 30
0.0
 40
1.5352556880280579
 50
178.4836848977666932
 51
181.0444782533741943
  0
ARC
  5
F6F5
  8
0
 10
4195.7356876700478097
 20
183.4785822590415876
 30
0.0
 40
0.094748116561368
 50
109.5427666489089944
 51
178.4836848977666932
  0
ARC
  5
F6F6
  8
0
 10
4195.7465055296315768
 20
183.4481058794123101
 30
0.0
 40
0.1270875012382342
 50
85.7135008359229147
 51
109.5427666489089944
  0
LINE
  5
F6F7
  8
0
 10
4195.5480737990874331
 20
182.1017545101844064
 30
0.0
 11
4195.5480737990874331
 21
182.0817544109654023
 31
0.0
  0
ARC
  5
F6F8
  8
0
 10
4195.0661019016642967
 20
182.1640011998439093
 30
0.0
 40
0.4756733645006105
 50
350.0431755421482762
 51
352.4807039157930717
  0
LINE
  5
F6F9
  8
0
 10
4196.5280738174869839
 20
182.1017545101844064
 30
0.0
 11
4196.5280738174869839
 21
182.0817544109654023
 31
0.0
  0
ARC
  5
F6FA
  8
0
 10
4197.0100457149092108
 20
182.1640011998439093
 30
0.0
 40
0.4756733645006105
 50
187.5192960842068999
 51
189.9568244578516101
  0
ARC
  5
F6FB
  8
0
 10
4192.7720574866798415
 20
220.4190736746512869
 30
0.0
 40
36.1714114323073019
 50
265.7974065382388176
 51
266.1504215592291871
  0
ARC
  5
F6FC
  8
0
 10
4190.0491743852298896
 20
182.6626380365329965
 30
0.0
 40
1.683828550969579
 50
87.5451726363299372
 51
95.7098601153843163
  0
ARC
  5
F6FD
  8
0
 10
4189.9515834141393498
 20
183.9540146090230905
 30
0.0
 40
0.3904124010665599
 50
100.3191221563161974
 51
111.3693278071580011
  0
ARC
  5
F6FE
  8
0
 10
4189.8325898965276792
 20
184.2559634664372084
 30
0.0
 40
0.0658682935022896
 50
110.6828058060751943
 51
137.6904395449660115
  0
ARC
  5
F6FF
  8
0
 10
4189.8004318786261138
 20
184.2877277867351893
 30
0.0
 40
0.0207870454382658
 50
142.7786643176123107
 51
204.9561731806900013
  0
ARC
  5
F700
  8
0
 10
4192.4056724592774117
 20
185.1396499423057946
 30
0.0
 40
2.7616341673829119
 50
198.1593381051160065
 51
198.4037724893564132
  0
ARC
  5
F701
  8
0
 10
4186.5757746750632577
 20
127.0022501102279051
 30
0.0
 40
57.4507113973013972
 50
86.0306297853160231
 51
86.2396293883395231
  0
ARC
  5
F702
  8
0
 10
4190.461676822532354
 20
183.0034464820905953
 30
0.0
 40
1.31485627261629
 50
78.8937240042164376
 51
86.0306297853160231
  0
ARC
  5
F703
  8
0
 10
4190.559796573172207
 20
183.7315295355776925
 30
0.0
 40
0.5831681739944425
 50
60.0295221672046466
 51
74.5697904205706266
  0
ARC
  5
F704
  8
0
 10
4190.463641310397179
 20
183.6685760346655059
 30
0.0
 40
0.6876958047745698
 50
48.4640808798931673
 51
55.7055885835720872
  0
ARC
  5
F705
  8
0
 10
4190.880335355729585
 20
184.1389684314345061
 30
0.0
 40
0.0592827763013402
 50
359.9863757668099993
 51
48.4640808798931673
  0
ARC
  5
F706
  8
0
 10
4186.1921620323128082
 20
184.6615725283064933
 30
0.0
 40
4.7761353811541261
 50
353.5734521480869148
 51
353.7179553518059265
  0
ARC
  5
F707
  8
0
 10
4196.3617238799206461
 20
183.3635076594271993
 30
0.0
 40
0.2152185886538489
 50
92.5441362282551978
 51
100.1691904596910945
  0
ARC
  5
F708
  8
0
 10
4196.0381602761353861
 20
185.5787344894851003
 30
0.0
 40
2.0236392703070449
 50
276.7602345438726843
 51
278.1123637774308008
  0
ARC
  5
F709
  8
0
 10
4196.0406023618315885
 20
185.6490743925496929
 30
0.0
 40
2.0932300360097909
 50
273.2383162399563048
 51
276.4672123842681799
  0
ARC
  5
F70A
  8
0
 10
4196.0383907546993214
 20
185.7133135494682961
 30
0.0
 40
2.1574920162191642
 50
269.991582962212874
 51
273.2005860619008217
  0
ARC
  5
F70B
  8
0
 10
4196.3508412807177592
 20
183.4510084239248897
 30
0.0
 40
0.1275126171389669
 50
78.2812604894855042
 51
89.4027031218720936
  0
ARC
  5
F70C
  8
0
 10
4196.3535552027396989
 20
183.4640919067365132
 30
0.0
 40
0.1141506227062577
 50
31.307216934121481
 51
78.2812604894855042
  0
ARC
  5
F70D
  8
0
 10
4196.3490811599449444
 20
183.4613708741426876
 30
0.0
 40
0.1193871365571934
 50
8.7538247401831946
 51
31.307216934121481
  0
ARC
  5
F70E
  8
0
 10
4194.4524737410902162
 20
183.2086895729690923
 30
0.0
 40
2.0327294041927488
 50
3.9867224774647969
 51
7.657141118125991
  0
ARC
  5
F70F
  8
0
 10
4196.0380749618898335
 20
90.8955381379537357
 30
0.0
 40
92.4233414410307006
 50
89.8402927449462965
 51
90.0000007151604962
  0
ARC
  5
F710
  8
0
 10
4196.2920200459539046
 20
181.9993759480157962
 30
0.0
 40
1.319149705261345
 50
88.0989250226015344
 51
89.8402927449462965
  0
ARC
  5
F711
  8
0
 10
4196.338982412090445
 20
183.4142374916318943
 30
0.0
 40
0.0964910159093816
 50
268.0989250226015201
 51
358.955521746625891
  0
ARC
  5
F712
  8
0
 10
4194.9004567968713673
 20
183.4404641211268938
 30
0.0
 40
1.5352556880280579
 50
358.955521746625891
 51
1.5163151022333039
  0
ARC
  5
F713
  8
0
 10
4196.3404599465247884
 20
183.4785822590415876
 30
0.0
 40
0.094748116561368
 50
1.5163151022333039
 51
70.4572333510910056
  0
ARC
  5
F714
  8
0
 10
4196.3296420869419308
 20
183.4481058794123101
 30
0.0
 40
0.1270875012382342
 50
70.4572333510910056
 51
94.2864991640771137
  0
ARC
  5
F716
  8
0
 10
4195.8256600276527024
 20
183.8959189527992066
 30
0.0
 40
0.4957397586372477
 50
19.2571296331366391
 51
55.0224186782126665
  0
ARC
  5
F717
  8
0
 10
4195.0478515913891897
 20
183.6241874919606119
 30
0.0
 40
1.3196474903239359
 50
7.6742290872476371
 51
19.2571296331366391
  0
ARC
  5
F718
  8
0
 10
4181.7898593491481734
 20
181.8377085307567995
 30
0.0
 40
14.6974599188988009
 50
6.7844925883537011
 51
7.6742290872476371
  0
ARC
  5
F719
  8
0
 10
3911.002760313257113
 20
201.8300096499478968
 30
0.0
 40
285.1924691156588096
 50
356.1007495201811821
 51
356.2847264651447858
  0
ARC
  5
F71A
  8
0
 10
4170.6733335798226108
 20
184.1308586201562036
 30
0.0
 40
24.9194075672868784
 50
355.3665414907204081
 51
356.1007495201811821
  0
ARC
  5
F71B
  8
0
 10
4252.4192774876119074
 20
186.5700271659501936
 30
0.0
 40
56.0315931425568721
 50
183.2944765201986002
 51
184.5574375346039062
  0
ENDSEC
  0
EOF
